  0
SECTION
  2
HEADER
  9
$ACADVER
  1
AC1015
  9
$ACADMAINTVER
 70
    18
  9
$DWGCODEPAGE
  3
ANSI_1252
  9
$INSBASE
 10
0.0
 20
0.0
 30
0.0
  9
$EXTMIN
 10
0.0
 20
0.0
 30
0.0
  9
$EXTMAX
 10
420.0
 20
297.0
 30
0.0
  9
$LIMMIN
 10
0.0
 20
0.0
  9
$LIMMAX
 10
420.0
 20
297.0
  9
$ORTHOMODE
 70
     0
  9
$REGENMODE
 70
     1
  9
$FILLMODE
 70
     1
  9
$QTEXTMODE
 70
     0
  9
$MIRRTEXT
 70
     0
  9
$LTSCALE
 40
1.0
  9
$ATTMODE
 70
     1
  9
$TEXTSIZE
 40
0.2
  9
$TRACEWID
 40
0.05
  9
$TEXTSTYLE
  7
Standard
  9
$CLAYER
  8
0
  9
$CELTYPE
  6
ByLayer
  9
$CECOLOR
 62
   256
  9
$CELTSCALE
 40
1.0
  9
$DISPSILH
 70
     0
  9
$DIMSCALE
 40
1.0
  9
$DIMASZ
 40
1.799999999999999
  9
$DIMEXO
 40
0.0625
  9
$DIMDLI
 40
0.38
  9
$DIMRND
 40
0.0
  9
$DIMDLE
 40
0.0
  9
$DIMEXE
 40
0.18
  9
$DIMTP
 40
0.0
  9
$DIMTM
 40
0.0
  9
$DIMTXT
 40
0.25
  9
$DIMCEN
 40
0.09
  9
$DIMTSZ
 40
0.0
  9
$DIMTOL
 70
     0
  9
$DIMLIM
 70
     0
  9
$DIMTIH
 70
     1
  9
$DIMTOH
 70
     1
  9
$DIMSE1
 70
     0
  9
$DIMSE2
 70
     0
  9
$DIMTAD
 70
     0
  9
$DIMZIN
 70
     0
  9
$DIMBLK
  1

  9
$DIMASO
 70
     1
  9
$DIMSHO
 70
     1
  9
$DIMPOST
  1

  9
$DIMAPOST
  1

  9
$DIMALT
 70
     0
  9
$DIMALTD
 70
     2
  9
$DIMALTF
 40
25.4
  9
$DIMLFAC
 40
1.0
  9
$DIMTOFL
 70
     0
  9
$DIMTVP
 40
0.0
  9
$DIMTIX
 70
     0
  9
$DIMSOXD
 70
     0
  9
$DIMSAH
 70
     0
  9
$DIMBLK1
  1

  9
$DIMBLK2
  1

  9
$DIMSTYLE
  2
Standard
  9
$DIMCLRD
 70
     0
  9
$DIMCLRE
 70
     0
  9
$DIMCLRT
 70
     0
  9
$DIMTFAC
 40
1.0
  9
$DIMGAP
 40
0.09
  9
$DIMJUST
 70
     0
  9
$DIMSD1
 70
     0
  9
$DIMSD2
 70
     0
  9
$DIMTOLJ
 70
     1
  9
$DIMTZIN
 70
     0
  9
$DIMALTZ
 70
     0
  9
$DIMALTTZ
 70
     0
  9
$DIMUPT
 70
     0
  9
$DIMDEC
 70
     4
  9
$DIMTDEC
 70
     4
  9
$DIMALTU
 70
     2
  9
$DIMALTTD
 70
     2
  9
$DIMTXSTY
  7
Standard
  9
$DIMAUNIT
 70
     0
  9
$DIMADEC
 70
     0
  9
$DIMALTRND
 40
0.0
  9
$DIMAZIN
 70
     0
  9
$DIMDSEP
 70
    46
  9
$DIMATFIT
 70
     3
  9
$DIMFRAC
 70
     0
  9
$DIMLDRBLK
  1

  9
$DIMLUNIT
 70
     2
  9
$DIMLWD
 70
    -2
  9
$DIMLWE
 70
    -2
  9
$DIMTMOVE
 70
     0
  9
$LUNITS
 70
     2
  9
$LUPREC
 70
     4
  9
$SKETCHINC
 40
0.1
  9
$FILLETRAD
 40
0.0
  9
$AUNITS
 70
     0
  9
$AUPREC
 70
     0
  9
$MENU
  1
.
  9
$ELEVATION
 40
0.0
  9
$PELEVATION
 40
0.0
  9
$THICKNESS
 40
0.0
  9
$LIMCHECK
 70
     0
  9
$CHAMFERA
 40
0.0
  9
$CHAMFERB
 40
0.0
  9
$CHAMFERC
 40
0.0
  9
$CHAMFERD
 40
0.0
  9
$SKPOLY
 70
     0
  9
$TDCREATE
 40
2455798.472364005
  9
$TDUCREATE
 40
2455798.389030671
  9
$TDUPDATE
 40
2455798.472364005
  9
$TDUUPDATE
 40
2455798.389030671
  9
$TDINDWG
 40
0.0000168634
  9
$TDUSRTIMER
 40
0.0000168634
  9
$USRTIMER
 70
     1
  9
$ANGBASE
 50
0.0
  9
$ANGDIR
 70
     0
  9
$PDMODE
 70
     0
  9
$PDSIZE
 40
0.0
  9
$PLINEWID
 40
0.0
  9
$SPLFRAME
 70
     0
  9
$SPLINETYPE
 70
     6
  9
$SPLINESEGS
 70
     8
  9
$HANDSEED
  5
30D
  9
$SURFTAB1
 70
     6
  9
$SURFTAB2
 70
     6
  9
$SURFTYPE
 70
     6
  9
$SURFU
 70
     6
  9
$SURFV
 70
     6
  9
$UCSBASE
  2

  9
$UCSNAME
  2

  9
$UCSORG
 10
0.0
 20
0.0
 30
0.0
  9
$UCSXDIR
 10
1.0
 20
0.0
 30
0.0
  9
$UCSYDIR
 10
0.0
 20
1.0
 30
0.0
  9
$UCSORTHOREF
  2

  9
$UCSORTHOVIEW
 70
     0
  9
$UCSORGTOP
 10
0.0
 20
0.0
 30
0.0
  9
$UCSORGBOTTOM
 10
0.0
 20
0.0
 30
0.0
  9
$UCSORGLEFT
 10
0.0
 20
0.0
 30
0.0
  9
$UCSORGRIGHT
 10
0.0
 20
0.0
 30
0.0
  9
$UCSORGFRONT
 10
0.0
 20
0.0
 30
0.0
  9
$UCSORGBACK
 10
0.0
 20
0.0
 30
0.0
  9
$PUCSBASE
  2

  9
$PUCSNAME
  2

  9
$PUCSORG
 10
0.0
 20
0.0
 30
0.0
  9
$PUCSXDIR
 10
1.0
 20
0.0
 30
0.0
  9
$PUCSYDIR
 10
0.0
 20
1.0
 30
0.0
  9
$PUCSORTHOREF
  2

  9
$PUCSORTHOVIEW
 70
     0
  9
$PUCSORGTOP
 10
0.0
 20
0.0
 30
0.0
  9
$PUCSORGBOTTOM
 10
0.0
 20
0.0
 30
0.0
  9
$PUCSORGLEFT
 10
0.0
 20
0.0
 30
0.0
  9
$PUCSORGRIGHT
 10
0.0
 20
0.0
 30
0.0
  9
$PUCSORGFRONT
 10
0.0
 20
0.0
 30
0.0
  9
$PUCSORGBACK
 10
0.0
 20
0.0
 30
0.0
  9
$USERI1
 70
     0
  9
$USERI2
 70
     0
  9
$USERI3
 70
     0
  9
$USERI4
 70
     0
  9
$USERI5
 70
     0
  9
$USERR1
 40
0.0
  9
$USERR2
 40
0.0
  9
$USERR3
 40
0.0
  9
$USERR4
 40
0.0
  9
$USERR5
 40
0.0
  9
$WORLDVIEW
 70
     1
  9
$SHADEDGE
 70
     3
  9
$SHADEDIF
 70
    70
  9
$TILEMODE
 70
     1
  9
$MAXACTVP
 70
    64
  9
$PINSBASE
 10
0.0
 20
0.0
 30
0.0
  9
$PLIMCHECK
 70
     0
  9
$PEXTMIN
 10
0.0
 20
0.0
 30
0.0
  9
$PEXTMAX
 10
420.0
 20
297.0
 30
0.0
  9
$PLIMMIN
 10
0.0
 20
0.0
  9
$PLIMMAX
 10
420.0
 20
297.0
  9
$UNITMODE
 70
     0
  9
$VISRETAIN
 70
     1
  9
$PLINEGEN
 70
     0
  9
$PSLTSCALE
 70
     1
  9
$TREEDEPTH
 70
  3020
  9
$CMLSTYLE
  2
Standard
  9
$CMLJUST
 70
     0
  9
$CMLSCALE
 40
1.0
  9
$PROXYGRAPHICS
 70
     1
  9
$MEASUREMENT
 70
     1
  9
$CELWEIGHT
370
    -1
  9
$ENDCAPS
280
     0
  9
$JOINSTYLE
280
     0
  9
$LWDISPLAY
290
     0
  9
$INSUNITS
 70
     4
  9
$HYPERLINKBASE
  1

  9
$STYLESHEET
  1

  9
$XEDIT
290
     1
  9
$CEPSNTYPE
380
     0
  9
$PSTYLEMODE
290
     1
  9
$FINGERPRINTGUID
  2
{1F4B6707-83E2-4462-BBF7-B26EFC18B87F}
  9
$VERSIONGUID
  2
{D48D2E21-0ABB-451E-A5DC-A6510AC04ACB}
  9
$EXTNAMES
290
     1
  9
$PSVPSCALE
 40
0.0
  9
$OLESTARTUP
290
     0
  0
ENDSEC
  0
SECTION
  2
CLASSES
  0
CLASS
  1
ACDBDICTIONARYWDFLT
  2
AcDbDictionaryWithDefault
  3
ObjectDBX Classes
 90
        0
280
     0
281
     0
  0
CLASS
  1
MATERIAL
  2
AcDbMaterial
  3
ObjectDBX Classes
 90
     1153
280
     0
281
     0
  0
CLASS
  1
VISUALSTYLE
  2
AcDbVisualStyle
  3
ObjectDBX Classes
 90
     4095
280
     0
281
     0
  0
CLASS
  1
SCALE
  2
AcDbScale
  3
ObjectDBX Classes
 90
     1153
280
     0
281
     0
  0
CLASS
  1
TABLESTYLE
  2
AcDbTableStyle
  3
ObjectDBX Classes
 90
     4095
280
     0
281
     0
  0
CLASS
  1
MLEADERSTYLE
  2
AcDbMLeaderStyle
  3
ACDB_MLEADERSTYLE_CLASS
 90
     4095
280
     0
281
     0
  0
CLASS
  1
DICTIONARYVAR
  2
AcDbDictionaryVar
  3
ObjectDBX Classes
 90
        0
280
     0
281
     0
  0
CLASS
  1
CELLSTYLEMAP
  2
AcDbCellStyleMap
  3
ObjectDBX Classes
 90
     1152
280
     0
281
     0
  0
CLASS
  1
ACDBPLACEHOLDER
  2
AcDbPlaceHolder
  3
ObjectDBX Classes
 90
        0
280
     0
281
     0
  0
CLASS
  1
LAYOUT
  2
AcDbLayout
  3
ObjectDBX Classes
 90
        0
280
     0
281
     0
  0
ENDSEC
  0
SECTION
  2
TABLES
  0
TABLE
  2
VPORT
  5
8
330
0
100
AcDbSymbolTable
 70
     1
  0
VPORT
  5
57
330
8
100
AcDbSymbolTableRecord
100
AcDbViewportTableRecord
  2
*Active
 70
     0
 10
0.0
 20
0.0
 11
1.0
 21
1.0
 12
210.0
 22
148.5
 13
0.0
 23
0.0
 14
1.0
 24
1.0
 15
0.0
 25
0.0
 16
0.0
 26
0.0
 36
1.0
 17
0.0
 27
0.0
 37
0.0
 40
297.0
 41
1.414141414141414
 42
50.0
 43
0.0
 44
0.0
 50
0.0
 51
0.0
 71
     0
 72
   100
 73
     1
 74
     1
 75
     0
 76
     0
 77
     0
 78
     0
281
     0
 65
     1
110
0.0
120
0.0
130
0.0
111
1.0
121
0.0
131
0.0
112
0.0
122
1.0
132
0.0
 79
     0
146
0.0
  0
ENDTAB
  0
TABLE
  2
LTYPE
  5
5
330
0
100
AcDbSymbolTable
 70
     1
  0
LTYPE
  5
5B
330
5
100
AcDbSymbolTableRecord
100
AcDbLinetypeTableRecord
  2
ByBlock
 70
     0
  3

 72
    65
 73
     0
 40
0.0
  0
LTYPE
  5
5C
330
5
100
AcDbSymbolTableRecord
100
AcDbLinetypeTableRecord
  2
ByLayer
 70
     0
  3

 72
    65
 73
     0
 40
0.0
  0
LTYPE
  5
5D
330
5
100
AcDbSymbolTableRecord
100
AcDbLinetypeTableRecord
  2
Continuous
 70
     0
  3
Solid line
 72
    65
 73
     0
 40
0.0
  0
ENDTAB
  0
TABLE
  2
LAYER
  5
2
330
0
100
AcDbSymbolTable
 70
    33
  0
LAYER
  5
54
330
2
100
AcDbSymbolTableRecord
100
AcDbLayerTableRecord
  2
0
 70
     0
 62
     7
  6
Continuous
370
    -3
390
F
  0
LAYER
  5
88
330
2
100
AcDbSymbolTableRecord
100
AcDbLayerTableRecord
  2
Sichtbare Kanten(DIN)
 70
     0
 62
     7
  6
Continuous
370
    50
390
F
  0
ENDTAB
  0
TABLE
  2
STYLE
  5
3
330
0
100
AcDbSymbolTable
 70
     9
  0
STYLE
  5
55
330
3
100
AcDbSymbolTableRecord
100
AcDbTextStyleTableRecord
  2
Standard
 70
     0
 40
0.0
 41
1.0
 50
0.0
 71
     0
 42
0.2
  3
arial.ttf
  4

1001
ACAD
1000
Arial
1071
      256
  0
STYLE
  5
5A
330
3
100
AcDbSymbolTableRecord
100
AcDbTextStyleTableRecord
  2
Annotative
 70
     0
 40
0.0
 41
1.0
 50
0.0
 71
     0
 42
0.2
  3
txt
  4

1001
AcadAnnotative
1000
AnnotativeData
1002
{
1070
     1
1070
     1
1002
}
  0
STYLE
  5
94
330
3
100
AcDbSymbolTableRecord
100
AcDbTextStyleTableRecord
  2
Aktuell-BSI
 70
     0
 40
0.0
 41
1.0
 50
0.0
 71
     0
 42
0.2
  3
arial.ttf
  4

1001
ACAD
1000
Arial
1071
      256
  0
STYLE
  5
95
330
3
100
AcDbSymbolTableRecord
100
AcDbTextStyleTableRecord
  2
Aktuell-DIN
 70
     0
 40
0.0
 41
0.899999976158142
 50
0.0
 71
     0
 42
0.2
  3
arial.ttf
  4

1001
ACAD
1000
Arial
1071
      256
  0
STYLE
  5
96
330
3
100
AcDbSymbolTableRecord
100
AcDbTextStyleTableRecord
  2
STANDARD-DIN
 70
     0
 40
0.0
 41
1.0
 50
0.0
 71
     0
 42
0.2
  3
arial.ttf
  4

1001
ACAD
1000
Arial
1071
      256
  0
STYLE
  5
97
330
3
100
AcDbSymbolTableRecord
100
AcDbTextStyleTableRecord
  2
STANDARD-DINNach Layer
 70
     0
 40
0.0
 41
1.0
 50
0.0
 71
     0
 42
0.2
  3
arial.ttf
  4

1001
ACAD
1000
Arial
1071
      256
  0
STYLE
  5
98
330
3
100
AcDbSymbolTableRecord
100
AcDbTextStyleTableRecord
  2
STANDARDGroßer Text
 70
     0
 40
0.0
 41
1.0
 50
0.0
 71
     0
 42
0.2
  3
arial.ttf
  4

1001
ACAD
1000
Arial
1071
      256
  0
STYLE
  5
99
330
3
100
AcDbSymbolTableRecord
100
AcDbTextStyleTableRecord
  2
STANDARDNach Layer
 70
     0
 40
0.0
 41
1.0
 50
0.0
 71
     0
 42
0.2
  3
arial.ttf
  4

1001
ACAD
1000
Arial
1071
      256
  0
STYLE
  5
9A
330
3
100
AcDbSymbolTableRecord
100
AcDbTextStyleTableRecord
  2
StüLiDaten
 70
     0
 40
0.0
 41
1.0
 50
0.0
 71
     0
 42
0.2
  3
arial.ttf
  4

1001
ACAD
1000
Arial
1071
      256
  0
ENDTAB
  0
TABLE
  2
VIEW
  5
6
330
0
100
AcDbSymbolTable
 70
     0
  0
ENDTAB
  0
TABLE
  2
UCS
  5
7
330
0
100
AcDbSymbolTable
 70
     0
  0
ENDTAB
  0
TABLE
  2
APPID
  5
9
330
0
100
AcDbSymbolTable
 70
     3
  0
APPID
  5
56
330
9
100
AcDbSymbolTableRecord
100
AcDbRegAppTableRecord
  2
ACAD
 70
     0
  0
APPID
  5
5E
330
9
100
AcDbSymbolTableRecord
100
AcDbRegAppTableRecord
  2
AcadAnnotative
 70
     0
  0
APPID
  5
306
330
9
100
AcDbSymbolTableRecord
100
AcDbRegAppTableRecord
  2
ACAD_MLEADERVER
 70
     0
  0
ENDTAB
  0
TABLE
  2
DIMSTYLE
  5
A
330
0
100
AcDbSymbolTable
 70
    10
100
AcDbDimStyleTable
 71
     0
  0
DIMSTYLE
105
58
330
A
100
AcDbSymbolTableRecord
100
AcDbDimStyleTableRecord
  2
Standard
 70
     0
340
55
  0
DIMSTYLE
105
59
330
A
100
AcDbSymbolTableRecord
100
AcDbDimStyleTableRecord
  2
Annotative
 70
     0
340
55
1001
AcadAnnotative
1000
AnnotativeData
1002
{
1070
     1
1070
     1
1002
}
  0
DIMSTYLE
105
9B
330
A
100
AcDbSymbolTableRecord
100
AcDbDimStyleTableRecord
  2
DIN - Andere
 70
     0
 41
2.5
 42
0.0
 43
5.999999999999999
 44
3.174999999999999
 45
0.00000001
 46
10.0
 73
     0
 74
     0
 77
     1
 78
     8
 79
     2
140
3.5
143
0.03937
147
0.8
171
     3
172
     1
176
     7
177
     7
178
     7
271
     2
272
     2
274
     3
278
    44
284
     8
286
     8
340
94
371
    25
372
    25
  0
DIMSTYLE
105
9C
330
A
100
AcDbSymbolTableRecord
100
AcDbDimStyleTableRecord
  2
DIN - Andere$7
 70
     0
 41
2.5
 42
0.0
 43
5.999999999999999
 44
3.174999999999999
 45
0.00000001
 46
10.0
 73
     0
 74
     0
 77
     1
 78
     8
 79
     2
140
3.5
143
0.03937
147
0.8
171
     3
172
     1
176
     7
177
     7
178
     7
271
     2
272
     2
274
     3
278
    44
284
     8
286
     8
340
94
371
    25
372
    25
  0
DIMSTYLE
105
9D
330
A
100
AcDbSymbolTableRecord
100
AcDbDimStyleTableRecord
  2
DIN - AndereGroßer Text
 70
     0
 41
5.0
 42
0.0
 43
5.999999999999999
 44
3.174999999999999
 45
0.00000001
 46
10.0
 73
     0
 74
     0
 77
     1
 78
     8
 79
     2
140
3.75
143
0.03937
146
0.9333333373069763
147
0.8
171
     3
172
     1
176
     7
177
     7
178
     7
271
     2
272
     2
274
     3
278
    44
284
     8
286
     8
340
98
371
    25
372
    25
  0
DIMSTYLE
105
9E
330
A
100
AcDbSymbolTableRecord
100
AcDbDimStyleTableRecord
  2
DIN - AndereGroßer Text$7
 70
     0
 41
5.0
 42
0.0
 43
5.999999999999999
 44
3.174999999999999
 45
0.00000001
 46
10.0
 73
     0
 74
     0
 77
     1
 78
     8
 79
     2
140
3.75
143
0.03937
146
0.9333333373069763
147
0.8
171
     3
172
     1
176
     7
177
     7
178
     7
271
     2
272
     2
274
     3
278
    44
284
     8
286
     8
340
98
371
    25
372
    25
  0
DIMSTYLE
105
9F
330
A
100
AcDbSymbolTableRecord
100
AcDbDimStyleTableRecord
  2
Führungslinie-Ursprungsindikator(DIN)
 70
     0
 41
2.5
340
55
342
A0
  0
DIMSTYLE
105
B1
330
A
100
AcDbSymbolTableRecord
100
AcDbDimStyleTableRecord
  2
Führungslinie - Bezugsstelle(DIN)
 70
     0
 41
2.5
340
55
342
A0
  0
DIMSTYLE
105
B2
330
A
100
AcDbSymbolTableRecord
100
AcDbDimStyleTableRecord
  2
Führungslinie - Punkt(DIN)
 70
     0
 41
2.5
340
55
342
A0
  0
DIMSTYLE
105
B3
330
A
100
AcDbSymbolTableRecord
100
AcDbDimStyleTableRecord
  2
Führungslinie(DIN)
 70
     0
 41
2.5
340
55
342
A0
  0
ENDTAB
  0
TABLE
  2
BLOCK_RECORD
  5
1
330
0
100
AcDbSymbolTable
 70
     3
  0
BLOCK_RECORD
  5
6C
330
1
100
AcDbSymbolTableRecord
100
AcDbBlockTableRecord
  2
*Model_Space
340
6F
  0
BLOCK_RECORD
  5
68
330
1
100
AcDbSymbolTableRecord
100
AcDbBlockTableRecord
  2
*Paper_Space
340
6B
  0
BLOCK_RECORD
  5
70
330
1
100
AcDbSymbolTableRecord
100
AcDbBlockTableRecord
  2
*Paper_Space0
340
73
  0
BLOCK_RECORD
  5
A0
330
1
100
AcDbSymbolTableRecord
100
AcDbBlockTableRecord
  2
_Closed
340
0
  0
BLOCK_RECORD
  5
A7
330
1
100
AcDbSymbolTableRecord
100
AcDbBlockTableRecord
  2
DatumFilled45
340
0
  0
ENDTAB
  0
ENDSEC
  0
SECTION
  2
BLOCKS
  0
BLOCK
  5
6D
330
6C
100
AcDbEntity
  8
0
100
AcDbBlockBegin
  2
*Model_Space
 70
     0
 10
0.0
 20
0.0
 30
0.0
  3
*Model_Space
  1

  0
ENDBLK
  5
6E
330
6C
100
AcDbEntity
  8
0
100
AcDbBlockEnd
  0
BLOCK
  5
69
330
68
100
AcDbEntity
 67
     1
  8
0
100
AcDbBlockBegin
  2
*Paper_Space
 70
     0
 10
0.0
 20
0.0
 30
0.0
  3
*Paper_Space
  1

  0
ENDBLK
  5
6A
330
68
100
AcDbEntity
 67
     1
  8
0
100
AcDbBlockEnd
  0
BLOCK
  5
71
330
70
100
AcDbEntity
 67
     1
  8
0
100
AcDbBlockBegin
  2
*Paper_Space0
 70
     0
 10
0.0
 20
0.0
 30
0.0
  3
*Paper_Space0
  1

  0
ENDBLK
  5
72
330
70
100
AcDbEntity
 67
     1
  8
0
100
AcDbBlockEnd
  0
BLOCK
  5
A5
330
A0
100
AcDbEntity
  8
0
100
AcDbBlockBegin
  2
_Closed
 70
     0
 10
0.0
 20
0.0
 30
0.0
  3
_Closed
  1

  0
LINE
  5
A1
330
A0
100
AcDbEntity
  8
0
  6
ByBlock
 62
     0
370
    -2
100
AcDbLine
 10
-1.0
 20
0.1666666666666666
 30
0.0
 11
0.0
 21
0.0
 31
0.0
  0
LINE
  5
A2
330
A0
100
AcDbEntity
  8
0
  6
ByBlock
 62
     0
370
    -2
100
AcDbLine
 10
0.0
 20
0.0
 30
0.0
 11
-1.0
 21
-0.1666666666666666
 31
0.0
  0
LINE
  5
A3
330
A0
100
AcDbEntity
  8
0
  6
ByBlock
 62
     0
370
    -2
100
AcDbLine
 10
-1.0
 20
0.1666666666666666
 30
0.0
 11
-1.0
 21
-0.1666666666666666
 31
0.0
  0
LINE
  5
A4
330
A0
100
AcDbEntity
  8
0
  6
ByBlock
 62
     0
370
    -2
100
AcDbLine
 10
0.0
 20
0.0
 30
0.0
 11
-1.0
 21
0.0
 31
0.0
  0
ENDBLK
  5
A6
330
A0
100
AcDbEntity
  8
0
100
AcDbBlockEnd
  0
BLOCK
  5
A8
330
A7
100
AcDbEntity
  8
0
100
AcDbBlockBegin
  2
DatumFilled45
 70
     0
 10
0.0
 20
0.0
 30
0.0
  3
DatumFilled45
  1

  0
POLYLINE
  5
AA
330
A7
100
AcDbEntity
  8
0
 62
     0
100
AcDb2dPolyline
 66
     1
 10
0.0
 20
0.0
 30
0.0
 70
   128
  0
VERTEX
  5
AB
330
AA
100
AcDbEntity
  8
0
 62
     0
100
AcDbVertex
100
AcDb2dVertex
 10
0.0
 20
1.0
 30
0.0
  0
VERTEX
  5
AC
330
AA
100
AcDbEntity
  8
0
 62
     0
100
AcDbVertex
100
AcDb2dVertex
 10
0.0
 20
-1.0
 30
0.0
  0
VERTEX
  5
AE
330
AA
100
AcDbEntity
  8
0
 62
     0
100
AcDbVertex
100
AcDb2dVertex
 10
-1.0
 20
0.0
 30
0.0
  0
VERTEX
  5
AF
330
AA
100
AcDbEntity
  8
0
 62
     0
100
AcDbVertex
100
AcDb2dVertex
 10
0.0
 20
1.0
 30
0.0
  0
SEQEND
  5
AD
330
AA
100
AcDbEntity
  8
0
 62
     0
  0
SOLID
  5
B0
330
A7
100
AcDbEntity
  8
0
 62
     0
100
AcDbTrace
 10
0.0
 20
1.0
 30
0.0
 11
0.0
 21
-1.0
 31
0.0
 12
-1.0
 22
0.0
 32
0.0
 13
0.0
 23
1.0
 33
0.0
  0
ENDBLK
  5
A9
330
A7
100
AcDbEntity
  8
0
100
AcDbBlockEnd
  0
ENDSEC
  0
SECTION
  2
ENTITIES
  0
SPLINE
  5
B4
330
6C
100
AcDbEntity
  8
Sichtbare Kanten(DIN)
100
AcDbSpline
210
0.0
220
0.0
230
1.0
 70
     8
 71
     3
 72
    10
 73
     6
 74
     0
 42
0.0000000001
 43
0.0000000001
 40
0.0
 40
0.0
 40
0.0
 40
0.0
 40
0.1148132726611515
 40
0.1148132726611515
 40
0.229626545354555
 40
0.229626545354555
 40
0.229626545354555
 40
0.229626545354555
 10
57.68306570701811
 20
-495.6871306921624
 30
0.0
 10
57.51359047819092
 20
-495.686925696832
 30
0.0
 10
57.38407135475696
 20
-495.6867213739336
 30
0.0
 10
57.21003794791108
 20
-495.6863113831284
 30
0.0
 10
57.16609766856286
 20
-495.6861070602299
 30
0.0
 10
57.16609766856286
 20
-495.6859020648994
 30
0.0
  0
SPLINE
  5
B5
330
6C
100
AcDbEntity
  8
Sichtbare Kanten(DIN)
100
AcDbSpline
210
0.0
220
0.0
230
1.0
 70
     8
 71
     3
 72
    14
 73
    10
 74
     0
 42
0.0000000001
 43
0.0000000001
 40
0.0
 40
0.0
 40
0.0
 40
0.0
 40
0.0974569495838747
 40
0.0974569495838747
 40
0.2927788852834933
 40
0.2927788852834933
 40
0.4248721796051108
 40
0.4248721796051108
 40
0.5569655445934747
 40
0.5569655445934747
 40
0.5569655445934747
 40
0.5569655445934747
 10
62.16609766856281
 20
-494.4401086289855
 30
0.0
 10
61.84124121655118
 20
-494.4399346248115
 30
0.0
 10
61.51715658278821
 20
-494.4397610282948
 30
0.0
 10
60.55967790357121
 20
-494.4392382811159
 30
0.0
 10
59.95163202367734
 20
-494.4388928238068
 30
0.0
 10
59.04123682859699
 20
-494.4383082345324
 30
0.0
 10
58.70762564525654
 20
-494.4380734089299
 30
0.0
 10
58.12509630042221
 20
-494.4376017122192
 30
0.0
 10
57.87872204942131
 20
-494.4373668837132
 30
0.0
 10
57.68363780081722
 20
-494.4371310380711
 30
0.0
  0
SPLINE
  5
B6
330
6C
100
AcDbEntity
  8
Sichtbare Kanten(DIN)
100
AcDbSpline
210
0.0
220
0.0
230
1.0
 70
     8
 71
     3
 72
    10
 73
     6
 74
     0
 42
0.0000000001
 43
0.0000000001
 40
0.0
 40
0.0
 40
0.0
 40
0.0
 40
0.062500016067669
 40
0.062500016067669
 40
0.1250000321353379
 40
0.1250000321353379
 40
0.1250000321353379
 40
0.1250000321353379
 10
57.68363780081727
 20
-494.4371310380711
 30
0.0
 10
57.68354242692485
 20
-494.645464313753
 30
0.0
 10
57.68344706549834
 20
-494.853797589435
 30
0.0
 10
57.68325636756483
 20
-495.2704641407986
 30
0.0
 10
57.68316103105767
 20
-495.4787974164806
 30
0.0
 10
57.6830657070181
 20
-495.6871306921624
 30
0.0
  0
LINE
  5
B7
330
6C
100
AcDbEntity
  8
Sichtbare Kanten(DIN)
100
AcDbLine
 10
62.16609766856276
 20
-684.7448494682001
 30
0.0
 11
57.16609766856274
 21
-684.7448494682002
 31
0.0
  0
LINE
  5
B8
330
6C
100
AcDbEntity
  8
Sichtbare Kanten(DIN)
100
AcDbLine
 10
57.16609766856276
 20
-684.7448494682001
 30
0.0
 11
57.16609766856286
 21
-495.6859020648994
 31
0.0
  0
SPLINE
  5
B9
330
6C
100
AcDbEntity
  8
Sichtbare Kanten(DIN)
100
AcDbSpline
210
0.0
220
0.0
230
1.0
 70
     8
 71
     3
 72
    16
 73
    12
 74
     0
 42
0.0000000001
 43
0.0000000001
 40
0.0
 40
0.0
 40
0.0
 40
0.0
 40
0.0978455763792951
 40
0.0978455763792951
 40
0.1956396139575721
 40
0.1956396139575721
 40
0.2934336278446827
 40
0.2934336278446827
 40
0.3437026085023001
 40
0.3437026085023001
 40
0.3939721618195819
 40
0.3939721618195819
 40
0.3939721618195819
 40
0.3939721618195819
 10
59.66609766856274
 20
-698.280976491519
 30
0.0
 10
59.66609766856272
 20
-698.2929795233661
 30
0.0
 10
59.72983627052513
 20
-698.3048703916812
 30
0.0
 10
59.9775330048209
 20
-698.3288712436529
 30
0.0
 10
60.1590564384454
 20
-698.3407553943543
 30
0.0
 10
60.61705636602424
 20
-698.3647499562569
 30
0.0
 10
60.88914811614289
 20
-698.3766341033694
 30
0.0
 10
61.34312640203214
 20
-698.3947983116725
 30
0.0
 10
61.50344308368673
 20
-698.4009497490944
 30
0.0
 10
61.83161719081262
 20
-698.4132837231257
 30
0.0
 10
61.99864600288484
 20
-698.4194355123307
 30
0.0
 10
62.16609766856278
 20
-698.4256022402775
 30
0.0
  0
LINE
  5
BA
330
6C
100
AcDbEntity
  8
Sichtbare Kanten(DIN)
100
AcDbLine
 10
62.16609766856277
 20
-729.9448494682002
 30
0.0
 11
57.16609766856274
 21
-729.9448494682003
 31
0.0
  0
SPLINE
  5
BB
330
6C
100
AcDbEntity
  8
Sichtbare Kanten(DIN)
100
AcDbSpline
210
0.0
220
0.0
230
1.0
 70
     8
 71
     3
 72
    16
 73
    12
 74
     0
 42
0.0000000001
 43
0.0000000001
 40
0.0
 40
0.0
 40
0.0
 40
0.0
 40
0.0975164109147542
 40
0.0975164109147542
 40
0.2929151622455588
 40
0.2929151622455588
 40
0.4883038027568281
 40
0.4883038027568281
 40
0.6378463639661663
 40
0.6378463639661663
 40
0.7873883682327831
 40
0.7873883682327831
 40
0.7873883682327831
 40
0.7873883682327831
 10
62.16609766856278
 20
-698.4256022402775
 30
0.0
 10
61.84109805728164
 20
-698.4196178738524
 30
0.0
 10
61.51687128776194
 20
-698.4136471274256
 30
0.0
 10
60.55912536382553
 20
-698.395670724218
 30
0.0
 10
59.95097301724732
 20
-698.3837919373161
 30
0.0
 10
58.86467602438226
 20
-698.3598090500227
 30
0.0
 10
58.3969137936056
 20
-698.3479308665696
 30
0.0
 10
57.75069994649718
 20
-698.3267622156735
 30
0.0
 10
57.53373622917713
 20
-698.3176355833823
 30
0.0
 10
57.2406151065115
 20
-698.2992805821297
 30
0.0
 10
57.16609766856274
 20
-698.2901535535216
 30
0.0
 10
57.16609766856272
 20
-698.280976491519
 30
0.0
  0
LINE
  5
BC
330
6C
100
AcDbEntity
  8
Sichtbare Kanten(DIN)
100
AcDbLine
 10
57.16609766856271
 20
-729.9448494682002
 30
0.0
 11
57.16609766856272
 21
-698.280976491519
 31
0.0
  0
ARC
  5
BD
330
6C
100
AcDbEntity
  8
Sichtbare Kanten(DIN)
100
AcDbCircle
 10
89.93866428033202
 20
-725.9448494682001
 30
0.0
 40
4.000000000000088
100
AcDbArc
 50
180.0
 51
269.9999999999977
  0
LINE
  5
BE
330
6C
100
AcDbEntity
  8
Sichtbare Kanten(DIN)
100
AcDbLine
 10
85.93866428033194
 20
-688.9448494682
 30
0.0
 11
85.93866428033198
 21
-725.9448494682001
 31
0.0
  0
ARC
  5
BF
330
6C
100
AcDbEntity
  8
Sichtbare Kanten(DIN)
100
AcDbCircle
 10
81.73866428033198
 20
-688.9448494682
 30
0.0
 40
4.199999999999998
100
AcDbArc
 50
0.0
 51
90.0
  0
LINE
  5
C0
330
6C
100
AcDbEntity
  8
Sichtbare Kanten(DIN)
100
AcDbLine
 10
96.51123089210123
 20
-494.4448494682
 30
0.0
 11
68.53866428033299
 21
-494.4448494682
 31
0.0
  0
LINE
  5
C1
330
6C
100
AcDbEntity
  8
Sichtbare Kanten(DIN)
100
AcDbLine
 10
101.5112308921013
 20
-494.4448494682
 30
0.0
 11
101.5112308921012
 21
-495.6948494682
 31
0.0
  0
LINE
  5
C2
330
6C
100
AcDbEntity
  8
Sichtbare Kanten(DIN)
100
AcDbLine
 10
122.1914809075382
 20
-512.4448494681998
 30
0.0
 11
122.1914809075382
 21
-525.4448494682001
 31
0.0
  0
ELLIPSE
  5
C3
330
6C
100
AcDbEntity
  8
Sichtbare Kanten(DIN)
100
AcDbEllipse
 10
115.7162153699419
 20
-525.4448494682001
 30
0.0
 11
-0.0000000000000144
 21
-6.500000000000016
 31
0.0
210
0.0
220
0.0
230
1.0
 40
0.9961946980917453
 41
4.712388980384691
 42
7.853981633974484
  0
LINE
  5
C4
330
6C
100
AcDbEntity
  8
Sichtbare Kanten(DIN)
100
AcDbLine
 10
109.2409498323464
 20
-525.4448494682001
 30
0.0
 11
109.2409498323455
 21
-512.4448494682001
 31
0.0
  0
ELLIPSE
  5
C5
330
6C
100
AcDbEntity
  8
Sichtbare Kanten(DIN)
100
AcDbEllipse
 10
115.7162153699418
 20
-512.4448494682001
 30
0.0
 11
0.0000000000000074
 21
6.500000000000001
 31
0.0
210
0.0
220
0.0
230
1.0
 40
0.9961946980917451
 41
4.71238898038469
 42
7.853981633974483
  0
LINE
  5
C6
330
6C
100
AcDbEntity
  8
Sichtbare Kanten(DIN)
100
AcDbLine
 10
117.7086047661263
 20
-543.4448494682
 30
0.0
 11
104.2291202489704
 21
-543.4448494682
 31
0.0
  0
ELLIPSE
  5
C7
330
6C
100
AcDbEntity
  8
Sichtbare Kanten(DIN)
100
AcDbEllipse
 10
117.7086047661263
 20
-528.4448494682001
 30
0.0
 11
0.0000000000000111
 21
-14.99999999999998
 31
0.0
210
0.0
220
0.0
230
1.0
 40
0.9961946980917455
 41
0.0
 42
1.570796326794895
  0
LINE
  5
C8
330
6C
100
AcDbEntity
  8
Sichtbare Kanten(DIN)
100
AcDbLine
 10
132.6515252375025
 20
-509.4448494682001
 30
0.0
 11
132.6515252375024
 21
-528.4448494682001
 31
0.0
  0
ELLIPSE
  5
C9
330
6C
100
AcDbEntity
  8
Sichtbare Kanten(DIN)
100
AcDbEllipse
 10
117.7086047661263
 20
-509.4448494682001
 30
0.0
 11
0.0000000000000382
 21
15.00000000000002
 31
0.0
210
0.0
220
0.0
230
1.0
 40
0.9961946980917451
 41
4.712388980384687
 42
6.283185307179586
  0
LINE
  5
CA
330
6C
100
AcDbEntity
  8
Sichtbare Kanten(DIN)
100
AcDbLine
 10
104.2291202489704
 20
-494.4448494682
 30
0.0
 11
117.7086047661263
 21
-494.4448494682
 31
0.0
  0
LINE
  5
CB
330
6C
100
AcDbEntity
  8
Sichtbare Kanten(DIN)
100
AcDbLine
 10
117.9264941229954
 20
-543.4448494682
 30
0.0
 11
117.7086047661263
 21
-543.4448494682
 31
0.0
  0
ELLIPSE
  5
CC
330
6C
100
AcDbEntity
  8
Sichtbare Kanten(DIN)
100
AcDbEllipse
 10
117.9264941229954
 20
-528.4448494682
 30
0.0
 11
0.0000000000000164
 21
-15.00000000000005
 31
0.0
210
0.0
220
0.0
230
1.0
 40
0.9961946980917453
 41
0.0000000000000001
 42
1.57079632679489
  0
LINE
  5
CD
330
6C
100
AcDbEntity
  8
Sichtbare Kanten(DIN)
100
AcDbLine
 10
132.8694145943716
 20
-528.4448494682001
 30
0.0
 11
132.8694145943717
 21
-509.4448494682001
 31
0.0
  0
ELLIPSE
  5
CE
330
6C
100
AcDbEntity
  8
Sichtbare Kanten(DIN)
100
AcDbEllipse
 10
117.9264941229955
 20
-509.4448494682001
 30
0.0
 11
0.0000000000000381
 21
15.0
 31
0.0
210
0.0
220
0.0
230
1.0
 40
0.9961946980917451
 41
4.712388980384687
 42
6.283185307179586
  0
LINE
  5
CF
330
6C
100
AcDbEntity
  8
Sichtbare Kanten(DIN)
100
AcDbLine
 10
117.9264941229954
 20
-494.4448494682
 30
0.0
 11
117.7086047661263
 21
-494.4448494682
 31
0.0
  0
ELLIPSE
  5
D0
330
6C
100
AcDbEntity
  8
Sichtbare Kanten(DIN)
100
AcDbEllipse
 10
115.934104726811
 20
-512.4448494682001
 30
0.0
 11
-0.0000000000000354
 21
6.499999999999992
 31
0.0
210
0.0
220
0.0
230
1.0
 40
0.9961946980917455
 41
0.0168255368557366
 42
1.57079632679488
  0
LINE
  5
D1
330
6C
100
AcDbEntity
  8
Sichtbare Kanten(DIN)
100
AcDbLine
 10
109.4588391892147
 20
-512.4448494682001
 30
0.0
 11
109.4588391892156
 21
-525.4448494682001
 31
0.0
  0
ELLIPSE
  5
D2
330
6C
100
AcDbEntity
  8
Sichtbare Kanten(DIN)
100
AcDbEllipse
 10
115.934104726811
 20
-525.4448494682001
 30
0.0
 11
-0.0000000000000141
 21
-6.500000000000001
 31
0.0
210
0.0
220
0.0
230
1.0
 40
0.9961946980917451
 41
4.712388980384691
 42
6.266359770323838
  0
LINE
  5
D3
330
6C
100
AcDbEntity
  8
Sichtbare Kanten(DIN)
100
AcDbLine
 10
104.0112308921012
 20
-491.9448494682
 30
0.0
 11
105.3563641156396
 21
-491.9448494682
 31
0.0
  0
LINE
  5
D4
330
6C
100
AcDbEntity
  8
Sichtbare Kanten(DIN)
100
AcDbLine
 10
105.3563641156396
 20
-489.4448494682
 30
0.0
 11
104.0112308921013
 21
-489.4448494682
 31
0.0
  0
LINE
  5
D5
330
6C
100
AcDbEntity
  8
Sichtbare Kanten(DIN)
100
AcDbLine
 10
110.3563641156396
 20
-489.4448494682001
 30
0.0
 11
110.3563641156396
 21
-491.9448494682001
 31
0.0
  0
LINE
  5
D6
330
6C
100
AcDbEntity
  8
Sichtbare Kanten(DIN)
100
AcDbLine
 10
110.3563641156396
 20
-491.9448494682
 30
0.0
 11
105.3563641156396
 21
-491.9448494682
 31
0.0
  0
LINE
  5
D7
330
6C
100
AcDbEntity
  8
Sichtbare Kanten(DIN)
100
AcDbLine
 10
105.3563641156396
 20
-489.4448494682
 30
0.0
 11
110.3563641156396
 21
-489.4448494682
 31
0.0
  0
LINE
  5
D8
330
6C
100
AcDbEntity
  8
Sichtbare Kanten(DIN)
100
AcDbLine
 10
62.16609766856276
 20
-684.7448494682001
 30
0.0
 11
81.738664280332
 21
-684.7448494682001
 31
0.0
  0
LINE
  5
D9
330
6C
100
AcDbEntity
  8
Sichtbare Kanten(DIN)
100
AcDbLine
 10
62.16609766856286
 20
-494.4401086289855
 30
0.0
 11
68.53866428033299
 21
-494.4448494682
 31
0.0
  0
ARC
  5
DA
330
6C
100
AcDbEntity
  8
Sichtbare Kanten(DIN)
100
AcDbCircle
 10
70.73866428033202
 20
-700.4448494682002
 30
0.0
 40
1.799999999999966
100
AcDbArc
 50
0.0
 51
90.00000000000142
  0
LINE
  5
DB
330
6C
100
AcDbEntity
  8
Sichtbare Kanten(DIN)
100
AcDbLine
 10
72.538664280332
 20
-725.9448494682001
 30
0.0
 11
72.538664280332
 21
-700.4448494682002
 31
0.0
  0
ARC
  5
DC
330
6C
100
AcDbEntity
  8
Sichtbare Kanten(DIN)
100
AcDbCircle
 10
68.53866428033194
 20
-725.9448494682001
 30
0.0
 40
4.000000000000005
100
AcDbArc
 50
270.0000000000005
 51
0.0
  0
LINE
  5
DD
330
6C
100
AcDbEntity
  8
Sichtbare Kanten(DIN)
100
AcDbLine
 10
70.73866428033205
 20
-698.6448494682001
 30
0.0
 11
62.16609766856276
 21
-698.4256022402775
 31
0.0
  0
LINE
  5
DE
330
6C
100
AcDbEntity
  8
Sichtbare Kanten(DIN)
100
AcDbLine
 10
59.66609766856273
 20
-684.7448494682001
 30
0.0
 11
59.66609766856274
 21
-688.9448494682
 31
0.0
  0
LINE
  5
DF
330
6C
100
AcDbEntity
  8
Sichtbare Kanten(DIN)
100
AcDbLine
 10
59.66609766856274
 20
-688.9448494682
 30
0.0
 11
59.66609766856274
 21
-697.6448494681971
 31
0.0
  0
LINE
  5
E0
330
6C
100
AcDbEntity
  8
Sichtbare Kanten(DIN)
100
AcDbLine
 10
59.66609766856276
 20
-698.1448494682001
 30
0.0
 11
59.66609766856276
 21
-698.280976491519
 31
0.0
  0
LINE
  5
E1
330
6C
100
AcDbEntity
  8
Sichtbare Kanten(DIN)
100
AcDbLine
 10
59.66609766856286
 20
-494.4101508863314
 30
0.0
 11
59.66609766856283
 21
-494.4064438069908
 31
0.0
  0
LINE
  5
E2
330
6C
100
AcDbEntity
  8
Sichtbare Kanten(DIN)
100
AcDbLine
 10
57.16609766856272
 20
-698.280976491519
 30
0.0
 11
57.16609766856274
 21
-698.1448494682001
 31
0.0
  0
LINE
  5
E3
330
6C
100
AcDbEntity
  8
Sichtbare Kanten(DIN)
100
AcDbLine
 10
57.16609766856276
 20
-697.6448494681971
 30
0.0
 11
57.16609766856272
 21
-688.9448494682
 31
0.0
  0
LINE
  5
E4
330
6C
100
AcDbEntity
  8
Sichtbare Kanten(DIN)
100
AcDbLine
 10
57.16609766856272
 20
-688.9448494682
 30
0.0
 11
57.16609766856272
 21
-684.7448494682001
 31
0.0
  0
LINE
  5
E5
330
6C
100
AcDbEntity
  8
Sichtbare Kanten(DIN)
100
AcDbLine
 10
57.16609766856274
 20
-698.1448494682001
 30
0.0
 11
59.66609766856276
 21
-698.1448494682001
 31
0.0
  0
LINE
  5
E6
330
6C
100
AcDbEntity
  8
Sichtbare Kanten(DIN)
100
AcDbLine
 10
49.43637872831779
 20
-512.4448494682001
 30
0.0
 11
49.4363787283178
 21
-525.4448494682001
 31
0.0
  0
ELLIPSE
  5
E7
330
6C
100
AcDbEntity
  8
Sichtbare Kanten(DIN)
100
AcDbEllipse
 10
42.96111319072146
 20
-525.4448494682001
 30
0.0
 11
0.0000000000000019
 21
-6.499999999999995
 31
0.0
210
0.0
220
0.0
230
1.0
 40
0.9961946980917451
 41
4.712388980384689
 42
7.853981633974482
  0
LINE
  5
E8
330
6C
100
AcDbEntity
  8
Sichtbare Kanten(DIN)
100
AcDbLine
 10
36.48584765312511
 20
-525.4448494682001
 30
0.0
 11
36.48584765312512
 21
-512.4448494681998
 31
0.0
  0
ELLIPSE
  5
E9
330
6C
100
AcDbEntity
  8
Sichtbare Kanten(DIN)
100
AcDbEllipse
 10
42.96111319072146
 20
-512.4448494682001
 30
0.0
 11
0.0000000000001154
 21
6.500000000000002
 31
0.0
210
0.0
220
0.0
230
1.0
 40
0.9961946980917455
 41
4.712388980384685
 42
7.853981633974478
  0
LINE
  5
EA
330
6C
100
AcDbEntity
  8
Sichtbare Kanten(DIN)
100
AcDbLine
 10
40.96872379453798
 20
-494.4448494682
 30
0.0
 11
54.44820831169366
 21
-494.4152668701246
 31
0.0
  0
ELLIPSE
  5
EB
330
6C
100
AcDbEntity
  8
Sichtbare Kanten(DIN)
100
AcDbEllipse
 10
40.96872379453794
 20
-509.4448494682001
 30
0.0
 11
0.0000000000000171
 21
15.00000000000001
 31
0.0
210
0.0
220
0.0
230
1.0
 40
0.9961946980917451
 41
0.0
 42
1.570796326794897
  0
LINE
  5
EC
330
6C
100
AcDbEntity
  8
Sichtbare Kanten(DIN)
100
AcDbLine
 10
26.02580332316178
 20
-528.4448494682
 30
0.0
 11
26.0258033231618
 21
-509.4448494682001
 31
0.0
  0
ELLIPSE
  5
ED
330
6C
100
AcDbEntity
  8
Sichtbare Kanten(DIN)
100
AcDbEllipse
 10
40.96872379453794
 20
-528.4448494682
 30
0.0
 11
0.000000000000017
 21
-14.99999999999999
 31
0.0
210
0.0
220
0.0
230
1.0
 40
0.9961946980917455
 41
4.712388980384684
 42
6.283185307179586
  0
LINE
  5
EE
330
6C
100
AcDbEntity
  8
Sichtbare Kanten(DIN)
100
AcDbLine
 10
54.44820831169365
 20
-543.4448494682
 30
0.0
 11
40.96872379453794
 21
-543.4448494682
 31
0.0
  0
LINE
  5
EF
330
6C
100
AcDbEntity
  8
Sichtbare Kanten(DIN)
100
AcDbLine
 10
54.23031895482452
 20
-494.4152668701246
 30
0.0
 11
40.75083443766884
 21
-494.4448494682
 31
0.0
  0
ELLIPSE
  5
F0
330
6C
100
AcDbEntity
  8
Sichtbare Kanten(DIN)
100
AcDbEllipse
 10
40.7508344376688
 20
-528.4448494682001
 30
0.0
 11
-0.0000000000000238
 21
-14.99999999999998
 31
0.0
210
0.0
220
0.0
230
1.0
 40
0.9961946980917451
 41
4.712388980384691
 42
6.28318530717959
  0
LINE
  5
F1
330
6C
100
AcDbEntity
  8
Sichtbare Kanten(DIN)
100
AcDbLine
 10
25.80791396629264
 20
-509.4448494682001
 30
0.0
 11
25.80791396629263
 21
-528.4448494682
 31
0.0
  0
ELLIPSE
  5
F2
330
6C
100
AcDbEntity
  8
Sichtbare Kanten(DIN)
100
AcDbEllipse
 10
40.7508344376688
 20
-509.4448494682001
 30
0.0
 11
0.0000000000000007
 21
15.00000000000001
 31
0.0
210
0.0
220
0.0
230
1.0
 40
0.9961946980917455
 41
0.0000000000000001
 42
1.570796326794896
  0
LINE
  5
F3
330
6C
100
AcDbEntity
  8
Sichtbare Kanten(DIN)
100
AcDbLine
 10
49.21848937144867
 20
-525.4448494682001
 30
0.0
 11
49.21848937144865
 21
-512.4448494682001
 31
0.0
  0
ELLIPSE
  5
F4
330
6C
100
AcDbEntity
  8
Sichtbare Kanten(DIN)
100
AcDbEllipse
 10
42.74322383385234
 20
-512.4448494682
 30
0.0
 11
0.000000000000018
 21
6.499999999999995
 31
0.0
210
0.0
220
0.0
230
1.0
 40
0.9961946980917451
 41
4.712388980384692
 42
6.266359770323843
  0
ELLIPSE
  5
F5
330
6C
100
AcDbEntity
  8
Sichtbare Kanten(DIN)
100
AcDbEllipse
 10
42.74322383385234
 20
-525.4448494682001
 30
0.0
 11
0.0000000000000115
 21
-6.499999999999999
 31
0.0
210
0.0
220
0.0
230
1.0
 40
0.9961946980917455
 41
0.0168255368557635
 42
1.570796326794894
  0
LINE
  5
F6
330
6C
100
AcDbEntity
  8
Sichtbare Kanten(DIN)
100
AcDbLine
 10
40.75083443766882
 20
-543.4448494682
 30
0.0
 11
40.96872379453794
 21
-543.4448494682
 31
0.0
  0
ELLIPSE
  5
F7
330
6C
100
AcDbEntity
  8
Sichtbare Kanten(DIN)
100
AcDbEllipse
 10
53.2966688032096
 20
-491.9315592449613
 30
0.0
 11
-5.000000000000009
 21
-0.0000000000000041
 31
0.0
210
0.0
220
0.0
230
1.0
 40
0.0007439448172511
 41
0.0013595599110447
 42
1.572155886610528
  0
ELLIPSE
  5
F8
330
6C
100
AcDbEntity
  8
Sichtbare Kanten(DIN)
100
AcDbEllipse
 10
53.2966688032096
 20
-489.4315599367787
 30
0.0
 11
-5.000000000000013
 21
-0.0000000000000004
 31
0.0
210
0.0
220
0.0
230
1.0
 40
0.0007439448172518
 41
0.001359559629039
 42
1.572155886517561
  0
LINE
  5
F9
330
6C
100
AcDbEntity
  8
Sichtbare Kanten(DIN)
100
AcDbLine
 10
48.22986484165117
 20
-491.8950069760543
 30
0.0
 11
48.2966734242155
 21
-491.9315643021467
 31
0.0
  0
LINE
  5
FA
330
6C
100
AcDbEntity
  8
Sichtbare Kanten(DIN)
100
AcDbLine
 10
48.29667342421547
 20
-489.4315649939642
 30
0.0
 11
48.22986484165117
 21
-489.3950076678717
 31
0.0
  0
ELLIPSE
  5
FB
330
6C
100
AcDbEntity
  8
Sichtbare Kanten(DIN)
100
AcDbEllipse
 10
53.22986022064532
 20
-489.3950026106862
 30
0.0
 11
-5.000000000000036
 21
-0.0000000000000126
 31
0.0
210
0.0
220
0.0
230
1.0
 40
0.0007439448172471
 41
4.711645035510496
 42
6.284544866913931
  0
LINE
  5
FC
330
6C
100
AcDbEntity
  8
Sichtbare Kanten(DIN)
100
AcDbLine
 10
53.23357994473155
 20
-489.3912828876294
 30
0.0
 11
54.66609766856283
 21
-489.3912836804621
 31
0.0
  0
LINE
  5
FD
330
6C
100
AcDbEntity
  8
Sichtbare Kanten(DIN)
100
AcDbLine
 10
53.41609766856286
 20
-489.4352795435078
 30
0.0
 11
53.30346659972871
 21
-489.4352796574271
 31
0.0
  0
LINE
  5
FE
330
6C
100
AcDbEntity
  8
Sichtbare Kanten(DIN)
100
AcDbLine
 10
53.30346659972871
 20
-491.9352789656096
 30
0.0
 11
53.41609766856286
 21
-491.9352788516904
 31
0.0
  0
LINE
  5
FF
330
6C
100
AcDbEntity
  8
Sichtbare Kanten(DIN)
100
AcDbLine
 10
48.22986022064526
 20
-489.3950026106863
 30
0.0
 11
48.22986022064528
 21
-491.8950019188688
 31
0.0
  0
LINE
  5
100
330
6C
100
AcDbEntity
  8
Sichtbare Kanten(DIN)
100
AcDbLine
 10
89.93866428033198
 20
-729.9448494682002
 30
0.0
 11
96.51123089210111
 21
-729.9448494682002
 31
0.0
  0
LINE
  5
101
330
6C
100
AcDbEntity
  8
Sichtbare Kanten(DIN)
100
AcDbLine
 10
62.16609766856274
 20
-729.9448494682002
 30
0.0
 11
68.53866428033194
 21
-729.9448494682002
 31
0.0
  0
LINE
  5
102
330
6C
100
AcDbEntity
  8
Sichtbare Kanten(DIN)
100
AcDbLine
 10
101.5112308921011
 20
-729.9448494682002
 30
0.0
 11
96.51123089210114
 21
-729.9448494682003
 31
0.0
  0
LINE
  5
103
330
6C
100
AcDbEntity
  8
Sichtbare Kanten(DIN)
100
AcDbLine
 10
96.51123089210123
 20
-494.4448494682001
 30
0.0
 11
100.7937404420463
 21
-494.4448494682002
 31
0.0
  0
LINE
  5
104
330
6C
100
AcDbEntity
  8
Sichtbare Kanten(DIN)
100
AcDbLine
 10
101.5112308921013
 20
-495.6948494682001
 30
0.0
 11
101.5112308921011
 21
-729.9448494682002
 31
0.0
  0
LINE
  5
105
330
6C
100
AcDbEntity
  8
Sichtbare Kanten(DIN)
100
AcDbLine
 10
100.7937404420464
 20
-495.6948494681991
 30
0.0
 11
101.5112308921012
 21
-495.6948494681989
 31
0.0
  0
LINE
  5
106
330
6C
100
AcDbEntity
  8
Sichtbare Kanten(DIN)
100
AcDbLine
 10
100.7937404420464
 20
-495.6948494682001
 30
0.0
 11
100.7937404420463
 21
-494.4448494682
 31
0.0
  0
LINE
  5
107
330
6C
100
AcDbEntity
  8
Sichtbare Kanten(DIN)
100
AcDbLine
 10
101.5112308921012
 20
-543.4448494681999
 30
0.0
 11
104.2291202489704
 21
-543.4448494682
 31
0.0
  0
LINE
  5
108
330
6C
100
AcDbEntity
  8
Sichtbare Kanten(DIN)
100
AcDbLine
 10
104.2291202489704
 20
-494.4448494682
 30
0.0
 11
101.5112308921013
 21
-494.4448494681998
 31
0.0
  0
ARC
  5
109
330
6C
100
AcDbEntity
  8
Sichtbare Kanten(DIN)
100
AcDbCircle
 10
104.0112308921013
 20
-494.4448494682
 30
0.0
 40
5.000000000000018
100
AcDbArc
 50
90.00000000000019
 51
180.0
  0
ARC
  5
10A
330
6C
100
AcDbEntity
  8
Sichtbare Kanten(DIN)
100
AcDbCircle
 10
104.0112308921012
 20
-494.4448494682
 30
0.0
 40
2.499999999999976
100
AcDbArc
 50
89.99999999999959
 51
180.0
  0
LINE
  5
10B
330
6C
100
AcDbEntity
  8
Sichtbare Kanten(DIN)
100
AcDbLine
 10
59.66609766856281
 20
-494.391285426536
 30
0.0
 11
59.66609766856283
 21
-494.4064438069908
 31
0.0
  0
LINE
  5
10C
330
6C
100
AcDbEntity
  8
Sichtbare Kanten(DIN)
100
AcDbLine
 10
59.66609766856283
 20
-494.4101508863314
 30
0.0
 11
59.66609766856286
 21
-494.435271176028
 31
0.0
  0
LINE
  5
10D
330
6C
100
AcDbEntity
  8
Sichtbare Kanten(DIN)
100
AcDbLine
 10
59.66609766856286
 20
-494.435271176028
 30
0.0
 11
59.66609766856286
 21
-494.4387063256573
 31
0.0
  0
LINE
  5
10E
330
6C
100
AcDbEntity
  8
Sichtbare Kanten(DIN)
100
AcDbLine
 10
57.16609766856286
 20
-495.6859020648994
 30
0.0
 11
57.16609766856286
 21
-495.6852708301193
 31
0.0
  0
LINE
  5
10F
330
6C
100
AcDbEntity
  8
Sichtbare Kanten(DIN)
100
AcDbLine
 10
57.16609766856286
 20
-495.6852708301193
 30
0.0
 11
57.16609766856286
 21
-494.435271176028
 31
0.0
  0
LINE
  5
110
330
6C
100
AcDbEntity
  8
Sichtbare Kanten(DIN)
100
AcDbLine
 10
53.41609766856286
 20
-489.4352725596629
 30
0.0
 11
54.66609766856283
 21
-489.435272559663
 31
0.0
  0
LINE
  5
111
330
6C
100
AcDbEntity
  8
Sichtbare Kanten(DIN)
100
AcDbLine
 10
54.66609766856283
 20
-491.9352718678454
 30
0.0
 11
53.41609766856283
 21
-491.9352718678454
 31
0.0
  0
LINE
  5
112
330
6C
100
AcDbEntity
  8
Sichtbare Kanten(DIN)
100
AcDbLine
 10
53.41609766856286
 20
-491.9352788516904
 30
0.0
 11
53.41609766856286
 21
-489.4352795435078
 31
0.0
  0
ELLIPSE
  5
113
330
6C
100
AcDbEntity
  8
Sichtbare Kanten(DIN)
100
AcDbEllipse
 10
54.66609766856283
 20
-494.435271176028
 30
0.0
 11
2.500000000000001
 21
0.0000000000000177
 31
0.0
210
0.0
220
0.0
230
1.0
 40
0.9999997232730164
 41
0.0
 42
1.570796326794878
  0
LINE
  5
114
330
6C
100
AcDbEntity
  8
Sichtbare Kanten(DIN)
100
AcDbLine
 10
57.16609766856286
 20
-495.6852708301193
 30
0.0
 11
57.68306655800856
 21
-495.6852708301193
 31
0.0
  0
ELLIPSE
  5
115
330
6C
100
AcDbEntity
  8
Sichtbare Kanten(DIN)
100
AcDbEllipse
 10
54.66609766856281
 20
-494.4352711760281
 30
0.0
 11
5.000000000000033
 21
-0.0000000000000344
 31
0.0
210
0.0
220
0.0
230
1.0
 40
0.9999997232730162
 41
0.0
 42
1.570796326794896
  0
SPLINE
  5
116
330
6C
100
AcDbEntity
  8
Sichtbare Kanten(DIN)
100
AcDbSpline
210
0.0
220
0.0
230
1.0
 70
     8
 71
     3
 72
    16
 73
    12
 74
     0
 42
0.0000000001
 43
0.0000000001
 40
0.0
 40
0.0
 40
0.0
 40
0.0
 40
0.0974833916444421
 40
0.0974833916444421
 40
0.292815759019591
 40
0.292815759019591
 40
0.4881380178230703
 40
0.4881380178230703
 40
0.6376966952226793
 40
0.6376966952226793
 40
0.787254817805072
 40
0.787254817805072
 40
0.787254817805072
 40
0.787254817805072
 10
59.66609766856281
 20
-494.391285426536
 30
0.0
 10
59.66609766856294
 20
-494.0663407947727
 30
0.0
 10
59.63442097216189
 20
-493.7421686099904
 30
0.0
 10
59.44547389059867
 20
-492.7845791855109
 30
0.0
 10
59.19585908731871
 20
-492.1765158796467
 30
0.0
 10
58.47760816704642
 20
-491.0903327497413
 30
0.0
 10
58.0158502559229
 20
-490.6225907059964
 30
0.0
 10
57.06518086690254
 20
-489.9762045755355
 30
0.0
 10
56.61330636872044
 20
-489.7591240451497
 30
0.0
 10
55.66036005164727
 20
-489.465842808085
 30
0.0
 10
55.16462467232678
 20
-489.3912838791091
 30
0.0
 10
54.66609766856283
 20
-489.3912836804621
 30
0.0
  0
SPLINE
  5
117
330
6C
100
AcDbEntity
  8
Sichtbare Kanten(DIN)
100
AcDbSpline
210
0.0
220
0.0
230
1.0
 70
     8
 71
     3
 72
    10
 73
     6
 74
     0
 42
0.0000000001
 43
0.0000000001
 40
0.0
 40
0.0
 40
0.0
 40
0.0
 40
0.1459907506880322
 40
0.1459907506880322
 40
0.2919815016201546
 40
0.2919815016201546
 40
0.2919815016201546
 40
0.2919815016201546
 10
59.66609766856286
 20
-494.4101508863314
 30
0.0
 10
59.66609766856286
 20
-493.9312286749492
 30
0.0
 10
59.59726931077128
 20
-493.4547819019733
 30
0.0
 10
59.3261812920651
 20
-492.5360940183441
 30
0.0
 10
59.12532284332967
 20
-492.0986014696504
 30
0.0
 10
58.86531542490359
 20
-491.6963919783516
 30
0.0
  0
SPLINE
  5
118
330
6C
100
AcDbEntity
  8
Sichtbare Kanten(DIN)
100
AcDbSpline
210
0.0
220
0.0
230
1.0
 70
     8
 71
     3
 72
    26
 73
    22
 74
     0
 42
0.0000000001
 43
0.0000000001
 40
0.0
 40
0.0
 40
0.0
 40
0.0
 40
0.1471273734389713
 40
0.1471273734389713
 40
0.2987769341780335
 40
0.2987769341780335
 40
0.436866529047857
 40
0.436866529047857
 40
0.5325535622877864
 40
0.5325535622877864
 40
0.6462219975381839
 40
0.6462219975381839
 40
0.7428201269391506
 40
0.7428201269391506
 40
0.8383527341915886
 40
0.8383527341915886
 40
0.954410424525286
 40
0.954410424525286
 40
1.09104631581568
 40
1.09104631581568
 40
1.23959797900046
 40
1.23959797900046
 40
1.23959797900046
 40
1.23959797900046
 10
58.86531542490359
 20
-491.6963919783517
 30
0.0
 10
58.59909898912604
 20
-491.2845120726725
 30
0.0
 10
58.27288480968137
 20
-490.9153942719007
 30
0.0
 10
57.54091753017187
 20
-490.2903419105358
 30
0.0
 10
57.15384057089337
 20
-490.0549874598636
 30
0.0
 10
56.47040264791716
 20
-489.7328124076679
 30
0.0
 10
56.18395633752598
 20
-489.6400498956285
 30
0.0
 10
55.80987896867414
 20
-489.5391948827716
 30
0.0
 10
55.68480092176116
 20
-489.5131504769162
 30
0.0
 10
55.50120758562623
 20
-489.4778001781319
 30
0.0
 10
55.47092275138242
 20
-489.4735612271715
 30
0.0
 10
55.5036268942274
 20
-489.4786479593006
 30
0.0
 10
55.55610285228666
 20
-489.4863439687783
 30
0.0
 10
55.78011844816798
 20
-489.5318026573857
 30
0.0
 10
55.93528460914978
 20
-489.5673117523456
 30
0.0
 10
56.33738959398242
 20
-489.6888719112399
 30
0.0
 10
56.60357991855848
 20
-489.7859178248268
 30
0.0
 10
57.23764228689879
 20
-490.1013256779248
 30
0.0
 10
57.59033620036642
 20
-490.3273441061867
 30
0.0
 10
58.27926025052185
 20
-490.9177812296714
 30
0.0
 10
58.60383085438416
 20
-491.2862597151421
 30
0.0
 10
58.86867748340441
 20
-491.6971370380415
 30
0.0
  0
SPLINE
  5
119
330
6C
100
AcDbEntity
  8
Sichtbare Kanten(DIN)
100
AcDbSpline
210
0.0
220
0.0
230
1.0
 70
     8
 71
     3
 72
    10
 73
     6
 74
     0
 42
0.0000000001
 43
0.0000000001
 40
0.0
 40
0.0
 40
0.0
 40
0.0
 40
0.1455738515933214
 40
0.1455738515933214
 40
0.2911477034250809
 40
0.2911477034250809
 40
0.2911477034250809
 40
0.2911477034250809
 10
58.86867748340441
 20
-491.6971370380415
 30
0.0
 10
59.12762325067823
 20
-492.0989220067049
 30
0.0
 10
59.32763565483748
 20
-492.5357680048753
 30
0.0
 10
59.59756745565961
 20
-493.4528838444015
 30
0.0
 10
59.66609766856288
 20
-493.9284338236389
 30
0.0
 10
59.66609766856283
 20
-494.4064438069908
 30
0.0
  0
LINE
  5
11A
330
6C
100
AcDbEntity
  8
Sichtbare Kanten(DIN)
100
AcDbLine
 10
58.8666437817859
 20
-491.6984479380088
 30
0.0
 11
58.86867748340441
 21
-491.6971370380415
 31
0.0
  0
LINE
  5
11B
330
6C
100
AcDbEntity
  8
Sichtbare Kanten(DIN)
100
AcDbLine
 10
54.35235541885663
 20
-494.4152668701246
 30
0.0
 11
54.23031895482452
 21
-494.4152668701246
 31
0.0
  0
LINE
  5
11C
330
6C
100
AcDbEntity
  8
Sichtbare Kanten(DIN)
100
AcDbLine
 10
54.44820831169366
 20
-494.4152668701246
 30
0.0
 11
54.35235541885663
 21
-494.4152668701246
 31
0.0
  0
SPLINE
  5
11D
330
6C
100
AcDbEntity
  8
Sichtbare Kanten(DIN)
100
AcDbSpline
210
0.0
220
0.0
230
1.0
 70
     8
 71
     3
 72
    16
 73
    12
 74
     0
 42
0.0000000001
 43
0.0000000001
 40
0.0032962089812259
 40
0.0032962089812259
 40
0.0032962089812259
 40
0.0032962089812259
 40
0.0977195974218734
 40
0.0977195974218734
 40
0.1953813554554139
 40
0.1953813554554139
 40
0.2930433683263108
 40
0.2930433683263108
 40
0.3543170087944347
 40
0.3543170087944347
 40
0.4155904915963657
 40
0.4155904915963657
 40
0.4155904915963657
 40
0.4155904915963657
 10
57.16588050852699
 20
-494.4023205981785
 30
0.0
 10
57.1617346374658
 20
-494.403310829827
 30
0.0
 10
57.09826382959592
 20
-494.4042927513319
 30
0.0
 10
56.85504492297887
 20
-494.4063085162833
 30
0.0
 10
56.67374882268916
 20
-494.4073237421396
 30
0.0
 10
56.21629245831293
 20
-494.4093734929388
 30
0.0
 10
55.94450551570201
 20
-494.4103887199405
 30
0.0
 10
55.45702087859178
 20
-494.4120566123841
 30
0.0
 10
55.25998955884897
 20
-494.4126972217687
 30
0.0
 10
54.85655859049817
 20
-494.4139832499234
 30
0.0
 10
54.65167503248308
 20
-494.4146238961361
 30
0.0
 10
54.44820831169367
 20
-494.4152668701246
 30
0.0
  0
LINE
  5
11E
330
6C
100
AcDbEntity
  8
Sichtbare Kanten(DIN)
100
AcDbLine
 10
54.44820831169366
 20
-543.4448494682002
 30
0.0
 11
57.1660976685628
 21
-543.4448494682
 31
0.0
  0
LINE
  5
11F
330
6C
100
AcDbEntity
  8
Sichtbare Kanten(DIN)
100
AcDbLine
 10
57.16609766856312
 20
-494.5448494681999
 30
0.0
 11
52.91609766856291
 21
-494.5448494681999
 31
0.0
  0
LINE
  5
120
330
6C
100
AcDbEntity
  8
Sichtbare Kanten(DIN)
100
AcDbLine
 10
52.91609766856289
 20
-494.5448494681999
 30
0.0
 11
52.91609766856288
 21
-508.5448494681997
 31
0.0
  0
LINE
  5
121
330
6C
100
AcDbEntity
  8
Sichtbare Kanten(DIN)
100
AcDbLine
 10
52.91609766856291
 20
-508.5448494681997
 30
0.0
 11
56.36609766856288
 21
-508.5448494681997
 31
0.0
  0
LINE
  5
122
330
6C
100
AcDbEntity
  8
Sichtbare Kanten(DIN)
100
AcDbLine
 10
56.36609766856287
 20
-508.5448494681997
 30
0.0
 11
56.86609766856285
 21
-506.5448494681998
 31
0.0
  0
LINE
  5
123
330
6C
100
AcDbEntity
  8
Sichtbare Kanten(DIN)
100
AcDbLine
 10
56.86609766856284
 20
-506.5448494681998
 30
0.0
 11
56.86609766856284
 21
-503.4448494681998
 31
0.0
  0
LINE
  5
124
330
6C
100
AcDbEntity
  8
Sichtbare Kanten(DIN)
100
AcDbLine
 10
56.86609766856285
 20
-503.4448494681998
 30
0.0
 11
57.16609766856311
 21
-503.4448494681998
 31
0.0
  0
LINE
  5
125
330
6C
100
AcDbEntity
  8
Sichtbare Kanten(DIN)
100
AcDbLine
 10
56.96609766856287
 20
-560.2948494681994
 30
0.0
 11
57.16609766856314
 21
-560.2948494681994
 31
0.0
  0
ARC
  5
126
330
6C
100
AcDbEntity
  8
Sichtbare Kanten(DIN)
100
AcDbCircle
 10
57.93497518265403
 20
-566.2262385435078
 30
0.0
 40
6.009999999999939
100
AcDbArc
 50
99.27718821635137
 51
221.9632696232423
  0
LINE
  5
127
330
6C
100
AcDbEntity
  8
Sichtbare Kanten(DIN)
100
AcDbLine
 10
55.86609766856288
 20
-570.2448494681995
 30
0.0
 11
53.46609766856291
 21
-570.2448494681994
 31
0.0
  0
LINE
  5
128
330
6C
100
AcDbEntity
  8
Sichtbare Kanten(DIN)
100
AcDbLine
 10
56.86609766856285
 20
-568.7448494681994
 30
0.0
 11
55.86609766856287
 21
-570.2448494681995
 31
0.0
  0
LINE
  5
129
330
6C
100
AcDbEntity
  8
Sichtbare Kanten(DIN)
100
AcDbLine
 10
56.86609766856287
 20
-565.1948494681994
 30
0.0
 11
56.86609766856286
 21
-568.7448494681994
 31
0.0
  0
LINE
  5
12A
330
6C
100
AcDbEntity
  8
Sichtbare Kanten(DIN)
100
AcDbLine
 10
57.1660976685631
 20
-565.1948494681995
 30
0.0
 11
56.86609766856285
 21
-565.1948494681994
 31
0.0
  0
LINE
  5
12B
330
6C
100
AcDbEntity
  8
Sichtbare Kanten(DIN)
100
AcDbLine
 10
56.9660976685629
 20
-604.7948494681992
 30
0.0
 11
57.16609766856314
 21
-604.7948494681992
 31
0.0
  0
ARC
  5
12C
330
6C
100
AcDbEntity
  8
Sichtbare Kanten(DIN)
100
AcDbCircle
 10
57.93497518265404
 20
-610.7262385435076
 30
0.0
 40
6.009999999999953
100
AcDbArc
 50
99.27718821635131
 51
221.9632696232422
  0
LINE
  5
12D
330
6C
100
AcDbEntity
  8
Sichtbare Kanten(DIN)
100
AcDbLine
 10
55.86609766856287
 20
-614.7448494681992
 30
0.0
 11
53.46609766856293
 21
-614.7448494681992
 31
0.0
  0
LINE
  5
12E
330
6C
100
AcDbEntity
  8
Sichtbare Kanten(DIN)
100
AcDbLine
 10
56.86609766856285
 20
-613.2448494681991
 30
0.0
 11
55.86609766856287
 21
-614.7448494681992
 31
0.0
  0
LINE
  5
12F
330
6C
100
AcDbEntity
  8
Sichtbare Kanten(DIN)
100
AcDbLine
 10
56.86609766856289
 20
-609.6948494681992
 30
0.0
 11
56.86609766856289
 21
-613.2448494681991
 31
0.0
  0
LINE
  5
130
330
6C
100
AcDbEntity
  8
Sichtbare Kanten(DIN)
100
AcDbLine
 10
57.16609766856311
 20
-609.6948494681992
 30
0.0
 11
56.86609766856287
 21
-609.6948494681992
 31
0.0
  0
LINE
  5
131
330
6C
100
AcDbEntity
  8
Sichtbare Kanten(DIN)
100
AcDbLine
 10
56.9660976685629
 20
-663.7948494681989
 30
0.0
 11
57.16609766856312
 21
-663.7948494681989
 31
0.0
  0
ARC
  5
132
330
6C
100
AcDbEntity
  8
Sichtbare Kanten(DIN)
100
AcDbCircle
 10
57.93497518265403
 20
-669.7262385435073
 30
0.0
 40
6.00999999999992
100
AcDbArc
 50
99.27718821635082
 51
221.9632696232411
  0
LINE
  5
133
330
6C
100
AcDbEntity
  8
Sichtbare Kanten(DIN)
100
AcDbLine
 10
55.86609766856287
 20
-673.7448494681987
 30
0.0
 11
53.46609766856291
 21
-673.7448494681989
 31
0.0
  0
LINE
  5
134
330
6C
100
AcDbEntity
  8
Sichtbare Kanten(DIN)
100
AcDbLine
 10
56.86609766856289
 20
-672.2448494681988
 30
0.0
 11
55.86609766856291
 21
-673.7448494681987
 31
0.0
  0
LINE
  5
135
330
6C
100
AcDbEntity
  8
Sichtbare Kanten(DIN)
100
AcDbLine
 10
56.86609766856287
 20
-668.6948494681987
 30
0.0
 11
56.86609766856287
 21
-672.2448494681988
 31
0.0
  0
LINE
  5
136
330
6C
100
AcDbEntity
  8
Sichtbare Kanten(DIN)
100
AcDbLine
 10
57.16609766856312
 20
-668.6948494681987
 30
0.0
 11
56.86609766856287
 21
-668.6948494681987
 31
0.0
  0
LINE
  5
137
330
6C
100
AcDbEntity
  8
Sichtbare Kanten(DIN)
100
AcDbLine
 10
56.9660976685629
 20
-713.7948494681985
 30
0.0
 11
57.16609766856314
 21
-713.7948494681985
 31
0.0
  0
ARC
  5
138
330
6C
100
AcDbEntity
  8
Sichtbare Kanten(DIN)
100
AcDbCircle
 10
57.93497518265403
 20
-719.7262385435069
 30
0.0
 40
6.009999999999924
100
AcDbArc
 50
99.27718821635082
 51
221.9632696232411
  0
LINE
  5
139
330
6C
100
AcDbEntity
  8
Sichtbare Kanten(DIN)
100
AcDbLine
 10
55.8660976685629
 20
-723.7448494681984
 30
0.0
 11
53.46609766856295
 21
-723.7448494681984
 31
0.0
  0
LINE
  5
13A
330
6C
100
AcDbEntity
  8
Sichtbare Kanten(DIN)
100
AcDbLine
 10
56.86609766856287
 20
-722.2448494681986
 30
0.0
 11
55.8660976685629
 21
-723.7448494681984
 31
0.0
  0
LINE
  5
13B
330
6C
100
AcDbEntity
  8
Sichtbare Kanten(DIN)
100
AcDbLine
 10
56.86609766856289
 20
-718.6948494681985
 30
0.0
 11
56.86609766856289
 21
-722.2448494681986
 31
0.0
  0
LINE
  5
13C
330
6C
100
AcDbEntity
  8
Sichtbare Kanten(DIN)
100
AcDbLine
 10
57.1660976685631
 20
-718.6948494681985
 30
0.0
 11
56.86609766856287
 21
-718.6948494681985
 31
0.0
  0
LINE
  5
13D
330
6C
100
AcDbEntity
  8
Sichtbare Kanten(DIN)
100
AcDbLine
 10
101.5112308921009
 20
-723.7448494681984
 30
0.0
 11
103.8660976685624
 21
-723.7448494681984
 31
0.0
  0
ARC
  5
13E
330
6C
100
AcDbEntity
  8
Sichtbare Kanten(DIN)
100
AcDbCircle
 10
99.39722015447125
 20
-719.7262385435069
 30
0.0
 40
6.00999999999995
100
AcDbArc
 50
318.0367303767591
 51
69.40567852366159
  0
LINE
  5
13F
330
6C
100
AcDbEntity
  8
Sichtbare Kanten(DIN)
100
AcDbLine
 10
101.5112308921009
 20
-673.7448494681987
 30
0.0
 11
103.8660976685624
 21
-673.7448494681987
 31
0.0
  0
ARC
  5
140
330
6C
100
AcDbEntity
  8
Sichtbare Kanten(DIN)
100
AcDbCircle
 10
99.39722015447124
 20
-669.7262385435073
 30
0.0
 40
6.00999999999995
100
AcDbArc
 50
318.0367303767591
 51
69.40567852366166
  0
LINE
  5
141
330
6C
100
AcDbEntity
  8
Sichtbare Kanten(DIN)
100
AcDbLine
 10
101.5112308921009
 20
-614.7448494681992
 30
0.0
 11
103.8660976685623
 21
-614.7448494681992
 31
0.0
  0
ARC
  5
142
330
6C
100
AcDbEntity
  8
Sichtbare Kanten(DIN)
100
AcDbCircle
 10
99.3972201544712
 20
-610.7262385435076
 30
0.0
 40
6.009999999999939
100
AcDbArc
 50
318.0367303767577
 51
69.40567852366086
  0
LINE
  5
143
330
6C
100
AcDbEntity
  8
Sichtbare Kanten(DIN)
100
AcDbLine
 10
103.8660976685622
 20
-570.2448494681995
 30
0.0
 11
101.5112308921009
 21
-570.2448494681995
 31
0.0
  0
ARC
  5
144
330
6C
100
AcDbEntity
  8
Sichtbare Kanten(DIN)
100
AcDbCircle
 10
99.39722015447117
 20
-566.2262385435078
 30
0.0
 40
6.009999999999964
100
AcDbArc
 50
318.0367303767587
 51
69.40567852366135
  0
LINE
  5
145
330
6C
100
AcDbEntity
  8
Sichtbare Kanten(DIN)
100
AcDbLine
 10
101.511230892101
 20
-508.5448494681997
 30
0.0
 11
104.4160976685622
 21
-508.5448494681997
 31
0.0
  0
LINE
  5
146
330
6C
100
AcDbEntity
  8
Sichtbare Kanten(DIN)
100
AcDbLine
 10
104.4160976685622
 20
-508.5448494681997
 30
0.0
 11
104.4160976685622
 21
-494.5448494681999
 31
0.0
  0
LINE
  5
147
330
6C
100
AcDbEntity
  8
Sichtbare Kanten(DIN)
100
AcDbLine
 10
104.4160976685623
 20
-494.5448494681999
 30
0.0
 11
101.5112308921009
 21
-494.5448494681999
 31
0.0
  0
ARC
  5
148
330
6C
100
AcDbEntity
  8
Sichtbare Kanten(DIN)
100
AcDbCircle
 10
76.16609766856267
 20
-760.4743632427175
 30
0.0
 40
6.49999999999991
100
AcDbArc
 50
90.00000000001007
 51
270.00000000001
  0
LINE
  5
149
330
6C
100
AcDbEntity
  8
Sichtbare Kanten(DIN)
100
AcDbLine
 10
76.16609766856284
 20
-753.9743632427176
 30
0.0
 11
81.16609766856269
 21
-753.9743632427176
 31
0.0
  0
ARC
  5
14A
330
6C
100
AcDbEntity
  8
Sichtbare Kanten(DIN)
100
AcDbCircle
 10
81.16609766856262
 20
-760.4743632427175
 30
0.0
 40
6.499999999999945
100
AcDbArc
 50
269.9999999999997
 51
89.99999999999969
  0
LINE
  5
14B
330
6C
100
AcDbEntity
  8
Sichtbare Kanten(DIN)
100
AcDbLine
 10
81.16609766856255
 20
-766.9743632427175
 30
0.0
 11
76.16609766856379
 21
-766.9743632427175
 31
0.0
  0
LINE
  5
14C
330
6C
100
AcDbEntity
  8
Sichtbare Kanten(DIN)
100
AcDbLine
 10
52.91609766856314
 20
-734.4196063554579
 30
0.0
 11
52.91609766856297
 21
-757.4743632427174
 31
0.0
  0
ARC
  5
14D
330
6C
100
AcDbEntity
  8
Sichtbare Kanten(DIN)
100
AcDbCircle
 10
67.91609766856277
 20
-757.4743632427174
 30
0.0
 40
14.99999999999988
100
AcDbArc
 50
180.0
 51
269.9999999999993
  0
LINE
  5
14E
330
6C
100
AcDbEntity
  8
Sichtbare Kanten(DIN)
100
AcDbLine
 10
67.91609766856267
 20
-772.4743632427174
 30
0.0
 11
89.41609766856247
 21
-772.4743632427178
 31
0.0
  0
ARC
  5
14F
330
6C
100
AcDbEntity
  8
Sichtbare Kanten(DIN)
100
AcDbCircle
 10
89.41609766856258
 20
-757.4743632427176
 30
0.0
 40
14.99999999999991
100
AcDbArc
 50
269.9999999999995
 51
0.0
  0
LINE
  5
150
330
6C
100
AcDbEntity
  8
Sichtbare Kanten(DIN)
100
AcDbLine
 10
104.4160976685624
 20
-757.4743632427178
 30
0.0
 11
104.4160976685626
 21
-734.4196063554583
 31
0.0
  0
LINE
  5
151
330
6C
100
AcDbEntity
  8
Sichtbare Kanten(DIN)
100
AcDbLine
 10
104.4160976685625
 20
-729.4196063554582
 30
0.0
 11
101.5112308921009
 21
-729.4196063554582
 31
0.0
  0
LINE
  5
152
330
6C
100
AcDbEntity
  8
Sichtbare Kanten(DIN)
100
AcDbLine
 10
104.4160976685625
 20
-731.9196063554581
 30
0.0
 11
97.66609766856266
 21
-731.9196063554581
 31
0.0
  0
LINE
  5
153
330
6C
100
AcDbEntity
  8
Sichtbare Kanten(DIN)
100
AcDbLine
 10
104.4160976685625
 20
-731.9196063554581
 30
0.0
 11
104.4160976685625
 21
-729.4196063554582
 31
0.0
  0
LINE
  5
154
330
6C
100
AcDbEntity
  8
Sichtbare Kanten(DIN)
100
AcDbLine
 10
57.16609766856311
 20
-729.4196063554579
 30
0.0
 11
52.91609766856304
 21
-729.4196063554579
 31
0.0
  0
LINE
  5
155
330
6C
100
AcDbEntity
  8
Sichtbare Kanten(DIN)
100
AcDbLine
 10
52.91609766856301
 20
-731.919606355458
 30
0.0
 11
52.91609766856304
 21
-729.4196063554579
 31
0.0
  0
LINE
  5
156
330
6C
100
AcDbEntity
  8
Sichtbare Kanten(DIN)
100
AcDbLine
 10
59.66609766856277
 20
-731.919606355458
 30
0.0
 11
52.91609766856303
 21
-731.919606355458
 31
0.0
  0
LINE
  5
157
330
6C
100
AcDbEntity
  8
Sichtbare Kanten(DIN)
100
AcDbLine
 10
104.4160976685626
 20
-734.4196063554582
 30
0.0
 11
104.4160976685626
 21
-731.9196063554581
 31
0.0
  0
LINE
  5
158
330
6C
100
AcDbEntity
  8
Sichtbare Kanten(DIN)
100
AcDbLine
 10
52.91609766856314
 20
-731.919606355458
 30
0.0
 11
52.91609766856314
 21
-734.4196063554578
 31
0.0
  0
LINE
  5
159
330
6C
100
AcDbEntity
  8
Sichtbare Kanten(DIN)
100
AcDbLine
 10
59.66609766856266
 20
-731.9196063554578
 30
0.0
 11
59.66609766856267
 21
-729.9448494681985
 31
0.0
  0
LINE
  5
15A
330
6C
100
AcDbEntity
  8
Sichtbare Kanten(DIN)
100
AcDbLine
 10
97.66609766856262
 20
-729.9448494681984
 30
0.0
 11
97.66609766856257
 21
-731.919606355458
 31
0.0
  0
LINE
  5
15B
330
6C
100
AcDbEntity
  8
Sichtbare Kanten(DIN)
100
AcDbLine
 10
97.66609766856262
 20
-731.9196063554581
 30
0.0
 11
59.66609766856272
 21
-731.919606355458
 31
0.0
  0
LINE
  5
15C
330
6C
100
AcDbEntity
  8
Sichtbare Kanten(DIN)
100
AcDbLine
 10
99.58909766856359
 20
843.1500075313913
 30
0.0
 11
59.0890976685636
 21
843.1500075313913
 31
0.0
  0
LINE
  5
15D
330
6C
100
AcDbEntity
  8
Sichtbare Kanten(DIN)
100
AcDbLine
 10
91.1158266691071
 20
874.3551505317986
 30
0.0
 11
67.56236866802014
 21
874.3551505317986
 31
0.0
  0
LINE
  5
15E
330
6C
100
AcDbEntity
  8
Sichtbare Kanten(DIN)
100
AcDbLine
 10
98.61036565754915
 20
842.3551505317973
 30
0.0
 11
60.06782967957805
 21
842.3551505317973
 31
0.0
  0
LINE
  5
15F
330
6C
100
AcDbEntity
  8
Sichtbare Kanten(DIN)
100
AcDbLine
 10
59.08909766856357
 20
843.1500075313909
 30
0.0
 11
57.58909766856362
 21
863.6244894808307
 31
0.0
  0
LINE
  5
160
330
6C
100
AcDbEntity
  8
Sichtbare Kanten(DIN)
100
AcDbLine
 10
99.58909766856363
 20
843.1500075313913
 30
0.0
 11
101.0890976685636
 21
863.624489480831
 31
0.0
  0
ARC
  5
161
330
6C
100
AcDbEntity
  8
Sichtbare Kanten(DIN)
100
AcDbCircle
 10
91.11582666910708
 20
864.3551505317983
 30
0.0
 40
10.00000000000004
100
AcDbArc
 50
355.8098866354207
 51
90.00000000000005
  0
ARC
  5
162
330
6C
100
AcDbEntity
  8
Sichtbare Kanten(DIN)
100
AcDbCircle
 10
67.56236866802012
 20
864.3551505317985
 30
0.0
 40
10.00000000000004
100
AcDbArc
 50
89.9999999999998
 51
184.190113364581
  0
ARC
  5
163
330
6C
100
AcDbEntity
  8
Sichtbare Kanten(DIN)
100
AcDbCircle
 10
98.61036565754915
 20
843.3551505317971
 30
0.0
 40
1.0
100
AcDbArc
 50
269.999999999998
 51
348.1621297177069
  0
ARC
  5
164
330
6C
100
AcDbEntity
  8
Sichtbare Kanten(DIN)
100
AcDbCircle
 10
60.06782967957805
 20
843.3551505317968
 30
0.0
 40
1.0
100
AcDbArc
 50
191.8378702823015
 51
269.9999999999995
  0
SPLINE
  5
165
330
6C
100
AcDbEntity
  8
Sichtbare Kanten(DIN)
100
AcDbSpline
210
0.0
220
0.0
230
1.0
 70
     8
 71
     3
 72
    16
 73
    12
 74
     0
 42
0.0000000001
 43
0.0000000001
 40
0.0
 40
0.0
 40
0.0
 40
0.0
 40
0.2137586004606789
 40
0.2137586004606789
 40
0.4275172009213578
 40
0.4275172009213578
 40
0.8550344018427155
 40
0.8550344018427155
 40
1.280233676274578
 40
1.280233676274578
 40
1.705432950703937
 40
1.705432950703937
 40
1.705432950706441
 40
1.705432950706441
 10
94.83103105339315
 20
825.8551505317994
 30
0.0
 10
94.83103105339317
 20
826.5676792000013
 30
0.0
 10
94.88167270003918
 20
827.2963925203697
 30
0.0
 10
95.07986211669743
 20
828.7321638618154
 30
0.0
 10
95.2269690716858
 20
829.4393114165652
 30
0.0
 10
95.76243431764101
 20
831.4598965354344
 30
0.0
 10
96.24306541551264
 20
832.6728421918549
 30
0.0
 10
97.10266493177673
 20
834.5886004806363
 30
0.0
 10
97.54532550950456
 20
835.4307343434873
 30
0.0
 10
98.16653694927765
 20
836.564844644694
 30
0.0
 10
98.33909766856146
 20
836.8551505317958
 30
0.0
 10
98.33909766856351
 20
836.8551505317991
 30
0.0
  0
SPLINE
  5
166
330
6C
100
AcDbEntity
  8
Sichtbare Kanten(DIN)
100
AcDbSpline
210
0.0
220
0.0
230
1.0
 70
     8
 71
     3
 72
    16
 73
    12
 74
     0
 42
0.0000000001
 43
0.0000000001
 40
5.116298852119324
 40
5.116298852119324
 40
5.116298852121722
 40
5.116298852121722
 40
5.541498126551188
 40
5.541498126551188
 40
5.966697400983051
 40
5.966697400983051
 40
6.394214601904408
 40
6.394214601904408
 40
6.607973202365087
 40
6.607973202365087
 40
6.821731802825767
 40
6.821731802825767
 40
6.821731802825767
 40
6.821731802825767
 10
98.33909766856351
 20
814.8551505317993
 30
0.0
 10
98.33909766856155
 20
814.8551505318028
 30
0.0
 10
98.16653694927772
 20
815.1454564189048
 30
0.0
 10
97.54532550950456
 20
816.2795667201113
 30
0.0
 10
97.10266493177673
 20
817.1217005829623
 30
0.0
 10
96.24306541551264
 20
819.0374588717439
 30
0.0
 10
95.76243431764099
 20
820.2504045281642
 30
0.0
 10
95.2269690716858
 20
822.2709896470334
 30
0.0
 10
95.07986211669743
 20
822.978137201783
 30
0.0
 10
94.88167270003918
 20
824.4139085432289
 30
0.0
 10
94.83103105339315
 20
825.142621863597
 30
0.0
 10
94.83103105339315
 20
825.8551505317994
 30
0.0
  0
SPLINE
  5
167
330
6C
100
AcDbEntity
  8
Sichtbare Kanten(DIN)
100
AcDbSpline
210
0.0
220
0.0
230
1.0
 70
     8
 71
     3
 72
    16
 73
    12
 74
     0
 42
0.0000000001
 43
0.0000000001
 40
0.0
 40
0.0
 40
0.0
 40
0.0
 40
0.213758600460679
 40
0.213758600460679
 40
0.427517200921358
 40
0.427517200921358
 40
0.8550344018427159
 40
0.8550344018427159
 40
1.280233676274578
 40
1.280233676274578
 40
1.705432950703938
 40
1.705432950703938
 40
1.705432950706442
 40
1.705432950706442
 10
63.84716428373382
 20
825.8551505317994
 30
0.0
 10
63.84716428373382
 20
825.1426218635968
 30
0.0
 10
63.79652263708781
 20
824.4139085432289
 30
0.0
 10
63.59833322042958
 20
822.978137201783
 30
0.0
 10
63.45122626544119
 20
822.2709896470334
 30
0.0
 10
62.91576101948598
 20
820.2504045281642
 30
0.0
 10
62.43512992161434
 20
819.0374588717439
 30
0.0
 10
61.57553040535026
 20
817.1217005829621
 30
0.0
 10
61.1328698276224
 20
816.2795667201109
 30
0.0
 10
60.51165838784932
 20
815.1454564189046
 30
0.0
 10
60.33909766856552
 20
814.8551505318025
 30
0.0
 10
60.33909766856348
 20
814.8551505317991
 30
0.0
  0
SPLINE
  5
168
330
6C
100
AcDbEntity
  8
Sichtbare Kanten(DIN)
100
AcDbSpline
210
0.0
220
0.0
230
1.0
 70
     8
 71
     3
 72
    16
 73
    12
 74
     0
 42
0.0000000001
 43
0.0000000001
 40
5.116298852119324
 40
5.116298852119324
 40
5.11629885212172
 40
5.11629885212172
 40
5.541498126551188
 40
5.541498126551188
 40
5.966697400983051
 40
5.966697400983051
 40
6.394214601904408
 40
6.394214601904408
 40
6.607973202365087
 40
6.607973202365087
 40
6.821731802825766
 40
6.821731802825766
 40
6.821731802825766
 40
6.821731802825766
 10
60.3390976685635
 20
836.8551505317995
 30
0.0
 10
60.33909766856544
 20
836.8551505317963
 30
0.0
 10
60.51165838784928
 20
836.5648446446936
 30
0.0
 10
61.13286982762246
 20
835.4307343434873
 30
0.0
 10
61.57553040535026
 20
834.5886004806363
 30
0.0
 10
62.43512992161434
 20
832.6728421918549
 30
0.0
 10
62.91576101948599
 20
831.4598965354344
 30
0.0
 10
63.45122626544119
 20
829.4393114165652
 30
0.0
 10
63.59833322042958
 20
828.7321638618154
 30
0.0
 10
63.79652263708781
 20
827.2963925203697
 30
0.0
 10
63.84716428373382
 20
826.5676792000016
 30
0.0
 10
63.84716428373382
 20
825.8551505317994
 30
0.0
  0
LINE
  5
169
330
6C
100
AcDbEntity
  8
Sichtbare Kanten(DIN)
100
AcDbLine
 10
87.53866428033191
 20
-729.1448494682001
 30
0.0
 11
70.93866428033196
 21
-729.1448494682001
 31
0.0
  0
LINE
  5
16A
330
6C
100
AcDbEntity
  8
Sichtbare Kanten(DIN)
100
AcDbLine
 10
60.33909766856273
 20
-697.6448494681971
 30
0.0
 11
60.33909766856274
 21
-684.7448494681998
 31
0.0
  0
LINE
  5
16B
330
6C
100
AcDbEntity
  8
Sichtbare Kanten(DIN)
100
AcDbLine
 10
60.33909766856282
 20
-494.4391068140736
 30
0.0
 11
60.33909766856348
 21
814.8551505317989
 31
0.0
  0
LINE
  5
16C
330
6C
100
AcDbEntity
  8
Sichtbare Kanten(DIN)
100
AcDbLine
 10
60.3390976685635
 20
836.8551505317991
 30
0.0
 11
60.3390976685635
 21
842.3551505317965
 31
0.0
  0
LINE
  5
16D
330
6C
100
AcDbEntity
  8
Sichtbare Kanten(DIN)
100
AcDbLine
 10
98.33909766856283
 20
-494.4448494681998
 30
0.0
 11
98.33909766856351
 21
814.8551505317991
 31
0.0
  0
LINE
  5
16E
330
6C
100
AcDbEntity
  8
Sichtbare Kanten(DIN)
100
AcDbLine
 10
98.33909766856351
 20
836.8551505317991
 30
0.0
 11
98.33909766856351
 21
842.3551505317965
 31
0.0
  0
LINE
  5
16F
330
6C
100
AcDbEntity
  8
Sichtbare Kanten(DIN)
100
AcDbLine
 10
60.33909766856365
 20
814.8551505318
 30
0.0
 11
60.33909766856368
 21
836.8551505318
 31
0.0
  0
LINE
  5
170
330
6C
100
AcDbEntity
  8
Sichtbare Kanten(DIN)
100
AcDbLine
 10
98.33909766856303
 20
836.8551505318002
 30
0.0
 11
147.3390976685614
 21
836.8551505318
 31
0.0
  0
LINE
  5
171
330
6C
100
AcDbEntity
  8
Sichtbare Kanten(DIN)
100
AcDbLine
 10
98.33909766856301
 20
814.8551505317998
 30
0.0
 11
147.3390976685613
 21
814.8551505317996
 31
0.0
  0
LINE
  5
172
330
6C
100
AcDbEntity
  8
Sichtbare Kanten(DIN)
100
AcDbLine
 10
147.3390976685621
 20
814.3551505317992
 30
0.0
 11
147.3390976685621
 21
837.3551505317996
 31
0.0
  0
ARC
  5
173
330
6C
100
AcDbEntity
  8
Sichtbare Kanten(DIN)
100
AcDbCircle
 10
148.8390976685621
 20
814.3551505317994
 30
0.0
 40
1.500000000000024
100
AcDbArc
 50
180.0
 51
269.9999999999993
  0
ARC
  5
174
330
6C
100
AcDbEntity
  8
Sichtbare Kanten(DIN)
100
AcDbCircle
 10
148.8390976685622
 20
837.3551505317996
 30
0.0
 40
1.500000000000024
100
AcDbArc
 50
89.99999999999864
 51
180.0
  0
LINE
  5
175
330
6C
100
AcDbEntity
  8
Sichtbare Kanten(DIN)
100
AcDbLine
 10
262.3390976685617
 20
836.8551505317995
 30
0.0
 11
262.3390976685617
 21
814.8551505317991
 31
0.0
  0
ARC
  5
176
330
6C
100
AcDbEntity
  8
Sichtbare Kanten(DIN)
100
AcDbCircle
 10
260.3390976685618
 20
836.8551505317995
 30
0.0
 40
2.000000000000032
100
AcDbArc
 50
0.0
 51
89.99999999999898
  0
ARC
  5
177
330
6C
100
AcDbEntity
  8
Sichtbare Kanten(DIN)
100
AcDbCircle
 10
260.3390976685618
 20
814.8551505317989
 30
0.0
 40
2.000000000000032
100
AcDbArc
 50
269.9999999999969
 51
0.0
  0
LINE
  5
178
330
6C
100
AcDbEntity
  8
Sichtbare Kanten(DIN)
100
AcDbLine
 10
148.8390976685622
 20
838.8551505317998
 30
0.0
 11
260.3390976685617
 21
838.8551505317996
 31
0.0
  0
LINE
  5
179
330
6C
100
AcDbEntity
  8
Sichtbare Kanten(DIN)
100
AcDbLine
 10
148.8390976685621
 20
812.8551505317991
 30
0.0
 11
260.3390976685617
 21
812.8551505317989
 31
0.0
  0
LINE
  5
17A
330
6C
100
AcDbEntity
  8
Sichtbare Kanten(DIN)
100
AcDbLine
 10
60.33909766856272
 20
-698.3501501778635
 30
0.0
 11
60.33909766856272
 21
-697.6448494681967
 31
0.0
  0
LINE
  5
17B
330
6C
100
AcDbEntity
  8
Sichtbare Kanten(DIN)
100
AcDbLine
 10
53.13909766856262
 20
-697.6448494681967
 30
0.0
 11
60.33909766856268
 21
-697.6448494681967
 31
0.0
  0
LINE
  5
17C
330
6C
100
AcDbEntity
  8
Sichtbare Kanten(DIN)
100
AcDbLine
 10
53.13909766856264
 20
-710.6448494681972
 30
0.0
 11
57.1660976685627
 21
-710.6448494681972
 31
0.0
  0
LINE
  5
17D
330
6C
100
AcDbEntity
  8
Sichtbare Kanten(DIN)
100
AcDbLine
 10
52.33909766856264
 20
-709.844849468197
 30
0.0
 11
52.33909766856263
 21
-698.4448494681969
 31
0.0
  0
ARC
  5
17E
330
6C
100
AcDbEntity
  8
Sichtbare Kanten(DIN)
100
AcDbCircle
 10
53.13909766856262
 20
-709.844849468197
 30
0.0
 40
0.8000000000000165
100
AcDbArc
 50
180.0
 51
270.0
  0
ARC
  5
17F
330
6C
100
AcDbEntity
  8
Sichtbare Kanten(DIN)
100
AcDbCircle
 10
53.13909766856261
 20
-698.4448494681969
 30
0.0
 40
0.8000000000000165
100
AcDbArc
 50
90.0
 51
180.0
  0
SPLINE
  5
180
330
6C
100
AcDbEntity
  8
Sichtbare Kanten(DIN)
100
AcDbSpline
210
0.0
220
0.0
230
1.0
 70
     8
 71
     3
 72
    10
 73
     6
 74
     0
 42
0.0000000001
 43
0.0000000001
 40
0.0
 40
0.0
 40
0.0
 40
0.0
 40
0.1148132726611515
 40
0.1148132726611515
 40
0.229626545354555
 40
0.229626545354555
 40
0.229626545354555
 40
0.229626545354555
 10
476.6388589554058
 20
-495.6871306921624
 30
0.0
 10
476.2957179573314
 20
-495.686925696832
 30
0.0
 10
475.934250717945
 20
-495.6867213739336
 30
0.0
 10
475.1888764733887
 20
-495.6863113831284
 30
0.0
 10
474.8074278917699
 20
-495.6861070602299
 30
0.0
 10
474.4247170376938
 20
-495.6859020648994
 30
0.0
  0
SPLINE
  5
181
330
6C
100
AcDbEntity
  8
Sichtbare Kanten(DIN)
100
AcDbSpline
210
0.0
220
0.0
230
1.0
 70
     8
 71
     3
 72
    14
 73
    10
 74
     0
 42
0.0000000001
 43
0.0000000001
 40
0.0
 40
0.0
 40
0.0
 40
0.0
 40
0.0974569495838747
 40
0.0974569495838747
 40
0.2927788852834933
 40
0.2927788852834933
 40
0.4248721796051108
 40
0.4248721796051108
 40
0.5569655445934747
 40
0.5569655445934747
 40
0.5569655445934747
 40
0.5569655445934747
 10
479.4247170376953
 20
-494.4401086289855
 30
0.0
 10
479.4247170376955
 20
-494.4399346248115
 30
0.0
 10
479.3930575233708
 20
-494.4397610282948
 30
0.0
 10
479.2041847510822
 20
-494.4392382811159
 30
0.0
 10
478.9546218923554
 20
-494.4388928238068
 30
0.0
 10
478.3527086918708
 20
-494.4383082345324
 30
0.0
 10
478.0624147943026
 20
-494.4380734089299
 30
0.0
 10
477.4019946288085
 20
-494.4376017122192
 30
0.0
 10
477.0347523271593
 20
-494.4373668837132
 30
0.0
 10
476.6400169122143
 20
-494.4371310380711
 30
0.0
  0
LINE
  5
182
330
6C
100
AcDbEntity
  8
Sichtbare Kanten(DIN)
100
AcDbLine
 10
475.5323669749548
 20
-494.4371310380711
 30
0.0
 11
476.6400169122143
 21
-494.4371310380712
 31
0.0
  0
SPLINE
  5
183
330
6C
100
AcDbEntity
  8
Sichtbare Kanten(DIN)
100
AcDbSpline
210
0.0
220
0.0
230
1.0
 70
     8
 71
     3
 72
    10
 73
     6
 74
     0
 42
0.0000000001
 43
0.0000000001
 40
0.0
 40
0.0
 40
0.0
 40
0.0
 40
0.062500016067669
 40
0.062500016067669
 40
0.1250000321353379
 40
0.1250000321353379
 40
0.1250000321353379
 40
0.1250000321353379
 10
476.6400169122143
 20
-494.4371310380711
 30
0.0
 10
476.6398239317289
 20
-494.645464313753
 30
0.0
 10
476.6396309450827
 20
-494.853797589435
 30
0.0
 10
476.6392449594788
 20
-495.2704641407986
 30
0.0
 10
476.639051960521
 20
-495.4787974164806
 30
0.0
 10
476.6388589554057
 20
-495.6871306921624
 30
0.0
  0
SPLINE
  5
184
330
6C
100
AcDbEntity
  8
Sichtbare Kanten(DIN)
100
AcDbSpline
210
0.0
220
0.0
230
1.0
 70
     8
 71
     3
 72
    10
 73
     6
 74
     0
 42
0.0000000001
 43
0.0000000001
 40
0.0000630679957595
 40
0.0000630679957595
 40
0.0000630679957595
 40
0.0000630679957595
 40
0.062499991045339
 40
0.062499991045339
 40
0.1249999820906781
 40
0.1249999820906781
 40
0.1249999820906781
 40
0.1249999820906781
 10
475.5317882886893
 20
-495.6865000122889
 30
0.0
 10
475.5318846938612
 20
-495.4783769632316
 30
0.0
 10
475.5319810959617
 20
-495.2702539141742
 30
0.0
 10
475.5321739913902
 20
-494.853797589435
 30
0.0
 10
475.5322704847121
 20
-494.645464313753
 30
0.0
 10
475.5323669749548
 20
-494.4371310380711
 30
0.0
  0
LINE
  5
185
330
6C
100
AcDbEntity
  8
Sichtbare Kanten(DIN)
100
AcDbLine
 10
479.4247170376953
 20
-684.7448494682001
 30
0.0
 11
474.4247170376938
 21
-684.7448494682002
 31
0.0
  0
LINE
  5
186
330
6C
100
AcDbEntity
  8
Sichtbare Kanten(DIN)
100
AcDbLine
 10
479.4247170376952
 20
-494.4401086289855
 30
0.0
 11
479.4247170376952
 21
-684.7448494682001
 31
0.0
  0
LINE
  5
187
330
6C
100
AcDbEntity
  8
Sichtbare Kanten(DIN)
100
AcDbLine
 10
479.4247170376953
 20
-729.9448494682002
 30
0.0
 11
474.4247170376938
 21
-729.9448494682003
 31
0.0
  0
LINE
  5
188
330
6C
100
AcDbEntity
  8
Sichtbare Kanten(DIN)
100
AcDbLine
 10
479.4247170376952
 20
-698.4256022402775
 30
0.0
 11
479.4247170376952
 21
-729.9448494682002
 31
0.0
  0
SPLINE
  5
189
330
6C
100
AcDbEntity
  8
Sichtbare Kanten(DIN)
100
AcDbSpline
210
0.0
220
0.0
230
1.0
 70
     8
 71
     3
 72
    16
 73
    12
 74
     0
 42
0.0000000001
 43
0.0000000001
 40
0.0
 40
0.0
 40
0.0
 40
0.0
 40
0.0975164109147542
 40
0.0975164109147542
 40
0.2929151622455588
 40
0.2929151622455588
 40
0.4883038027568281
 40
0.4883038027568281
 40
0.6378463639661663
 40
0.6378463639661663
 40
0.7873883682327831
 40
0.7873883682327831
 40
0.7873883682327831
 40
0.7873883682327831
 10
479.4247170376953
 20
-698.4256022402775
 30
0.0
 10
479.4247170376952
 20
-698.4196178738524
 30
0.0
 10
479.3930296134688
 20
-698.4136471274255
 30
0.0
 10
479.2040188590299
 20
-698.395670724218
 30
0.0
 10
478.9543206259518
 20
-698.3837919373161
 30
0.0
 10
478.2358398549002
 20
-698.3598090500227
 30
0.0
 10
477.7739400695921
 20
-698.3479308665696
 30
0.0
 10
476.8231866035732
 20
-698.3267622156735
 30
0.0
 10
476.3714118770224
 20
-698.3176355833823
 30
0.0
 10
475.4187054598201
 20
-698.2992805821297
 30
0.0
 10
474.9231059015413
 20
-698.2901535535216
 30
0.0
 10
474.4247170376938
 20
-698.280976491519
 30
0.0
  0
LINE
  5
18A
330
6C
100
AcDbEntity
  8
Sichtbare Kanten(DIN)
100
AcDbLine
 10
479.4247170377023
 20
-688.9448494682
 30
0.0
 11
479.4247170377023
 21
-698.4256022402775
 31
0.0
  0
LINE
  5
18B
330
6C
100
AcDbEntity
  8
Sichtbare Kanten(DIN)
100
AcDbLine
 10
479.4247170377011
 20
-684.7448494682001
 30
0.0
 11
479.4247170377023
 21
-688.9448494682
 31
0.0
  0
LINE
  5
18C
330
6C
100
AcDbEntity
  8
Sichtbare Kanten(DIN)
100
AcDbLine
 10
435.077150425936
 20
-494.4448494682
 30
0.0
 11
436.1521504259242
 21
-498.7448494681525
 31
0.0
  0
LINE
  5
18D
330
6C
100
AcDbEntity
  8
Sichtbare Kanten(DIN)
100
AcDbLine
 10
436.0021504259361
 20
-559.4448494682
 30
0.0
 11
436.0021504259359
 21
-564.9448494682001
 31
0.0
  0
LINE
  5
18E
330
6C
100
AcDbEntity
  8
Sichtbare Kanten(DIN)
100
AcDbLine
 10
436.152150425936
 20
-559.4448494682
 30
0.0
 11
436.0021504259361
 21
-559.4448494682
 31
0.0
  0
LINE
  5
18F
330
6C
100
AcDbEntity
  8
Sichtbare Kanten(DIN)
100
AcDbLine
 10
435.9649633510485
 20
-556.3250648867442
 30
0.0
 11
436.152150425936
 21
-559.4448494682
 31
0.0
  0
ARC
  5
190
330
6C
100
AcDbEntity
  8
Sichtbare Kanten(DIN)
100
AcDbCircle
 10
433.968553660117
 20
-556.4448494682001
 30
0.0
 40
1.999999999999991
100
AcDbArc
 50
3.433630362449127
 51
90.0
  0
LINE
  5
191
330
6C
100
AcDbEntity
  8
Sichtbare Kanten(DIN)
100
AcDbLine
 10
433.7685536601068
 20
-554.4448494682001
 30
0.0
 11
433.9685536601169
 21
-554.4448494682001
 31
0.0
  0
LINE
  5
192
330
6C
100
AcDbEntity
  8
Sichtbare Kanten(DIN)
100
AcDbLine
 10
436.0021504259359
 20
-603.9448494682001
 30
0.0
 11
436.0021504259359
 21
-609.4448494682001
 31
0.0
  0
LINE
  5
193
330
6C
100
AcDbEntity
  8
Sichtbare Kanten(DIN)
100
AcDbLine
 10
436.152150425936
 20
-603.9448494682001
 30
0.0
 11
436.0021504259359
 21
-603.9448494682001
 31
0.0
  0
LINE
  5
194
330
6C
100
AcDbEntity
  8
Sichtbare Kanten(DIN)
100
AcDbLine
 10
435.9649633510485
 20
-600.8250648867441
 30
0.0
 11
436.152150425936
 21
-603.9448494682001
 31
0.0
  0
ARC
  5
195
330
6C
100
AcDbEntity
  8
Sichtbare Kanten(DIN)
100
AcDbCircle
 10
433.9685536601169
 20
-600.9448494682001
 30
0.0
 40
2.000000000000002
100
AcDbArc
 50
3.433630362451251
 51
90.0
  0
LINE
  5
196
330
6C
100
AcDbEntity
  8
Sichtbare Kanten(DIN)
100
AcDbLine
 10
433.7685536601068
 20
-598.9448494682001
 30
0.0
 11
433.9685536601169
 21
-598.9448494682001
 31
0.0
  0
LINE
  5
197
330
6C
100
AcDbEntity
  8
Sichtbare Kanten(DIN)
100
AcDbLine
 10
436.0021504259359
 20
-662.9448494682001
 30
0.0
 11
436.0021504259359
 21
-668.4448494682001
 31
0.0
  0
LINE
  5
198
330
6C
100
AcDbEntity
  8
Sichtbare Kanten(DIN)
100
AcDbLine
 10
436.152150425936
 20
-662.9448494682002
 30
0.0
 11
436.0021504259359
 21
-662.9448494682001
 31
0.0
  0
LINE
  5
199
330
6C
100
AcDbEntity
  8
Sichtbare Kanten(DIN)
100
AcDbLine
 10
435.9649633510489
 20
-659.8250648867441
 30
0.0
 11
436.152150425936
 21
-662.9448494682002
 31
0.0
  0
ARC
  5
19A
330
6C
100
AcDbEntity
  8
Sichtbare Kanten(DIN)
100
AcDbCircle
 10
433.9685536601169
 20
-659.9448494682
 30
0.0
 40
1.999999999999967
100
AcDbArc
 50
3.433630362451251
 51
90.0
  0
LINE
  5
19B
330
6C
100
AcDbEntity
  8
Sichtbare Kanten(DIN)
100
AcDbLine
 10
433.7685536601068
 20
-657.9448494682002
 30
0.0
 11
433.9685536601169
 21
-657.9448494682002
 31
0.0
  0
LINE
  5
19C
330
6C
100
AcDbEntity
  8
Sichtbare Kanten(DIN)
100
AcDbLine
 10
436.0021504259359
 20
-712.9448494682002
 30
0.0
 11
436.0021504259359
 21
-718.4448494682001
 31
0.0
  0
LINE
  5
19D
330
6C
100
AcDbEntity
  8
Sichtbare Kanten(DIN)
100
AcDbLine
 10
436.152150425936
 20
-712.9448494682003
 30
0.0
 11
436.0021504259359
 21
-712.9448494682002
 31
0.0
  0
LINE
  5
19E
330
6C
100
AcDbEntity
  8
Sichtbare Kanten(DIN)
100
AcDbLine
 10
435.9649633510489
 20
-709.8250648867442
 30
0.0
 11
436.152150425936
 21
-712.9448494682003
 31
0.0
  0
ARC
  5
19F
330
6C
100
AcDbEntity
  8
Sichtbare Kanten(DIN)
100
AcDbCircle
 10
433.9685536601169
 20
-709.9448494682002
 30
0.0
 40
2.000000000000038
100
AcDbArc
 50
3.433630362455181
 51
90.0
  0
LINE
  5
1A0
330
6C
100
AcDbEntity
  8
Sichtbare Kanten(DIN)
100
AcDbLine
 10
433.7685536601068
 20
-707.9448494682002
 30
0.0
 11
433.9685536601169
 21
-707.9448494682002
 31
0.0
  0
LINE
  5
1A1
330
6C
100
AcDbEntity
  8
Sichtbare Kanten(DIN)
100
AcDbLine
 10
456.4021504259247
 20
-684.7448494682001
 30
0.0
 11
474.4247170376938
 21
-684.7448494682001
 31
0.0
  0
LINE
  5
1A2
330
6C
100
AcDbEntity
  8
Sichtbare Kanten(DIN)
100
AcDbLine
 10
438.6521504259241
 20
-499.0448494682062
 30
0.0
 11
439.8108250713927
 21
-494.4101508863314
 31
0.0
  0
LINE
  5
1A3
330
6C
100
AcDbEntity
  8
Sichtbare Kanten(DIN)
100
AcDbLine
 10
436.0271504259256
 20
-503.3448494682
 30
0.0
 11
436.1521504259241
 21
-503.3448494682
 31
0.0
  0
LINE
  5
1A4
330
6C
100
AcDbEntity
  8
Sichtbare Kanten(DIN)
100
AcDbLine
 10
436.0271504259256
 20
-499.3448494682001
 30
0.0
 11
436.0271504259256
 21
-503.3448494682
 31
0.0
  0
LINE
  5
1A5
330
6C
100
AcDbEntity
  8
Sichtbare Kanten(DIN)
100
AcDbLine
 10
434.8278233367748
 20
-494.4064438069908
 30
0.0
 11
436.0271504259256
 21
-499.3448494682001
 31
0.0
  0
LINE
  5
1A6
330
6C
100
AcDbEntity
  8
Sichtbare Kanten(DIN)
100
AcDbLine
 10
409.4521504259255
 20
-494.4022168636103
 30
0.0
 11
414.4521504259256
 21
-494.391285426536
 31
0.0
  0
LINE
  5
1A7
330
6C
100
AcDbEntity
  8
Sichtbare Kanten(DIN)
100
AcDbLine
 10
438.6521504259246
 20
-543.4448494682
 30
0.0
 11
409.4521504259255
 21
-543.4448494682
 31
0.0
  0
LINE
  5
1A8
330
6C
100
AcDbEntity
  8
Sichtbare Kanten(DIN)
100
AcDbLine
 10
438.6521504259254
 20
-560.2948494682002
 30
0.0
 11
438.6521504259246
 21
-543.4448494682
 31
0.0
  0
LINE
  5
1A9
330
6C
100
AcDbEntity
  8
Sichtbare Kanten(DIN)
100
AcDbLine
 10
435.8021504259256
 20
-564.9448494682001
 30
0.0
 11
436.1521504259238
 21
-564.9448494682001
 31
0.0
  0
LINE
  5
1AA
330
6C
100
AcDbEntity
  8
Sichtbare Kanten(DIN)
100
AcDbLine
 10
435.8021504259256
 20
-559.4448494682
 30
0.0
 11
435.8021504259256
 21
-564.9448494682001
 31
0.0
  0
LINE
  5
1AB
330
6C
100
AcDbEntity
  8
Sichtbare Kanten(DIN)
100
AcDbLine
 10
435.9521504259257
 20
-559.4448494682
 30
0.0
 11
435.8021504259256
 21
-559.4448494682
 31
0.0
  0
LINE
  5
1AC
330
6C
100
AcDbEntity
  8
Sichtbare Kanten(DIN)
100
AcDbLine
 10
435.7649633510382
 20
-556.3250648867442
 30
0.0
 11
435.9521504259257
 21
-559.4448494682
 31
0.0
  0
ARC
  5
1AD
330
6C
100
AcDbEntity
  8
Sichtbare Kanten(DIN)
100
AcDbCircle
 10
433.7685536601066
 20
-556.4448494682001
 30
0.0
 40
1.999999999999996
100
AcDbArc
 50
3.433630362449127
 51
90.0
  0
LINE
  5
1AE
330
6C
100
AcDbEntity
  8
Sichtbare Kanten(DIN)
100
AcDbLine
 10
432.9521504259256
 20
-554.4448494682001
 30
0.0
 11
433.7685536601066
 21
-554.4448494682
 31
0.0
  0
ARC
  5
1AF
330
6C
100
AcDbEntity
  8
Sichtbare Kanten(DIN)
100
AcDbCircle
 10
432.9521504259256
 20
-555.4448494682
 30
0.0
 40
0.9999999999999989
100
AcDbArc
 50
90.0
 51
180.0
  0
LINE
  5
1B0
330
6C
100
AcDbEntity
  8
Sichtbare Kanten(DIN)
100
AcDbLine
 10
431.9521504259256
 20
-586.9448494682
 30
0.0
 11
431.9521504259256
 21
-555.4448494682
 31
0.0
  0
ARC
  5
1B1
330
6C
100
AcDbEntity
  8
Sichtbare Kanten(DIN)
100
AcDbCircle
 10
432.9521504259256
 20
-586.9448494682
 30
0.0
 40
1.00000000000001
100
AcDbArc
 50
180.0
 51
270.0
  0
LINE
  5
1B2
330
6C
100
AcDbEntity
  8
Sichtbare Kanten(DIN)
100
AcDbLine
 10
438.6521504259256
 20
-587.9448494682001
 30
0.0
 11
432.9521504259256
 21
-587.9448494682001
 31
0.0
  0
LINE
  5
1B3
330
6C
100
AcDbEntity
  8
Sichtbare Kanten(DIN)
100
AcDbLine
 10
438.6521504259256
 20
-604.7948494682002
 30
0.0
 11
438.6521504259256
 21
-587.9448494682001
 31
0.0
  0
LINE
  5
1B4
330
6C
100
AcDbEntity
  8
Sichtbare Kanten(DIN)
100
AcDbLine
 10
435.8021504259256
 20
-609.4448494682
 30
0.0
 11
436.1521504259238
 21
-609.4448494682
 31
0.0
  0
LINE
  5
1B5
330
6C
100
AcDbEntity
  8
Sichtbare Kanten(DIN)
100
AcDbLine
 10
435.8021504259256
 20
-603.9448494682001
 30
0.0
 11
435.8021504259256
 21
-609.4448494682
 31
0.0
  0
LINE
  5
1B6
330
6C
100
AcDbEntity
  8
Sichtbare Kanten(DIN)
100
AcDbLine
 10
435.9521504259257
 20
-603.9448494682001
 30
0.0
 11
435.8021504259256
 21
-603.9448494682001
 31
0.0
  0
LINE
  5
1B7
330
6C
100
AcDbEntity
  8
Sichtbare Kanten(DIN)
100
AcDbLine
 10
435.7649633510383
 20
-600.8250648867441
 30
0.0
 11
435.9521504259257
 21
-603.9448494682001
 31
0.0
  0
ARC
  5
1B8
330
6C
100
AcDbEntity
  8
Sichtbare Kanten(DIN)
100
AcDbCircle
 10
433.7685536601066
 20
-600.9448494682
 30
0.0
 40
1.999999999999985
100
AcDbArc
 50
3.433630362449127
 51
90.0
  0
LINE
  5
1B9
330
6C
100
AcDbEntity
  8
Sichtbare Kanten(DIN)
100
AcDbLine
 10
432.9521504259256
 20
-598.9448494682001
 30
0.0
 11
433.7685536601066
 21
-598.9448494682001
 31
0.0
  0
ARC
  5
1BA
330
6C
100
AcDbEntity
  8
Sichtbare Kanten(DIN)
100
AcDbCircle
 10
432.9521504259256
 20
-599.9448494682001
 30
0.0
 40
1.000000000000012
100
AcDbArc
 50
90.0
 51
180.0
  0
LINE
  5
1BB
330
6C
100
AcDbEntity
  8
Sichtbare Kanten(DIN)
100
AcDbLine
 10
431.9521504259257
 20
-645.9448494682001
 30
0.0
 11
431.9521504259256
 21
-599.9448494682001
 31
0.0
  0
ARC
  5
1BC
330
6C
100
AcDbEntity
  8
Sichtbare Kanten(DIN)
100
AcDbCircle
 10
432.9521504259256
 20
-645.9448494682
 30
0.0
 40
1.000000000000001
100
AcDbArc
 50
180.0
 51
270.0
  0
LINE
  5
1BD
330
6C
100
AcDbEntity
  8
Sichtbare Kanten(DIN)
100
AcDbLine
 10
438.6521504259256
 20
-646.9448494682001
 30
0.0
 11
432.9521504259256
 21
-646.9448494682001
 31
0.0
  0
LINE
  5
1BE
330
6C
100
AcDbEntity
  8
Sichtbare Kanten(DIN)
100
AcDbLine
 10
438.6521504259257
 20
-663.7948494682001
 30
0.0
 11
438.6521504259256
 21
-646.9448494682001
 31
0.0
  0
LINE
  5
1BF
330
6C
100
AcDbEntity
  8
Sichtbare Kanten(DIN)
100
AcDbLine
 10
435.8021504259256
 20
-668.4448494682001
 30
0.0
 11
436.152150425924
 21
-668.4448494682001
 31
0.0
  0
LINE
  5
1C0
330
6C
100
AcDbEntity
  8
Sichtbare Kanten(DIN)
100
AcDbLine
 10
435.8021504259256
 20
-662.9448494682001
 30
0.0
 11
435.8021504259256
 21
-668.4448494682001
 31
0.0
  0
LINE
  5
1C1
330
6C
100
AcDbEntity
  8
Sichtbare Kanten(DIN)
100
AcDbLine
 10
435.9521504259257
 20
-662.9448494682001
 30
0.0
 11
435.8021504259256
 21
-662.9448494682001
 31
0.0
  0
LINE
  5
1C2
330
6C
100
AcDbEntity
  8
Sichtbare Kanten(DIN)
100
AcDbLine
 10
435.7649633510383
 20
-659.8250648867442
 30
0.0
 11
435.9521504259257
 21
-662.9448494682001
 31
0.0
  0
ARC
  5
1C3
330
6C
100
AcDbEntity
  8
Sichtbare Kanten(DIN)
100
AcDbCircle
 10
433.7685536601067
 20
-659.9448494682
 30
0.0
 40
1.999999999999985
100
AcDbArc
 50
3.433630362451251
 51
90.0
  0
LINE
  5
1C4
330
6C
100
AcDbEntity
  8
Sichtbare Kanten(DIN)
100
AcDbLine
 10
432.9521504259258
 20
-657.9448494682001
 30
0.0
 11
433.7685536601067
 21
-657.9448494682002
 31
0.0
  0
ARC
  5
1C5
330
6C
100
AcDbEntity
  8
Sichtbare Kanten(DIN)
100
AcDbCircle
 10
432.9521504259256
 20
-658.9448494682001
 30
0.0
 40
0.9999999999999989
100
AcDbArc
 50
89.99999999999593
 51
180.0
  0
LINE
  5
1C6
330
6C
100
AcDbEntity
  8
Sichtbare Kanten(DIN)
100
AcDbLine
 10
431.9521504259257
 20
-695.9448494682001
 30
0.0
 11
431.9521504259257
 21
-658.9448494682001
 31
0.0
  0
ARC
  5
1C7
330
6C
100
AcDbEntity
  8
Sichtbare Kanten(DIN)
100
AcDbCircle
 10
432.9521504259258
 20
-695.9448494682001
 30
0.0
 40
1.000000000000001
100
AcDbArc
 50
180.0
 51
270.0
  0
LINE
  5
1C8
330
6C
100
AcDbEntity
  8
Sichtbare Kanten(DIN)
100
AcDbLine
 10
438.6521504259256
 20
-696.9448494682001
 30
0.0
 11
432.9521504259256
 21
-696.9448494682001
 31
0.0
  0
LINE
  5
1C9
330
6C
100
AcDbEntity
  8
Sichtbare Kanten(DIN)
100
AcDbLine
 10
438.6521504259257
 20
-713.7948494682001
 30
0.0
 11
438.6521504259256
 21
-696.9448494682001
 31
0.0
  0
LINE
  5
1CA
330
6C
100
AcDbEntity
  8
Sichtbare Kanten(DIN)
100
AcDbLine
 10
435.8021504259256
 20
-718.4448494682001
 30
0.0
 11
436.152150425924
 21
-718.4448494682001
 31
0.0
  0
LINE
  5
1CB
330
6C
100
AcDbEntity
  8
Sichtbare Kanten(DIN)
100
AcDbLine
 10
435.8021504259256
 20
-712.9448494682002
 30
0.0
 11
435.8021504259256
 21
-718.4448494682001
 31
0.0
  0
LINE
  5
1CC
330
6C
100
AcDbEntity
  8
Sichtbare Kanten(DIN)
100
AcDbLine
 10
435.9521504259257
 20
-712.9448494682002
 30
0.0
 11
435.8021504259256
 21
-712.9448494682002
 31
0.0
  0
LINE
  5
1CD
330
6C
100
AcDbEntity
  8
Sichtbare Kanten(DIN)
100
AcDbLine
 10
435.7649633510383
 20
-709.8250648867442
 30
0.0
 11
435.9521504259257
 21
-712.9448494682002
 31
0.0
  0
ARC
  5
1CE
330
6C
100
AcDbEntity
  8
Sichtbare Kanten(DIN)
100
AcDbCircle
 10
433.7685536601067
 20
-709.9448494682002
 30
0.0
 40
2.000000000000002
100
AcDbArc
 50
3.433630362451251
 51
90.0
  0
LINE
  5
1CF
330
6C
100
AcDbEntity
  8
Sichtbare Kanten(DIN)
100
AcDbLine
 10
432.9521504259258
 20
-707.9448494682001
 30
0.0
 11
433.7685536601067
 21
-707.9448494682002
 31
0.0
  0
ARC
  5
1D0
330
6C
100
AcDbEntity
  8
Sichtbare Kanten(DIN)
100
AcDbCircle
 10
432.9521504259256
 20
-708.9448494682
 30
0.0
 40
0.9999999999999413
100
AcDbArc
 50
89.99999999999186
 51
180.0
  0
LINE
  5
1D1
330
6C
100
AcDbEntity
  8
Sichtbare Kanten(DIN)
100
AcDbLine
 10
431.9521504259256
 20
-729.9448494682002
 30
0.0
 11
431.9521504259257
 21
-708.9448494682001
 31
0.0
  0
LINE
  5
1D2
330
6C
100
AcDbEntity
  8
Sichtbare Kanten(DIN)
100
AcDbLine
 10
474.4247170376938
 20
-698.280976491519
 30
0.0
 11
469.1021504259246
 21
-698.1448494682001
 31
0.0
  0
ARC
  5
1D3
330
6C
100
AcDbEntity
  8
Sichtbare Kanten(DIN)
100
AcDbCircle
 10
469.1021504259247
 20
-700.1448494682001
 30
0.0
 40
2.000000000000002
100
AcDbArc
 50
90.0
 51
180.0
  0
LINE
  5
1D4
330
6C
100
AcDbEntity
  8
Sichtbare Kanten(DIN)
100
AcDbLine
 10
467.1021504259247
 20
-700.1448494682001
 30
0.0
 11
467.1021504259247
 21
-704.5448494682
 31
0.0
  0
ARC
  5
1D5
330
6C
100
AcDbEntity
  8
Sichtbare Kanten(DIN)
100
AcDbCircle
 10
460.5021504259247
 20
-704.5448494682001
 30
0.0
 40
6.59999999999999
100
AcDbArc
 50
269.9999999999994
 51
0.0
  0
LINE
  5
1D6
330
6C
100
AcDbEntity
  8
Sichtbare Kanten(DIN)
100
AcDbLine
 10
460.5021504259247
 20
-711.1448494682001
 30
0.0
 11
458.8021504259248
 21
-711.1448494682001
 31
0.0
  0
ARC
  5
1D7
330
6C
100
AcDbEntity
  8
Sichtbare Kanten(DIN)
100
AcDbCircle
 10
458.8021504259248
 20
-704.5448494682
 30
0.0
 40
6.600000000000076
100
AcDbArc
 50
235.3578682121477
 51
270.0
  0
LINE
  5
1D8
330
6C
100
AcDbEntity
  8
Sichtbare Kanten(DIN)
100
AcDbLine
 10
452.2021504259247
 20
-701.0622805113205
 30
0.0
 11
452.2021504259247
 21
-688.9448494682
 31
0.0
  0
ARC
  5
1D9
330
6C
100
AcDbEntity
  8
Sichtbare Kanten(DIN)
100
AcDbCircle
 10
456.4021504259247
 20
-688.9448494682
 30
0.0
 40
4.200000000000002
100
AcDbArc
 50
90.0
 51
180.0
  0
LINE
  5
1DA
330
6C
100
AcDbEntity
  8
Sichtbare Kanten(DIN)
100
AcDbLine
 10
408.1409657661157
 20
-494.4448494682
 30
0.0
 11
406.9616636806954
 21
-494.4152668701246
 31
0.0
  0
ELLIPSE
  5
1DB
330
6C
100
AcDbEntity
  8
Sichtbare Kanten(DIN)
100
AcDbEllipse
 10
408.1409657661157
 20
-509.4448494682001
 30
0.0
 11
-0.0000000000000079
 21
15.00000000000001
 31
0.0
210
0.0
220
0.0
230
1.0
 40
0.087155742747363
 41
4.712388980384689
 42
6.28318530717944
  0
LINE
  5
1DC
330
6C
100
AcDbEntity
  8
Sichtbare Kanten(DIN)
100
AcDbLine
 10
409.4483019073261
 20
-528.4448494682
 30
0.0
 11
409.4483019073261
 21
-509.4448494682001
 31
0.0
  0
ELLIPSE
  5
1DD
330
6C
100
AcDbEntity
  8
Sichtbare Kanten(DIN)
100
AcDbEllipse
 10
408.1409657661157
 20
-528.4448494682
 30
0.0
 11
0.0000000000000051
 21
-14.99999999999999
 31
0.0
210
0.0
220
0.0
230
1.0
 40
0.087155742747363
 41
0.0000000000003176
 42
1.570796326795052
  0
LINE
  5
1DE
330
6C
100
AcDbEntity
  8
Sichtbare Kanten(DIN)
100
AcDbLine
 10
404.4711769354659
 20
-494.4152668701246
 30
0.0
 11
405.6504790208863
 21
-494.4448494682
 31
0.0
  0
LINE
  5
1DF
330
6C
100
AcDbEntity
  8
Sichtbare Kanten(DIN)
100
AcDbLine
 10
405.6504790208863
 20
-543.4448494682
 30
0.0
 11
404.4711769354659
 21
-543.4448494682
 31
0.0
  0
ELLIPSE
  5
1E0
330
6C
100
AcDbEntity
  8
Sichtbare Kanten(DIN)
100
AcDbEllipse
 10
405.6504790208863
 20
-528.4448494682
 30
0.0
 11
0.0000000000000082
 21
-14.99999999999998
 31
0.0
210
0.0
220
0.0
230
1.0
 40
0.087155742747363
 41
0.0
 42
1.570796326794896
  0
LINE
  5
1E1
330
6C
100
AcDbEntity
  8
Sichtbare Kanten(DIN)
100
AcDbLine
 10
406.9578151620967
 20
-509.4448494682001
 30
0.0
 11
406.9578151620968
 21
-528.4448494682
 31
0.0
  0
ELLIPSE
  5
1E2
330
6C
100
AcDbEntity
  8
Sichtbare Kanten(DIN)
100
AcDbEllipse
 10
405.6504790208863
 20
-509.4448494682001
 30
0.0
 11
-0.000000000000007
 21
15.00000000000001
 31
0.0
210
0.0
220
0.0
230
1.0
 40
0.087155742747363
 41
4.712388980384689
 42
6.283185307179584
  0
LINE
  5
1E3
330
6C
100
AcDbEntity
  8
Sichtbare Kanten(DIN)
100
AcDbLine
 10
404.9096552075337
 20
-525.4448494682001
 30
0.0
 11
404.9096552075337
 21
-512.4448494682001
 31
0.0
  0
ELLIPSE
  5
1E4
330
6C
100
AcDbEntity
  8
Sichtbare Kanten(DIN)
100
AcDbEllipse
 10
405.4761675353915
 20
-512.4448494682001
 30
0.0
 11
-0.0000000000000027
 21
6.499999999999992
 31
0.0
210
0.0
220
0.0
230
1.0
 40
0.087155742747363
 41
4.712388980384689
 42
7.853981633974482
  0
LINE
  5
1E5
330
6C
100
AcDbEntity
  8
Sichtbare Kanten(DIN)
100
AcDbLine
 10
406.0426798632494
 20
-512.4448494681998
 30
0.0
 11
406.0426798632494
 21
-525.4448494682001
 31
0.0
  0
ELLIPSE
  5
1E6
330
6C
100
AcDbEntity
  8
Sichtbare Kanten(DIN)
100
AcDbEllipse
 10
405.4761675353915
 20
-525.4448494682001
 30
0.0
 11
0.0000000000000034
 21
-6.500000000000004
 31
0.0
210
0.0
220
0.0
230
1.0
 40
0.087155742747363
 41
4.712388980384689
 42
7.853981633974482
  0
LINE
  5
1E7
330
6C
100
AcDbEntity
  8
Sichtbare Kanten(DIN)
100
AcDbLine
 10
405.6504790208863
 20
-543.4448494682
 30
0.0
 11
408.1409657661157
 21
-543.4448494681999
 31
0.0
  0
LINE
  5
1E8
330
6C
100
AcDbEntity
  8
Sichtbare Kanten(DIN)
100
AcDbLine
 10
473.5885556196351
 20
-491.9352789690474
 30
0.0
 11
468.595354797906
 21
-491.9315643021467
 31
0.0
  0
LINE
  5
1E9
330
6C
100
AcDbEntity
  8
Sichtbare Kanten(DIN)
100
AcDbLine
 10
468.5972146599491
 20
-489.4315649939642
 30
0.0
 11
473.5904154816782
 21
-489.4352796608649
 31
0.0
  0
LINE
  5
1EA
330
6C
100
AcDbEntity
  8
Sichtbare Kanten(DIN)
100
AcDbLine
 10
419.4555326923677
 20
-491.8950069760543
 30
0.0
 11
468.595354797906
 21
-491.9315643021467
 31
0.0
  0
LINE
  5
1EB
330
6C
100
AcDbEntity
  8
Sichtbare Kanten(DIN)
100
AcDbLine
 10
468.5972146599491
 20
-489.4315649939642
 30
0.0
 11
419.4573925544109
 21
-489.3950076678717
 31
0.0
  0
LINE
  5
1EC
330
6C
100
AcDbEntity
  8
Sichtbare Kanten(DIN)
100
AcDbLine
 10
419.4555326923677
 20
-491.8950069760541
 30
0.0
 11
414.4487362813661
 21
-491.8912821947825
 31
0.0
  0
LINE
  5
1ED
330
6C
100
AcDbEntity
  8
Sichtbare Kanten(DIN)
100
AcDbLine
 10
414.4505961434092
 20
-489.3912828866
 30
0.0
 11
419.4573925544109
 21
-489.3950076678717
 31
0.0
  0
LINE
  5
1EE
330
6C
100
AcDbEntity
  8
Sichtbare Kanten(DIN)
100
AcDbLine
 10
473.5904154816782
 20
-489.4352796608649
 30
0.0
 11
473.5885556196351
 21
-491.9352789690474
 31
0.0
  0
LINE
  5
1EF
330
6C
100
AcDbEntity
  8
Sichtbare Kanten(DIN)
100
AcDbLine
 10
414.4505961434092
 20
-489.3912828866
 30
0.0
 11
414.4487362813662
 21
-491.8912821947825
 31
0.0
  0
SPLINE
  5
1F0
330
6C
100
AcDbEntity
  8
Sichtbare Kanten(DIN)
100
AcDbSpline
210
0.0
220
0.0
230
1.0
 70
     8
 71
     3
 72
    18
 73
    14
 74
     0
 42
0.0000000001
 43
0.0000000001
 40
0.2063838586120736
 40
0.2063838586120736
 40
0.2063838586120736
 40
0.2063838586120736
 40
0.2356272285058635
 40
0.2356272285058635
 40
0.2905438324286653
 40
0.2905438324286653
 40
0.346821828742004
 40
0.346821828742004
 40
0.387422874070838
 40
0.387422874070838
 40
0.4557675324837137
 40
0.4557675324837137
 40
0.5075996322693481
 40
0.5075996322693481
 40
0.5075996322693481
 40
0.5075996322693481
 10
438.9247261162873
 20
-492.0356852500076
 30
0.0
 10
438.7802072412629
 20
-492.0222522496358
 30
0.0
 10
438.6288178263783
 20
-492.0124325887933
 30
0.0
 10
438.1756979841818
 20
-491.9910134353389
 30
0.0
 10
437.8720175905971
 20
-491.9859695277015
 30
0.0
 10
437.2537113272975
 20
-491.9862387305218
 30
0.0
 10
436.943102715094
 20
-491.9917790371153
 30
0.0
 10
436.4238924750805
 20
-492.0180079916887
 30
0.0
 10
436.2096453273724
 20
-492.0343049707526
 30
0.0
 10
435.6601958515812
 20
-492.1049257866378
 30
0.0
 10
435.3694870339232
 20
-492.1749011932313
 30
0.0
 10
434.9663838929348
 20
-492.3717243218406
 30
0.0
 10
434.8327608342749
 20
-492.4783530934509
 30
0.0
 10
434.738599871021
 20
-492.6080592018117
 30
0.0
  0
SPLINE
  5
1F1
330
6C
100
AcDbEntity
  8
Sichtbare Kanten(DIN)
100
AcDbSpline
210
0.0
220
0.0
230
1.0
 70
     8
 71
     3
 72
    10
 73
     6
 74
     0
 42
0.0000000001
 43
0.0000000001
 40
0.0
 40
0.0
 40
0.0
 40
0.0
 40
0.1413474253611612
 40
0.1413474253611612
 40
0.2204900348029787
 40
0.2204900348029787
 40
0.2204900348029787
 40
0.2204900348029787
 10
435.077150425936
 20
-494.4448494682
 30
0.0
 10
434.9936831591409
 20
-493.9811435743421
 30
0.0
 10
434.910617494508
 20
-493.5196838006596
 30
0.0
 10
434.7804159236488
 20
-492.8240694841373
 30
0.0
 10
434.7338072634247
 20
-492.5806087462683
 30
0.0
 10
434.6871834885865
 20
-492.3455236814914
 30
0.0
  0
LINE
  5
1F2
330
6C
100
AcDbEntity
  8
Sichtbare Kanten(DIN)
100
AcDbLine
 10
474.4247170376938
 20
-495.6859020648994
 30
0.0
 11
473.5762204949041
 21
-495.6852708301193
 31
0.0
  0
LINE
  5
1F3
330
6C
100
AcDbEntity
  8
Sichtbare Kanten(DIN)
100
AcDbLine
 10
473.5762204949041
 20
-495.6852708301193
 30
0.0
 11
473.5771504259256
 21
-494.435271176028
 31
0.0
  0
LINE
  5
1F4
330
6C
100
AcDbEntity
  8
Sichtbare Kanten(DIN)
100
AcDbLine
 10
473.5771504259256
 20
-494.435271176028
 30
0.0
 11
473.5790102879682
 21
-491.9352718678454
 31
0.0
  0
SPLINE
  5
1F5
330
6C
100
AcDbEntity
  8
Sichtbare Kanten(DIN)
100
AcDbSpline
210
0.0
220
0.0
230
1.0
 70
     8
 71
     3
 72
    16
 73
    12
 74
     0
 42
0.0000000001
 43
0.0000000001
 40
0.0
 40
0.0
 40
0.0
 40
0.0
 40
0.0977128439983061
 40
0.0977128439983061
 40
0.1953741135634599
 40
0.1953741135634599
 40
0.2930353619393531
 40
0.2930353619393531
 40
0.3433694572236694
 40
0.3433694572236694
 40
0.3937041164816908
 40
0.3937041164816908
 40
0.3937041164816908
 40
0.3937041164816908
 10
414.4498033791373
 20
-491.8912829886446
 30
0.0
 10
414.4501522886502
 20
-491.8912832482141
 30
0.0
 10
414.4504505888737
 20
-491.9549354139197
 30
0.0
 10
414.4509642271069
 20
-492.2023052573995
 30
0.0
 10
414.4511748160359
 20
-492.3835945468426
 30
0.0
 10
414.4515319873534
 20
-492.8410386502529
 30
0.0
 10
414.4516752550484
 20
-493.1128200221118
 30
0.0
 10
414.4518660407071
 20
-493.5667458452043
 30
0.0
 10
414.451925845273
 20
-493.7273509757932
 30
0.0
 10
414.4520407214046
 20
-494.0561464077896
 30
0.0
 10
414.4520955133574
 20
-494.2235032379897
 30
0.0
 10
414.4521504259256
 20
-494.391285426536
 30
0.0
  0
SPLINE
  5
1F6
330
6C
100
AcDbEntity
  8
Sichtbare Kanten(DIN)
100
AcDbSpline
210
0.0
220
0.0
230
1.0
 70
     8
 71
     3
 72
    10
 73
     6
 74
     0
 42
0.0000000001
 43
0.0000000001
 40
0.0
 40
0.0
 40
0.0
 40
0.0
 40
0.0759766211228581
 40
0.0759766211228581
 40
0.1519532422771095
 40
0.1519532422771095
 40
0.1519532422771095
 40
0.1519532422771095
 10
434.8278233367748
 20
-494.4064438069908
 30
0.0
 10
434.7441572633251
 20
-494.1674076430354
 30
0.0
 10
434.6609185376319
 20
-493.9296016244963
 30
0.0
 10
434.493572189331
 20
-493.4709813011078
 30
0.0
 10
434.410319066786
 20
-493.252527275024
 30
0.0
 10
434.3266246396949
 20
-493.0516036155604
 30
0.0
  0
SPLINE
  5
1F7
330
6C
100
AcDbEntity
  8
Sichtbare Kanten(DIN)
100
AcDbSpline
210
0.0
220
0.0
230
1.0
 70
     8
 71
     3
 72
    28
 73
    24
 74
     0
 42
0.0000000001
 43
0.0000000001
 40
0.0
 40
0.0
 40
0.0
 40
0.0
 40
0.0444327974539019
 40
0.0444327974539019
 40
0.0917158593851556
 40
0.0917158593851556
 40
0.1513346185411403
 40
0.1513346185411403
 40
0.2351600899370757
 40
0.2351600899370757
 40
0.2900214622724743
 40
0.2900214622724743
 40
0.3463064911735396
 40
0.3463064911735396
 40
0.3869143051678143
 40
0.3869143051678143
 40
0.4552729014752832
 40
0.4552729014752832
 40
0.508235718629694
 40
0.508235718629694
 40
0.5367861129622362
 40
0.5367861129622362
 40
0.5641511486012563
 40
0.5641511486012563
 40
0.5641511486012563
 40
0.5641511486012563
 10
434.3266246396949
 20
-493.0516036155604
 30
0.0
 10
434.326435180957
 20
-492.9271154141286
 30
0.0
 10
434.3491723220158
 20
-492.7992380066845
 30
0.0
 10
434.4667236499403
 20
-492.5482295121135
 30
0.0
 10
434.5584581237872
 20
-492.4422137493277
 30
0.0
 10
434.8180196689878
 20
-492.2468892435062
 30
0.0
 10
435.0071131364414
 20
-492.1635379943911
 30
0.0
 10
435.5759815609602
 20
-492.0161191857197
 30
0.0
 10
435.9775251190367
 20
-491.9781894771766
 30
0.0
 10
436.7243287850118
 20
-491.9460032108852
 30
0.0
 10
437.0277759512094
 20
-491.9416780705233
 30
0.0
 10
437.6462129647359
 20
-491.9422670243837
 30
0.0
 10
437.9571161020329
 20
-491.9473872279263
 30
0.0
 10
438.4768791824921
 20
-491.9718325145479
 30
0.0
 10
438.6913579996007
 20
-491.9870520789931
 30
0.0
 10
439.241487635714
 20
-492.0538939166845
 30
0.0
 10
439.5325353935298
 20
-492.1207428598401
 30
0.0
 10
439.9399372091244
 20
-492.3132590669804
 30
0.0
 10
440.075726636436
 20
-492.4198542377167
 30
0.0
 10
440.2213945827907
 20
-492.621093621017
 30
0.0
 10
440.2611179795155
 20
-492.6996050300951
 30
0.0
 10
440.3133432266408
 20
-492.8693410536966
 30
0.0
 10
440.3266660724563
 20
-492.959064498232
 30
0.0
 10
440.326623256475
 20
-493.0534629195497
 30
0.0
  0
SPLINE
  5
1F8
330
6C
100
AcDbEntity
  8
Sichtbare Kanten(DIN)
100
AcDbSpline
210
0.0
220
0.0
230
1.0
 70
     8
 71
     3
 72
    10
 73
     6
 74
     0
 42
0.0000000001
 43
0.0000000001
 40
0.0
 40
0.0
 40
0.0
 40
0.0
 40
0.0763342463553024
 40
0.0763342463553024
 40
0.1526684927417677
 40
0.1526684927417677
 40
0.1526684927417677
 40
0.1526684927417677
 10
440.326623256475
 20
-493.0534629195497
 30
0.0
 10
440.2405285048165
 20
-493.2545356819209
 30
0.0
 10
440.1548615356182
 20
-493.4732501490592
 30
0.0
 10
439.9826298172446
 20
-493.9325301836896
 30
0.0
 10
439.8969483581084
 20
-494.1707217661048
 30
0.0
 10
439.8108250713927
 20
-494.4101508863314
 30
0.0
  0
SPLINE
  5
1F9
330
6C
100
AcDbEntity
  8
Sichtbare Kanten(DIN)
100
AcDbSpline
210
0.0
220
0.0
230
1.0
 70
     8
 71
     3
 72
    10
 73
     6
 74
     0
 42
0.0000000001
 43
0.0000000001
 40
0.0
 40
0.0
 40
0.0
 40
0.0
 40
0.1459907506880322
 40
0.1459907506880322
 40
0.1958160894633554
 40
0.1958160894633554
 40
0.1958160894633554
 40
0.1958160894633554
 10
439.8108250713934
 20
-494.4101508863314
 30
0.0
 10
439.8971265891146
 20
-493.9312286749492
 30
0.0
 10
439.982985241367
 20
-493.4547819019733
 30
0.0
 10
440.09872087524
 20
-492.8386679775931
 30
0.0
 10
440.128116529666
 20
-492.6844432360135
 30
0.0
 10
440.1574936037755
 20
-492.533297690695
 30
0.0
  0
SPLINE
  5
1FA
330
6C
100
AcDbEntity
  8
Sichtbare Kanten(DIN)
100
AcDbSpline
210
0.0
220
0.0
230
1.0
 70
     8
 71
     3
 72
    10
 73
     6
 74
     0
 42
0.0000000001
 43
0.0000000001
 40
0.0960313038634164
 40
0.0960313038634164
 40
0.0960313038634164
 40
0.0960313038634164
 40
0.1455738515933214
 40
0.1455738515933214
 40
0.2911477034250809
 40
0.2911477034250809
 40
0.2911477034250809
 40
0.2911477034250809
 10
434.4926252652832
 20
-492.5342188734786
 30
0.0
 10
434.5209820794029
 20
-492.6847223898882
 30
0.0
 10
434.5493524605834
 20
-492.8382668012848
 30
0.0
 10
434.6612731840712
 20
-493.4528838444015
 30
0.0
 10
434.7443349902272
 20
-493.9284338236389
 30
0.0
 10
434.8278233367755
 20
-494.4064438069908
 30
0.0
  0
LINE
  5
1FB
330
6C
100
AcDbEntity
  8
Sichtbare Kanten(DIN)
100
AcDbLine
 10
431.9521504259256
 20
-729.9448494682002
 30
0.0
 11
474.4247170376938
 21
-729.9448494682002
 31
0.0
  0
SPLINE
  5
1FC
330
6C
100
AcDbEntity
  8
Sichtbare Kanten(DIN)
100
AcDbSpline
210
0.0
220
0.0
230
1.0
 70
     8
 71
     3
 72
    16
 73
    12
 74
     0
 42
0.0000000001
 43
0.0000000001
 40
0.0
 40
0.0
 40
0.0
 40
0.0
 40
0.0974899074240168
 40
0.0974899074240168
 40
0.2928220254870904
 40
0.2928220254870904
 40
0.4881446917598119
 40
0.4881446917598119
 40
0.6596565504837693
 40
0.6596565504837693
 40
0.8311682059758037
 40
0.8311682059758037
 40
0.8311682059758037
 40
0.8311682059758037
 10
404.4711769354659
 20
-494.4152668701246
 30
0.0
 10
404.4428542862453
 20
-494.4147553624975
 30
0.0
 10
404.4461592799242
 20
-494.4142450062162
 30
0.0
 10
404.5509424909949
 20
-494.4127085461928
 30
0.0
 10
404.7466184967366
 20
-494.4116932736807
 30
0.0
 10
405.3674823348678
 20
-494.4096434737398
 30
0.0
 10
405.7867232523028
 20
-494.4086282507158
 30
0.0
 10
406.7341462499015
 20
-494.4067034391109
 30
0.0
 10
407.2358352860879
 20
-494.4058100552036
 30
0.0
 10
408.3129529062733
 20
-494.4040101827107
 30
0.0
 10
408.8804456158399
 20
-494.4031167467081
 30
0.0
 10
409.4521504259263
 20
-494.4022168636103
 30
0.0
  0
SPLINE
  5
1FD
330
6C
100
AcDbEntity
  8
Sichtbare Kanten(DIN)
100
AcDbSpline
210
0.0
220
0.0
230
1.0
 70
     8
 71
     3
 72
    16
 73
    12
 74
     0
 42
0.0000000001
 43
0.0000000001
 40
0.0
 40
0.0
 40
0.0
 40
0.0
 40
0.0977195974218734
 40
0.0977195974218734
 40
0.1953813554554139
 40
0.1953813554554139
 40
0.2930433683263108
 40
0.2930433683263108
 40
0.3543170087944347
 40
0.3543170087944347
 40
0.4155904915963657
 40
0.4155904915963657
 40
0.4155904915963657
 40
0.4155904915963657
 10
409.4521504259255
 20
-494.4022168636103
 30
0.0
 10
409.1264200485644
 20
-494.4032422853167
 30
0.0
 10
408.8038075398365
 20
-494.4042581605128
 30
0.0
 10
408.2013568244491
 20
-494.4063085162833
 30
0.0
 10
407.9272531967836
 20
-494.4073237421396
 30
0.0
 10
407.4639674909314
 20
-494.4093734929388
 30
0.0
 10
407.2792149355031
 20
-494.4103887199405
 30
0.0
 10
407.0717814894648
 20
-494.4120566123841
 30
0.0
 10
407.0151423790616
 20
-494.4126972217687
 30
0.0
 10
406.951062618518
 20
-494.4139832499234
 30
0.0
 10
406.9438626492216
 20
-494.4146238961361
 30
0.0
 10
406.9616636806953
 20
-494.4152668701244
 30
0.0
  0
LINE
  5
1FE
330
6C
100
AcDbEntity
  8
Sichtbare Kanten(DIN)
100
AcDbLine
 10
404.4711769354659
 20
-543.4448494682003
 30
0.0
 11
404.4521504259248
 21
-543.4448494682003
 31
0.0
  0
LINE
  5
1FF
330
6C
100
AcDbEntity
  8
Sichtbare Kanten(DIN)
100
AcDbLine
 10
408.1409657661157
 20
-543.4448494682
 30
0.0
 11
409.4521504259255
 21
-543.4448494682
 31
0.0
  0
LINE
  5
200
330
6C
100
AcDbEntity
  8
Sichtbare Kanten(DIN)
100
AcDbLine
 10
404.4521504259248
 20
-494.4145800300095
 30
0.0
 11
404.4521504259248
 21
-543.4448494682
 31
0.0
  0
LINE
  5
201
330
6C
100
AcDbEntity
  8
Sichtbare Kanten(DIN)
100
AcDbLine
 10
438.6521504259244
 20
-494.5448494681999
 30
0.0
 11
438.6521504259244
 21
-508.5448494681997
 31
0.0
  0
LINE
  5
202
330
6C
100
AcDbEntity
  8
Sichtbare Kanten(DIN)
100
AcDbLine
 10
438.6521504259256
 20
-560.2948494681994
 30
0.0
 11
438.6521504259246
 21
-570.2448494681995
 31
0.0
  0
LINE
  5
203
330
6C
100
AcDbEntity
  8
Sichtbare Kanten(DIN)
100
AcDbLine
 10
438.6521504259256
 20
-604.7948494681992
 30
0.0
 11
438.6521504259246
 21
-614.7448494681992
 31
0.0
  0
LINE
  5
204
330
6C
100
AcDbEntity
  8
Sichtbare Kanten(DIN)
100
AcDbLine
 10
438.6521504259256
 20
-663.794849468199
 30
0.0
 11
438.6521504259246
 21
-673.7448494681987
 31
0.0
  0
LINE
  5
205
330
6C
100
AcDbEntity
  8
Sichtbare Kanten(DIN)
100
AcDbLine
 10
438.6521504259257
 20
-713.7948494681986
 30
0.0
 11
438.6521504259246
 21
-723.7448494681984
 31
0.0
  0
LINE
  5
206
330
6C
100
AcDbEntity
  8
Sichtbare Kanten(DIN)
100
AcDbLine
 10
438.6521504259244
 20
-494.5448494681999
 30
0.0
 11
436.1521504259243
 21
-494.5448494681999
 31
0.0
  0
LINE
  5
207
330
6C
100
AcDbEntity
  8
Sichtbare Kanten(DIN)
100
AcDbLine
 10
403.3626366514095
 20
-772.4743632427173
 30
0.0
 11
403.3626366514049
 21
-757.4743632427173
 31
0.0
  0
LINE
  5
208
330
6C
100
AcDbEntity
  8
Sichtbare Kanten(DIN)
100
AcDbLine
 10
403.3626366514049
 20
-734.4196063554579
 30
0.0
 11
403.3626366514049
 21
-757.4743632427174
 31
0.0
  0
LINE
  5
209
330
6C
100
AcDbEntity
  8
Sichtbare Kanten(DIN)
100
AcDbLine
 10
405.8626366514049
 20
-734.4196063554579
 30
0.0
 11
405.8626366514049
 21
-757.4743632427174
 31
0.0
  0
LINE
  5
20A
330
6C
100
AcDbEntity
  8
Sichtbare Kanten(DIN)
100
AcDbLine
 10
405.8626366514095
 20
-772.4743632427173
 30
0.0
 11
405.862636651405
 21
-757.4743632427173
 31
0.0
  0
LINE
  5
20B
330
6C
100
AcDbEntity
  8
Sichtbare Kanten(DIN)
100
AcDbLine
 10
405.8626366514095
 20
-772.4743632427174
 30
0.0
 11
403.3626366514095
 21
-772.4743632427174
 31
0.0
  0
LINE
  5
20C
330
6C
100
AcDbEntity
  8
Sichtbare Kanten(DIN)
100
AcDbLine
 10
436.1521504259246
 20
-723.7448494681984
 30
0.0
 11
436.1521504259257
 21
-713.7948494681985
 31
0.0
  0
LINE
  5
20D
330
6C
100
AcDbEntity
  8
Sichtbare Kanten(DIN)
100
AcDbLine
 10
436.1521504259265
 20
-696.9448494681985
 30
0.0
 11
436.1521504259265
 21
-713.7948494681985
 31
0.0
  0
LINE
  5
20E
330
6C
100
AcDbEntity
  8
Sichtbare Kanten(DIN)
100
AcDbLine
 10
436.1521504259246
 20
-673.7448494681989
 30
0.0
 11
436.1521504259257
 21
-663.7948494681989
 31
0.0
  0
LINE
  5
20F
330
6C
100
AcDbEntity
  8
Sichtbare Kanten(DIN)
100
AcDbLine
 10
436.1521504259264
 20
-646.9448494681988
 30
0.0
 11
436.1521504259264
 21
-663.7948494681989
 31
0.0
  0
LINE
  5
210
330
6C
100
AcDbEntity
  8
Sichtbare Kanten(DIN)
100
AcDbLine
 10
436.1521504259246
 20
-614.7448494681992
 30
0.0
 11
436.1521504259257
 21
-604.7948494681992
 31
0.0
  0
LINE
  5
211
330
6C
100
AcDbEntity
  8
Sichtbare Kanten(DIN)
100
AcDbLine
 10
436.1521504259264
 20
-587.9448494681992
 30
0.0
 11
436.1521504259264
 21
-604.7948494681992
 31
0.0
  0
LINE
  5
212
330
6C
100
AcDbEntity
  8
Sichtbare Kanten(DIN)
100
AcDbLine
 10
436.1521504259245
 20
-570.2448494681995
 30
0.0
 11
436.1521504259256
 21
-560.2948494681994
 31
0.0
  0
LINE
  5
213
330
6C
100
AcDbEntity
  8
Sichtbare Kanten(DIN)
100
AcDbLine
 10
436.1521504259264
 20
-543.4448494681994
 30
0.0
 11
436.1521504259264
 21
-560.2948494681994
 31
0.0
  0
LINE
  5
214
330
6C
100
AcDbEntity
  8
Sichtbare Kanten(DIN)
100
AcDbLine
 10
436.1521504259243
 20
-494.5448494681999
 30
0.0
 11
436.1521504259243
 21
-508.5448494681997
 31
0.0
  0
LINE
  5
215
330
6C
100
AcDbEntity
  8
Sichtbare Kanten(DIN)
100
AcDbLine
 10
431.9521504259259
 20
-729.4196063554579
 30
0.0
 11
425.4173935386666
 21
-729.4196063554579
 31
0.0
  0
LINE
  5
216
330
6C
100
AcDbEntity
  8
Sichtbare Kanten(DIN)
100
AcDbLine
 10
433.6521504259264
 20
-731.919606355458
 30
0.0
 11
425.4173935386666
 21
-731.919606355458
 31
0.0
  0
LINE
  5
217
330
6C
100
AcDbEntity
  8
Sichtbare Kanten(DIN)
100
AcDbLine
 10
438.6521504259244
 20
-508.5448494681997
 30
0.0
 11
436.1521504259243
 21
-508.5448494681997
 31
0.0
  0
LINE
  5
218
330
6C
100
AcDbEntity
  8
Sichtbare Kanten(DIN)
100
AcDbLine
 10
438.6521504259246
 20
-614.7448494681992
 30
0.0
 11
436.1521504259246
 21
-614.7448494681992
 31
0.0
  0
LINE
  5
219
330
6C
100
AcDbEntity
  8
Sichtbare Kanten(DIN)
100
AcDbLine
 10
438.6521504259256
 20
-604.7948494681992
 30
0.0
 11
436.1521504259256
 21
-604.7948494681992
 31
0.0
  0
LINE
  5
21A
330
6C
100
AcDbEntity
  8
Sichtbare Kanten(DIN)
100
AcDbLine
 10
438.6521504259246
 20
-723.7448494681984
 30
0.0
 11
436.1521504259246
 21
-723.7448494681984
 31
0.0
  0
LINE
  5
21B
330
6C
100
AcDbEntity
  8
Sichtbare Kanten(DIN)
100
AcDbLine
 10
438.6521504259256
 20
-713.7948494681985
 30
0.0
 11
436.1521504259257
 21
-713.7948494681985
 31
0.0
  0
LINE
  5
21C
330
6C
100
AcDbEntity
  8
Sichtbare Kanten(DIN)
100
AcDbLine
 10
438.6521504259246
 20
-673.7448494681987
 30
0.0
 11
436.1521504259246
 21
-673.7448494681989
 31
0.0
  0
LINE
  5
21D
330
6C
100
AcDbEntity
  8
Sichtbare Kanten(DIN)
100
AcDbLine
 10
438.6521504259257
 20
-663.7948494681989
 30
0.0
 11
436.1521504259257
 21
-663.794849468199
 31
0.0
  0
LINE
  5
21E
330
6C
100
AcDbEntity
  8
Sichtbare Kanten(DIN)
100
AcDbLine
 10
438.6521504259255
 20
-560.2948494681994
 30
0.0
 11
436.1521504259256
 21
-560.2948494681994
 31
0.0
  0
LINE
  5
21F
330
6C
100
AcDbEntity
  8
Sichtbare Kanten(DIN)
100
AcDbLine
 10
438.6521504259246
 20
-570.2448494681994
 30
0.0
 11
436.1521504259246
 21
-570.2448494681994
 31
0.0
  0
LINE
  5
220
330
6C
100
AcDbEntity
  8
Sichtbare Kanten(DIN)
100
AcDbLine
 10
425.4173935386647
 20
-731.919606355458
 30
0.0
 11
425.4173935386647
 21
-729.4196063554579
 31
0.0
  0
LINE
  5
221
330
6C
100
AcDbEntity
  8
Sichtbare Kanten(DIN)
100
AcDbLine
 10
425.4173935386647
 20
-729.4196063554579
 30
0.0
 11
408.3626366514049
 21
-729.4196063554579
 31
0.0
  0
LINE
  5
222
330
6C
100
AcDbEntity
  8
Sichtbare Kanten(DIN)
100
AcDbLine
 10
425.4173935386647
 20
-731.919606355458
 30
0.0
 11
408.3626366514049
 21
-731.919606355458
 31
0.0
  0
ARC
  5
223
330
6C
100
AcDbEntity
  8
Sichtbare Kanten(DIN)
100
AcDbCircle
 10
408.3626366514049
 20
-734.4196063554579
 30
0.0
 40
2.500000000000054
100
AcDbArc
 50
90.0
 51
180.0
  0
ARC
  5
224
330
6C
100
AcDbEntity
  8
Sichtbare Kanten(DIN)
100
AcDbCircle
 10
408.3626366514049
 20
-734.4196063554579
 30
0.0
 40
5.000000000000031
100
AcDbArc
 50
90.00000000000079
 51
180.0
  0
ARC
  5
225
330
6C
100
AcDbEntity
  8
Sichtbare Kanten(DIN)
100
AcDbCircle
 10
433.6521504259264
 20
-726.919606355458
 30
0.0
 40
4.999999999999959
100
AcDbArc
 50
269.9999999999992
 51
322.7676592021513
  0
LINE
  5
226
330
6C
100
AcDbEntity
  8
Sichtbare Kanten(DIN)
100
AcDbLine
 10
478.1747170377003
 20
843.1500075313911
 30
0.0
 11
437.6747170377004
 21
843.1500075313911
 31
0.0
  0
LINE
  5
227
330
6C
100
AcDbEntity
  8
Sichtbare Kanten(DIN)
100
AcDbLine
 10
469.7014460382439
 20
874.3551505317986
 30
0.0
 11
446.1479880371569
 21
874.3551505317986
 31
0.0
  0
LINE
  5
228
330
6C
100
AcDbEntity
  8
Sichtbare Kanten(DIN)
100
AcDbLine
 10
477.1959850266859
 20
842.3551505317972
 30
0.0
 11
438.6534490487148
 21
842.3551505317972
 31
0.0
  0
LINE
  5
229
330
6C
100
AcDbEntity
  8
Sichtbare Kanten(DIN)
100
AcDbLine
 10
437.6747170377004
 20
843.1500075313914
 30
0.0
 11
436.1747170377004
 21
863.624489480831
 31
0.0
  0
LINE
  5
22A
330
6C
100
AcDbEntity
  8
Sichtbare Kanten(DIN)
100
AcDbLine
 10
478.1747170377003
 20
843.1500075313911
 30
0.0
 11
479.6747170377003
 21
863.624489480831
 31
0.0
  0
ARC
  5
22B
330
6C
100
AcDbEntity
  8
Sichtbare Kanten(DIN)
100
AcDbCircle
 10
469.7014460382439
 20
864.3551505317981
 30
0.0
 40
10.00000000000004
100
AcDbArc
 50
355.8098866354207
 51
90.0
  0
ARC
  5
22C
330
6C
100
AcDbEntity
  8
Sichtbare Kanten(DIN)
100
AcDbCircle
 10
446.1479880371569
 20
864.3551505317986
 30
0.0
 40
10.00000000000004
100
AcDbArc
 50
90.0
 51
184.190113364581
  0
ARC
  5
22D
330
6C
100
AcDbEntity
  8
Sichtbare Kanten(DIN)
100
AcDbCircle
 10
477.1959850266859
 20
843.3551505317971
 30
0.0
 40
1.0
100
AcDbArc
 50
270.0
 51
348.1621297176985
  0
ARC
  5
22E
330
6C
100
AcDbEntity
  8
Sichtbare Kanten(DIN)
100
AcDbCircle
 10
438.6534490487148
 20
843.3551505317971
 30
0.0
 40
1.0
100
AcDbArc
 50
191.8378702822936
 51
270.0
  0
LINE
  5
22F
330
6C
100
AcDbEntity
  8
Sichtbare Kanten(DIN)
100
AcDbLine
 10
438.9247170377004
 20
-497.9545830211013
 30
0.0
 11
438.9247170377004
 21
-492.0154772953104
 31
0.0
  0
LINE
  5
230
330
6C
100
AcDbEntity
  8
Sichtbare Kanten(DIN)
100
AcDbLine
 10
438.9247170377004
 20
-489.4094902870348
 30
0.0
 11
438.9247170377004
 21
842.3551505317961
 31
0.0
  0
LINE
  5
231
330
6C
100
AcDbEntity
  8
Sichtbare Kanten(DIN)
100
AcDbLine
 10
476.9247170377004
 20
-698.3291850736572
 30
0.0
 11
476.9247170377004
 21
-684.7448494681999
 31
0.0
  0
LINE
  5
232
330
6C
100
AcDbEntity
  8
Sichtbare Kanten(DIN)
100
AcDbLine
 10
476.9247170377004
 20
-494.4373040222554
 30
0.0
 11
476.9247170377004
 21
842.3551505317961
 31
0.0
  0
CIRCLE
  5
233
330
6C
100
AcDbEntity
  8
Sichtbare Kanten(DIN)
100
AcDbCircle
 10
457.9247170376947
 20
825.8551505317997
 30
0.0
 40
9.000000000000111
  0
CIRCLE
  5
234
330
6C
100
AcDbEntity
  8
Sichtbare Kanten(DIN)
100
AcDbCircle
 10
457.9247170376947
 20
825.8551505317997
 30
0.0
 40
11.00000000000014
  0
CIRCLE
  5
235
330
6C
100
AcDbEntity
  8
Sichtbare Kanten(DIN)
100
AcDbCircle
 10
457.9247170376908
 20
-704.144849468197
 30
0.0
 40
6.50000000000017
  0
LINE
  5
236
330
6C
100
AcDbEntity
  8
Sichtbare Kanten(DIN)
100
AcDbLine
 10
461.0998787931808
 20
-705.5298938091744
 30
0.0
 11
458.3128143307814
 21
-707.587142380065
 31
0.0
  0
LINE
  5
237
330
6C
100
AcDbEntity
  8
Sichtbare Kanten(DIN)
100
AcDbLine
 10
458.3128143307815
 20
-707.587142380065
 30
0.0
 11
455.1376525752913
 21
-706.2020980390878
 31
0.0
  0
LINE
  5
238
330
6C
100
AcDbEntity
  8
Sichtbare Kanten(DIN)
100
AcDbLine
 10
455.1376525752913
 20
-706.2020980390878
 30
0.0
 11
454.7495552822005
 21
-702.7598051272198
 31
0.0
  0
LINE
  5
239
330
6C
100
AcDbEntity
  8
Sichtbare Kanten(DIN)
100
AcDbLine
 10
454.7495552822004
 20
-702.7598051272198
 30
0.0
 11
457.5366197445998
 21
-700.7025565563292
 31
0.0
  0
LINE
  5
23A
330
6C
100
AcDbEntity
  8
Sichtbare Kanten(DIN)
100
AcDbLine
 10
457.5366197445998
 20
-700.7025565563292
 30
0.0
 11
460.7117815000899
 21
-702.0876008973064
 31
0.0
  0
LINE
  5
23B
330
6C
100
AcDbEntity
  8
Sichtbare Kanten(DIN)
100
AcDbLine
 10
460.7117815000899
 20
-702.0876008973064
 30
0.0
 11
461.0998787931808
 21
-705.5298938091744
 31
0.0
  0
SPLINE
  5
23C
330
6C
100
AcDbEntity
  8
Sichtbare Kanten(DIN)
100
AcDbSpline
210
0.0
220
0.0
230
1.0
 70
     8
 71
     3
 72
    10
 73
     6
 74
     0
 42
0.0000000001
 43
0.0000000001
 40
0.0
 40
0.0
 40
0.0
 40
0.0
 40
0.1148132726611515
 40
0.1148132726611515
 40
0.229626545354555
 40
0.229626545354555
 40
0.229626545354555
 40
0.229626545354555
 10
57.68306570672812
 20
-987.6302207604705
 30
0.0
 10
57.51359047790089
 20
-987.2870797623964
 30
0.0
 10
57.38407135446692
 20
-986.92561252301
 30
0.0
 10
57.21003794762106
 20
-986.1802382784537
 30
0.0
 10
57.16609766827284
 20
-985.7987896968349
 30
0.0
 10
57.16609766827284
 20
-985.4160788427588
 30
0.0
  0
LINE
  5
23D
330
6C
100
AcDbEntity
  8
Sichtbare Kanten(DIN)
100
AcDbLine
 10
59.92458168750046
 20
-986.5231498016147
 30
0.0
 11
57.68306570672812
 21
-987.6302207604705
 31
0.0
  0
SPLINE
  5
23E
330
6C
100
AcDbEntity
  8
Sichtbare Kanten(DIN)
100
AcDbSpline
210
0.0
220
0.0
230
1.0
 70
     8
 71
     3
 72
    10
 73
     6
 74
     0
 42
0.0000000001
 43
0.0000000001
 40
0.0
 40
0.0
 40
0.0
 40
0.0
 40
0.0574066610424667
 40
0.0574066610424667
 40
0.114813322088963
 40
0.114813322088963
 40
0.114813322088963
 40
0.114813322088963
 10
59.66609766827284
 20
-985.4160788427588
 30
0.0
 10
59.66609766827282
 20
-985.6074342697633
 30
0.0
 10
59.68806780793919
 20
-985.7981585605394
 30
0.0
 10
59.77508451134723
 20
-986.1708456828209
 30
0.0
 10
59.8398440730719
 20
-986.3515793025475
 30
0.0
 10
59.92458168750044
 20
-986.5231498016147
 30
0.0
  0
SPLINE
  5
23F
330
6C
100
AcDbEntity
  8
Sichtbare Kanten(DIN)
100
AcDbSpline
210
0.0
220
0.0
230
1.0
 70
     8
 71
     3
 72
    14
 73
    10
 74
     0
 42
0.0000000001
 43
0.0000000001
 40
0.0
 40
0.0
 40
0.0
 40
0.0
 40
0.0974569495838747
 40
0.0974569495838747
 40
0.2927788852834933
 40
0.2927788852834933
 40
0.4248721796051108
 40
0.4248721796051108
 40
0.5569655445934747
 40
0.5569655445934747
 40
0.5569655445934747
 40
0.5569655445934747
 10
62.16609766827279
 20
-990.4160788427585
 30
0.0
 10
61.84124121626114
 20
-990.4160788427587
 30
0.0
 10
61.51715658249819
 20
-990.384419328434
 30
0.0
 10
60.55967790328118
 20
-990.1955465561458
 30
0.0
 10
59.95163202338732
 20
-989.9459836974193
 30
0.0
 10
59.04123682830697
 20
-989.3440704969348
 30
0.0
 10
58.70762564496651
 20
-989.0537765993668
 30
0.0
 10
58.12509630013218
 20
-988.3933564338729
 30
0.0
 10
57.87872204913128
 20
-988.0261141322236
 30
0.0
 10
57.6836378005272
 20
-987.6313787172787
 30
0.0
  0
SPLINE
  5
240
330
6C
100
AcDbEntity
  8
Sichtbare Kanten(DIN)
100
AcDbSpline
210
0.0
220
0.0
230
1.0
 70
     8
 71
     3
 72
    12
 73
     8
 74
     0
 42
0.0000000001
 43
0.0000000001
 40
0.0
 40
0.0
 40
0.0
 40
0.0
 40
0.0976870569742632
 40
0.0976870569742632
 40
0.1882149961797504
 40
0.1882149961797504
 40
0.2787429263834714
 40
0.2787429263834714
 40
0.2787429263834714
 40
0.2787429263834714
 10
59.92486773439999
 20
-986.5237287800185
 30
0.0
 10
60.06913840165487
 20
-986.8156474875034
 30
0.0
 10
60.26906235584053
 20
-987.0765870723676
 30
0.0
 10
60.73979369529588
 20
-987.4913416809231
 30
0.0
 10
61.00046613280023
 20
-987.6481993579444
 30
0.0
 10
61.56505657690821
 20
-987.8614435311389
 30
0.0
 10
61.86433807405769
 20
-987.916078842759
 30
0.0
 10
62.16609766827281
 20
-987.9160788427583
 30
0.0
  0
LINE
  5
241
330
6C
100
AcDbEntity
  8
Sichtbare Kanten(DIN)
100
AcDbLine
 10
59.92486773440003
 20
-986.5237287800185
 30
0.0
 11
57.68363780052722
 21
-987.6313787172787
 31
0.0
  0
SPLINE
  5
242
330
6C
100
AcDbEntity
  8
Sichtbare Kanten(DIN)
100
AcDbSpline
210
0.0
220
0.0
230
1.0
 70
     8
 71
     3
 72
    10
 73
     6
 74
     0
 42
0.0000000001
 43
0.0000000001
 40
0.0
 40
0.0
 40
0.0
 40
0.0
 40
0.062500016067669
 40
0.062500016067669
 40
0.1250000321353379
 40
0.1250000321353379
 40
0.1250000321353379
 40
0.1250000321353379
 10
57.68363780052723
 20
-987.6313787172787
 30
0.0
 10
57.68354242663483
 20
-987.6311857367934
 30
0.0
 10
57.6834470652083
 20
-987.6309927501472
 30
0.0
 10
57.68325636727478
 20
-987.6306067645435
 30
0.0
 10
57.68316103076763
 20
-987.6304137655857
 30
0.0
 10
57.68306570672809
 20
-987.6302207604705
 30
0.0
  0
SPLINE
  5
243
330
6C
100
AcDbEntity
  8
Sichtbare Kanten(DIN)
100
AcDbSpline
210
0.0
220
0.0
230
1.0
 70
     8
 71
     3
 72
    10
 73
     6
 74
     0
 42
0.0000000001
 43
0.0000000001
 40
0.0
 40
0.0
 40
0.0
 40
0.0
 40
0.062499991045339
 40
0.062499991045339
 40
0.1249999820906781
 40
0.1249999820906781
 40
0.1249999820906781
 40
0.1249999820906781
 10
59.92458168750046
 20
-986.5231498016147
 30
0.0
 10
59.92462934952029
 20
-986.5232463041722
 30
0.0
 10
59.92467701777122
 20
-986.5233428036525
 30
0.0
 10
59.92477236673798
 20
-986.5235357964541
 30
0.0
 10
59.92482004745382
 20
-986.5236322897759
 30
0.0
 10
59.92486773440001
 20
-986.5237287800185
 30
0.0
  0
LINE
  5
244
330
6C
100
AcDbEntity
  8
Sichtbare Kanten(DIN)
100
AcDbLine
 10
96.51123089181121
 20
-987.9160788427583
 30
0.0
 11
89.97986483741213
 21
-987.9160788427583
 31
0.0
  0
LINE
  5
245
330
6C
100
AcDbEntity
  8
Sichtbare Kanten(DIN)
100
AcDbLine
 10
68.69833049913498
 20
-987.9160788427583
 30
0.0
 11
68.53866428004302
 21
-987.9160788427583
 31
0.0
  0
LINE
  5
246
330
6C
100
AcDbEntity
  8
Sichtbare Kanten(DIN)
100
AcDbLine
 10
96.51123089181124
 20
-990.4160788427583
 30
0.0
 11
82.79972274848731
 21
-990.4160788427583
 31
0.0
  0
LINE
  5
247
330
6C
100
AcDbEntity
  8
Sichtbare Kanten(DIN)
100
AcDbLine
 10
75.87847258805981
 20
-990.4160788427583
 30
0.0
 11
68.53866428004296
 21
-990.4160788427583
 31
0.0
  0
LINE
  5
248
330
6C
100
AcDbEntity
  8
Sichtbare Kanten(DIN)
100
AcDbLine
 10
99.01123089181126
 20
-949.8685122309895
 30
0.0
 11
99.01123089181126
 21
-951.082797945274
 31
0.0
  0
LINE
  5
249
330
6C
100
AcDbEntity
  8
Sichtbare Kanten(DIN)
100
AcDbLine
 10
99.01123089181126
 20
-949.64351223099
 30
0.0
 11
99.01123089181124
 21
-949.8685122309908
 31
0.0
  0
LINE
  5
24A
330
6C
100
AcDbEntity
  8
Sichtbare Kanten(DIN)
100
AcDbLine
 10
99.01123089181126
 20
-946.0685122309881
 30
0.0
 11
99.01123089181126
 21
-947.14351223099
 31
0.0
  0
LINE
  5
24B
330
6C
100
AcDbEntity
  8
Sichtbare Kanten(DIN)
100
AcDbLine
 10
99.01123089181126
 20
-923.143512230988
 30
0.0
 11
99.01123089181126
 21
-920.6435122309882
 31
0.0
  0
LINE
  5
24C
330
6C
100
AcDbEntity
  8
Sichtbare Kanten(DIN)
100
AcDbLine
 10
101.5112308918112
 20
-923.1435122309882
 30
0.0
 11
101.5112308918112
 21
-920.6435122309882
 31
0.0
  0
LINE
  5
24D
330
6C
100
AcDbEntity
  8
Sichtbare Kanten(DIN)
100
AcDbLine
 10
101.5112308918112
 20
-947.14351223099
 30
0.0
 11
101.5112308918112
 21
-946.1462371937919
 31
0.0
  0
LINE
  5
24E
330
6C
100
AcDbEntity
  8
Sichtbare Kanten(DIN)
100
AcDbLine
 10
101.5112308918112
 20
-949.8685122309908
 30
0.0
 11
101.5112308918112
 21
-949.64351223099
 31
0.0
  0
LINE
  5
24F
330
6C
100
AcDbEntity
  8
Sichtbare Kanten(DIN)
100
AcDbLine
 10
101.5112308918112
 20
-950.990787268182
 30
0.0
 11
101.5112308918112
 21
-949.8685122309895
 31
0.0
  0
LINE
  5
250
330
6C
100
AcDbEntity
  8
Sichtbare Kanten(DIN)
100
AcDbLine
 10
132.6515252372124
 20
-920.6396637124028
 30
0.0
 11
117.7086047658363
 21
-919.3323275711835
 31
0.0
  0
LINE
  5
251
330
6C
100
AcDbEntity
  8
Sichtbare Kanten(DIN)
100
AcDbLine
 10
104.2291202486804
 20
-918.1530254857589
 30
0.0
 11
117.7086047658363
 21
-919.3323275711833
 31
0.0
  0
LINE
  5
252
330
6C
100
AcDbEntity
  8
Sichtbare Kanten(DIN)
100
AcDbLine
 10
132.8694145940817
 20
-918.1491769671733
 30
0.0
 11
132.6515252372125
 21
-920.6396637124028
 31
0.0
  0
LINE
  5
253
330
6C
100
AcDbEntity
  8
Sichtbare Kanten(DIN)
100
AcDbLine
 10
117.9264941227055
 20
-916.8418408259539
 30
0.0
 11
132.8694145940816
 21
-918.1491769671731
 31
0.0
  0
LINE
  5
254
330
6C
100
AcDbEntity
  8
Sichtbare Kanten(DIN)
100
AcDbLine
 10
104.4470096055496
 20
-915.6625387405297
 30
0.0
 11
117.9264941227054
 21
-916.8418408259539
 31
0.0
  0
LINE
  5
255
330
6C
100
AcDbEntity
  8
Sichtbare Kanten(DIN)
100
AcDbLine
 10
105.3563641153496
 20
-984.8685122309866
 30
0.0
 11
104.0112308918112
 21
-984.8685122309866
 31
0.0
  0
LINE
  5
256
330
6C
100
AcDbEntity
  8
Sichtbare Kanten(DIN)
100
AcDbLine
 10
99.01123089181126
 20
-949.8685122309895
 30
0.0
 11
101.5112308918112
 21
-949.8685122309895
 31
0.0
  0
ARC
  5
257
330
6C
100
AcDbEntity
  8
Sichtbare Kanten(DIN)
100
AcDbCircle
 10
105.3563641153496
 20
-930.6435122309867
 30
0.0
 40
5.000000000000001
100
AcDbArc
 50
0.0
 51
90.00000000000019
  0
LINE
  5
258
330
6C
100
AcDbEntity
  8
Sichtbare Kanten(DIN)
100
AcDbLine
 10
110.3563641153496
 20
-930.6435122309867
 30
0.0
 11
110.3563641153496
 21
-957.9160788423672
 31
0.0
  0
ARC
  5
259
330
6C
100
AcDbEntity
  8
Sichtbare Kanten(DIN)
100
AcDbCircle
 10
105.3563641153496
 20
-979.8685122309866
 30
0.0
 40
5.000000000000042
100
AcDbArc
 50
270.0000000000004
 51
359.4549185622749
  0
LINE
  5
25A
330
6C
100
AcDbEntity
  8
Sichtbare Kanten(DIN)
100
AcDbLine
 10
104.0112308918113
 20
-925.6435122309866
 30
0.0
 11
105.3563641153496
 21
-925.6435122309866
 31
0.0
  0
LINE
  5
25B
330
6C
100
AcDbEntity
  8
Sichtbare Kanten(DIN)
100
AcDbLine
 10
68.53866428004302
 20
-987.9160788427583
 30
0.0
 11
62.16609766827284
 21
-987.9160788427583
 31
0.0
  0
LINE
  5
25C
330
6C
100
AcDbEntity
  8
Sichtbare Kanten(DIN)
100
AcDbLine
 10
62.16609766827282
 20
-990.4160788427583
 30
0.0
 11
68.53866428004296
 21
-990.4160788427583
 31
0.0
  0
LINE
  5
25D
330
6C
100
AcDbEntity
  8
Sichtbare Kanten(DIN)
100
AcDbLine
 10
59.66609766827279
 20
-925.4435122309901
 30
0.0
 11
59.66609766827281
 21
-920.4435122309901
 31
0.0
  0
LINE
  5
25E
330
6C
100
AcDbEntity
  8
Sichtbare Kanten(DIN)
100
AcDbLine
 10
59.66609766827282
 20
-947.0185122309917
 30
0.0
 11
59.66609766827282
 21
-945.8191851418394
 31
0.0
  0
LINE
  5
25F
330
6C
100
AcDbEntity
  8
Sichtbare Kanten(DIN)
100
AcDbLine
 10
59.66609766827281
 20
-947.14351223099
 30
0.0
 11
59.66609766827281
 21
-947.0185122309928
 31
0.0
  0
LINE
  5
260
330
6C
100
AcDbEntity
  8
Sichtbare Kanten(DIN)
100
AcDbLine
 10
59.66609766827281
 20
-950.8021868764572
 30
0.0
 11
59.66609766827281
 21
-949.6435122309899
 31
0.0
  0
LINE
  5
261
330
6C
100
AcDbEntity
  8
Sichtbare Kanten(DIN)
100
AcDbLine
 10
57.16609766827279
 20
-949.6435122309899
 30
0.0
 11
57.16609766827281
 21
-950.7875869010902
 31
0.0
  0
LINE
  5
262
330
6C
100
AcDbEntity
  8
Sichtbare Kanten(DIN)
100
AcDbLine
 10
57.16609766827282
 20
-947.0185122309928
 30
0.0
 11
57.16609766827281
 21
-947.14351223099
 31
0.0
  0
LINE
  5
263
330
6C
100
AcDbEntity
  8
Sichtbare Kanten(DIN)
100
AcDbLine
 10
57.16609766827281
 20
-945.8528101420034
 30
0.0
 11
57.16609766827281
 21
-947.0185122309917
 31
0.0
  0
LINE
  5
264
330
6C
100
AcDbEntity
  8
Sichtbare Kanten(DIN)
100
AcDbLine
 10
57.16609766827281
 20
-920.4435122309901
 30
0.0
 11
57.16609766827281
 21
-925.4435122309901
 31
0.0
  0
LINE
  5
265
330
6C
100
AcDbEntity
  8
Sichtbare Kanten(DIN)
100
AcDbLine
 10
40.96872379424794
 20
-919.132327571185
 30
0.0
 11
54.44820831140363
 21
-917.9530254857606
 31
0.0
  0
LINE
  5
266
330
6C
100
AcDbEntity
  8
Sichtbare Kanten(DIN)
100
AcDbLine
 10
40.96872379424791
 20
-919.132327571185
 30
0.0
 11
26.02580332287172
 21
-920.4396637124043
 31
0.0
  0
LINE
  5
267
330
6C
100
AcDbEntity
  8
Sichtbare Kanten(DIN)
100
AcDbLine
 10
54.23031895453449
 20
-915.4625387405314
 30
0.0
 11
40.7508344373788
 21
-916.6418408259557
 31
0.0
  0
LINE
  5
268
330
6C
100
AcDbEntity
  8
Sichtbare Kanten(DIN)
100
AcDbLine
 10
25.80791396600258
 20
-917.949176967175
 30
0.0
 11
40.75083443737877
 21
-916.6418408259557
 31
0.0
  0
LINE
  5
269
330
6C
100
AcDbEntity
  8
Sichtbare Kanten(DIN)
100
AcDbLine
 10
25.80791396600262
 20
-917.949176967175
 30
0.0
 11
26.02580332287177
 21
-920.4396637124045
 31
0.0
  0
ELLIPSE
  5
26A
330
6C
100
AcDbEntity
  8
Sichtbare Kanten(DIN)
100
AcDbEllipse
 10
53.29666880291958
 20
-979.5817786703773
 30
0.0
 11
-4.999995378994126
 21
-0.0067977946379732
 31
0.0
210
0.0
220
0.0
230
0.9999999999999998
 40
0.9999997232740396
 41
0.0
 42
1.570796328299802
  0
LINE
  5
26B
330
6C
100
AcDbEntity
  8
Sichtbare Kanten(DIN)
100
AcDbLine
 10
48.29667342392546
 20
-979.5885764650149
 30
0.0
 11
48.22986484136115
 21
-930.4487543594767
 31
0.0
  0
ELLIPSE
  5
26C
330
6C
100
AcDbEntity
  8
Sichtbare Kanten(DIN)
100
AcDbEllipse
 10
53.22986022035525
 20
-930.4400967027961
 30
0.0
 11
-4.999998616365082
 21
0.0037197230568881
 31
0.0
210
0.0
220
0.0
230
1.0
 40
0.9999997232733226
 41
4.712388979561213
 42
6.28392925206616
  0
ELLIPSE
  5
26D
330
6C
100
AcDbEntity
  8
Sichtbare Kanten(DIN)
100
AcDbEllipse
 10
53.22986022035529
 20
-930.4419565648386
 30
0.0
 11
-4.999995378994151
 21
-0.0067977946380272
 31
0.0
210
0.0
220
0.0
230
1.0
 40
0.9999997232740394
 41
4.710285475776163
 42
6.283185305674708
  0
LINE
  5
26E
330
6C
100
AcDbEntity
  8
Sichtbare Kanten(DIN)
100
AcDbLine
 10
54.66609766827279
 20
-925.4411651842019
 30
0.0
 11
53.2335799444415
 21
-925.4400994700656
 31
0.0
  0
LINE
  5
26F
330
6C
100
AcDbEntity
  8
Sichtbare Kanten(DIN)
100
AcDbLine
 10
53.23357994444151
 20
-925.4419593321079
 30
0.0
 11
54.66609766827281
 21
-925.4430250462444
 31
0.0
  0
LINE
  5
270
330
6C
100
AcDbEntity
  8
Sichtbare Kanten(DIN)
100
AcDbLine
 10
53.41609766827282
 20
-984.5816195370211
 30
0.0
 11
53.30346659943867
 21
-984.5817726657378
 31
0.0
  0
LINE
  5
271
330
6C
100
AcDbEntity
  8
Sichtbare Kanten(DIN)
100
AcDbLine
 10
59.66609766827282
 20
-947.0185122309917
 30
0.0
 11
57.16609766827281
 21
-947.0185122309917
 31
0.0
  0
LINE
  5
272
330
6C
100
AcDbEntity
  8
Sichtbare Kanten(DIN)
100
AcDbLine
 10
48.22986022035525
 20
-930.4419565648419
 30
0.0
 11
48.22986022035525
 21
-930.4400967027994
 31
0.0
  0
ARC
  5
273
330
6C
100
AcDbEntity
  8
Sichtbare Kanten(DIN)
100
AcDbCircle
 10
96.51123089181119
 20
-985.4160788427583
 30
0.0
 40
5.000000000000039
100
AcDbArc
 50
270.0000000000008
 51
328.9260575205568
  0
LINE
  5
274
330
6C
100
AcDbEntity
  8
Sichtbare Kanten(DIN)
100
AcDbLine
 10
98.65248566678376
 20
-986.7064384781535
 30
0.0
 11
100.7937404417563
 21
-987.9967981135488
 31
0.0
  0
ARC
  5
275
330
6C
100
AcDbEntity
  8
Sichtbare Kanten(DIN)
100
AcDbCircle
 10
96.51123089181121
 20
-985.4160788427583
 30
0.0
 40
2.500000000000002
100
AcDbArc
 50
270.0
 51
328.9260575205565
  0
ARC
  5
276
330
6C
100
AcDbEntity
  8
Sichtbare Kanten(DIN)
100
AcDbCircle
 10
96.51123089181105
 20
-985.4160788427588
 30
0.0
 40
2.50000000000016
100
AcDbArc
 50
328.9260575205624
 51
0.0
  0
ARC
  5
277
330
6C
100
AcDbEntity
  8
Sichtbare Kanten(DIN)
100
AcDbCircle
 10
96.51123089181133
 20
-985.4160788427588
 30
0.0
 40
4.999999999999891
100
AcDbArc
 50
328.9260575205578
 51
0.0
  0
LINE
  5
278
330
6C
100
AcDbEntity
  8
Sichtbare Kanten(DIN)
100
AcDbLine
 10
99.01123089181124
 20
-985.4160788427586
 30
0.0
 11
99.01123089181124
 21
-984.8685122309884
 31
0.0
  0
LINE
  5
279
330
6C
100
AcDbEntity
  8
Sichtbare Kanten(DIN)
100
AcDbLine
 10
99.01123089181126
 20
-951.082797945274
 30
0.0
 11
99.01123089181126
 21
-957.9160788423672
 31
0.0
  0
LINE
  5
27A
330
6C
100
AcDbEntity
  8
Sichtbare Kanten(DIN)
100
AcDbLine
 10
99.01123089181126
 20
-979.9160788423673
 30
0.0
 11
99.01123089181124
 21
-984.8685122309882
 31
0.0
  0
LINE
  5
27B
330
6C
100
AcDbEntity
  8
Sichtbare Kanten(DIN)
100
AcDbLine
 10
99.01123089181126
 20
-946.0685122309881
 30
0.0
 11
99.01123089181124
 21
-925.6435122309882
 31
0.0
  0
LINE
  5
27C
330
6C
100
AcDbEntity
  8
Sichtbare Kanten(DIN)
100
AcDbLine
 10
99.01123089181126
 20
-925.6435122309886
 30
0.0
 11
99.01123089181126
 21
-923.1435122309886
 31
0.0
  0
LINE
  5
27D
330
6C
100
AcDbEntity
  8
Sichtbare Kanten(DIN)
100
AcDbLine
 10
101.5112308918112
 20
-923.1435122309886
 30
0.0
 11
101.5112308918112
 21
-925.6435122309886
 31
0.0
  0
LINE
  5
27E
330
6C
100
AcDbEntity
  8
Sichtbare Kanten(DIN)
100
AcDbLine
 10
101.5112308918112
 20
-984.8685122309884
 30
0.0
 11
101.5112308918113
 21
-985.4160788427586
 31
0.0
  0
LINE
  5
27F
330
6C
100
AcDbEntity
  8
Sichtbare Kanten(DIN)
100
AcDbLine
 10
99.01123089181126
 20
-923.143512230988
 30
0.0
 11
101.5112308918112
 21
-923.1435122309882
 31
0.0
  0
SPLINE
  5
280
330
6C
100
AcDbEntity
  8
Sichtbare Kanten(DIN)
100
AcDbSpline
210
0.0
220
0.0
230
1.0
 70
     8
 71
     3
 72
    32
 73
    28
 74
     0
 42
0.0000000001
 43
0.0000000001
 40
0.0
 40
0.0
 40
0.0
 40
0.0
 40
0.0665333285803654
 40
0.0665333285803654
 40
0.2007601459572413
 40
0.2007601459572413
 40
0.3378899815235353
 40
0.3378899815235353
 40
0.4670767109652117
 40
0.4670767109652117
 40
0.5708185790396746
 40
0.5708185790396746
 40
0.6360001309880458
 40
0.6360001309880458
 40
0.6976909965127875
 40
0.6976909965127875
 40
0.7481451330004715
 40
0.7481451330004715
 40
0.8171823006927237
 40
0.8171823006927237
 40
0.8997509293651846
 40
0.8997509293651846
 40
0.9488595768456523
 40
0.9488595768456523
 40
0.973326683821296
 40
0.973326683821296
 40
0.997761578967211
 40
0.997761578967211
 40
0.997761578967211
 40
0.997761578967211
 10
99.76319307756362
 20
-945.5685122309873
 30
0.0
 10
99.88016207918292
 20
-945.5684687597134
 30
0.0
 10
100.0096665405642
 20
-945.5812295310524
 30
0.0
 10
100.4319335778732
 20
-945.6584495209177
 30
0.0
 10
100.7541353496627
 20
-945.7610692157761
 30
0.0
 10
101.4383895799622
 20
-946.0844297470933
 30
0.0
 10
101.7774625640174
 20
-946.2976925776457
 30
0.0
 10
102.3575655776457
 20
-946.7981562906359
 30
0.0
 10
102.5983507484358
 20
-947.0768331108571
 30
0.0
 10
102.9183902757998
 20
-947.6299436702092
 30
0.0
 10
103.0218526076702
 20
-947.8975833440948
 30
0.0
 10
103.103729669356
 20
-948.3567047482324
 30
0.0
 10
103.1138233214386
 20
-948.5368118656777
 30
0.0
 10
103.0902858953053
 20
-948.8860553382435
 30
0.0
 10
103.0547903579438
 20
-949.1325541688935
 30
0.0
 10
102.840597448793
 20
-949.6631063875881
 30
0.0
 10
102.7086301697028
 20
-949.8831401197781
 30
0.0
 10
102.3394455933202
 20
-950.358063734945
 30
0.0
 10
102.0863627948943
 20
-950.5903429068096
 30
0.0
 10
101.5012939981138
 20
-951.0177892798722
 30
0.0
 10
101.1558875821878
 20
-951.2020909939916
 30
0.0
 10
100.6164208772115
 20
-951.4138872441931
 30
0.0
 10
100.4242502319978
 20
-951.4720624049193
 30
0.0
 10
100.1577098039394
 20
-951.5301060262059
 30
0.0
 10
100.0727956764672
 20
-951.5445105678873
 30
0.0
 10
99.91140294728126
 20
-951.5637169628464
 30
0.0
 10
99.83494111365642
 20
-951.568538895988
 30
0.0
 10
99.76319307756364
 20
-951.5685122309873
 30
0.0
  0
SPLINE
  5
281
330
6C
100
AcDbEntity
  8
Sichtbare Kanten(DIN)
100
AcDbSpline
210
0.0
220
0.0
230
1.0
 70
     8
 71
     3
 72
    10
 73
     6
 74
     0
 42
0.0000000001
 43
0.0000000001
 40
0.0
 40
0.0
 40
0.0
 40
0.0
 40
0.1412224391552805
 40
0.1412224391552805
 40
0.2824448784926208
 40
0.2824448784926208
 40
0.2824448784926208
 40
0.2824448784926208
 10
99.76319307756364
 20
-951.5685122309873
 30
0.0
 10
99.51862745359148
 20
-951.4874297551143
 30
0.0
 10
99.33005205954133
 20
-951.4067373829645
 30
0.0
 10
99.0757378394732
 20
-951.2445727935043
 30
0.0
 10
99.01123089181124
 20
-951.1638804212511
 30
0.0
 10
99.01123089181126
 20
-951.082797945274
 30
0.0
  0
LINE
  5
282
330
6C
100
AcDbEntity
  8
Sichtbare Kanten(DIN)
100
AcDbLine
 10
100.4112226168511
 20
-951.082797945274
 30
0.0
 11
101.3526008715305
 21
-951.082797945274
 31
0.0
  0
LINE
  5
283
330
6C
100
AcDbEntity
  8
Sichtbare Kanten(DIN)
100
AcDbLine
 10
99.01123089181126
 20
-951.082797945274
 30
0.0
 11
100.4112226168511
 21
-951.082797945274
 31
0.0
  0
SPLINE
  5
284
330
6C
100
AcDbEntity
  8
Sichtbare Kanten(DIN)
100
AcDbSpline
210
0.0
220
0.0
230
1.0
 70
     8
 71
     3
 72
    10
 73
     6
 74
     0
 42
0.0000000001
 43
0.0000000001
 40
0.0
 40
0.0
 40
0.0
 40
0.0
 40
0.1413474253611612
 40
0.1413474253611612
 40
0.2826948509049266
 40
0.2826948509049266
 40
0.2826948509049266
 40
0.2826948509049266
 10
99.01123089181126
 20
-946.0685122309881
 30
0.0
 10
99.01123089181124
 20
-945.985044964193
 30
0.0
 10
99.07573783875413
 20
-945.9019792995599
 30
0.0
 10
99.33005205960917
 20
-945.735045162629
 30
0.0
 10
99.51862745435475
 20
-945.6519794978904
 30
0.0
 10
99.76319307756362
 20
-945.5685122309873
 30
0.0
  0
LINE
  5
285
330
6C
100
AcDbEntity
  8
Sichtbare Kanten(DIN)
100
AcDbLine
 10
100.4112220784353
 20
-946.0685122309881
 30
0.0
 11
99.01123089181126
 21
-946.0685122309881
 31
0.0
  0
LINE
  5
286
330
6C
100
AcDbEntity
  8
Sichtbare Kanten(DIN)
100
AcDbLine
 10
101.3782229439751
 20
-946.0685122309881
 30
0.0
 11
100.4112220784353
 21
-946.0685122309881
 31
0.0
  0
LINE
  5
287
330
6C
100
AcDbEntity
  8
Sichtbare Kanten(DIN)
100
AcDbLine
 10
104.0112308918112
 20
-984.868512230987
 30
0.0
 11
99.01123089181126
 21
-984.8685122309882
 31
0.0
  0
LINE
  5
288
330
6C
100
AcDbEntity
  8
Sichtbare Kanten(DIN)
100
AcDbLine
 10
99.01123089181124
 20
-925.6435122309882
 30
0.0
 11
104.0112308918112
 21
-925.643512230987
 31
0.0
  0
ARC
  5
289
330
6C
100
AcDbEntity
  8
Sichtbare Kanten(DIN)
100
AcDbCircle
 10
104.0112308918112
 20
-920.6435122309883
 30
0.0
 40
5.000000000000007
100
AcDbArc
 50
85.00000000000047
 51
180.0
  0
ARC
  5
28A
330
6C
100
AcDbEntity
  8
Sichtbare Kanten(DIN)
100
AcDbCircle
 10
104.0112308918112
 20
-920.6435122309883
 30
0.0
 40
2.49999999999999
100
AcDbArc
 50
84.99999999999944
 51
180.0
  0
LINE
  5
28B
330
6C
100
AcDbEntity
  8
Sichtbare Kanten(DIN)
100
AcDbLine
 10
59.66609766827279
 20
-925.4435122309901
 30
0.0
 11
59.66609766827282
 21
-945.8191851418394
 31
0.0
  0
LINE
  5
28C
330
6C
100
AcDbEntity
  8
Sichtbare Kanten(DIN)
100
AcDbLine
 10
59.66609766827281
 20
-950.8021868764572
 30
0.0
 11
59.66609766827282
 21
-959.5780385252933
 31
0.0
  0
LINE
  5
28D
330
6C
100
AcDbEntity
  8
Sichtbare Kanten(DIN)
100
AcDbLine
 10
59.66609766827282
 20
-978.2541191594182
 30
0.0
 11
59.66609766827282
 21
-984.5685122309902
 31
0.0
  0
LINE
  5
28E
330
6C
100
AcDbEntity
  8
Sichtbare Kanten(DIN)
100
AcDbLine
 10
59.66609766827282
 20
-984.5685122309902
 30
0.0
 11
59.66609766827284
 21
-985.4160788427588
 31
0.0
  0
LINE
  5
28F
330
6C
100
AcDbEntity
  8
Sichtbare Kanten(DIN)
100
AcDbLine
 10
57.16609766827282
 20
-985.4160788427588
 30
0.0
 11
57.16609766827284
 21
-984.5717336065426
 31
0.0
  0
LINE
  5
290
330
6C
100
AcDbEntity
  8
Sichtbare Kanten(DIN)
100
AcDbLine
 10
54.66609766827281
 20
-925.4430250462444
 30
0.0
 11
54.66609766827281
 21
-925.4419833967492
 31
0.0
  0
LINE
  5
291
330
6C
100
AcDbEntity
  8
Sichtbare Kanten(DIN)
100
AcDbLine
 10
54.66609766827281
 20
-925.4419833967492
 30
0.0
 11
54.66609766827279
 21
-925.4411651842019
 31
0.0
  0
LINE
  5
292
330
6C
100
AcDbEntity
  8
Sichtbare Kanten(DIN)
100
AcDbLine
 10
53.41609766827282
 20
-984.5722319550748
 30
0.0
 11
54.66609766827281
 21
-984.5722319550748
 31
0.0
  0
LINE
  5
293
330
6C
100
AcDbEntity
  8
Sichtbare Kanten(DIN)
100
AcDbLine
 10
53.41609766827282
 20
-984.5816195370211
 30
0.0
 11
53.41609766827282
 21
-984.5722319550748
 31
0.0
  0
ELLIPSE
  5
294
330
6C
100
AcDbEntity
  8
Sichtbare Kanten(DIN)
100
AcDbEllipse
 10
54.66609766827281
 20
-984.5685122309902
 30
0.0
 11
5.000000000000034
 21
0.0000000000000023
 31
0.0
210
0.0
220
0.0
230
1.0
 40
0.0007439448170095
 41
4.712388980384703
 42
6.283185294779741
  0
LINE
  5
295
330
6C
100
AcDbEntity
  8
Sichtbare Kanten(DIN)
100
AcDbLine
 10
57.19170027887566
 20
-950.8021868764572
 30
0.0
 11
58.26610682491526
 21
-950.8021868764572
 31
0.0
  0
LINE
  5
296
330
6C
100
AcDbEntity
  8
Sichtbare Kanten(DIN)
100
AcDbLine
 10
58.26610682491526
 20
-950.8021868764572
 30
0.0
 11
59.66609766827281
 21
-950.8021868764572
 31
0.0
  0
LINE
  5
297
330
6C
100
AcDbEntity
  8
Sichtbare Kanten(DIN)
100
AcDbLine
 10
57.16609766827281
 20
-925.4435122309901
 30
0.0
 11
59.66609766827279
 21
-925.4435122309901
 31
0.0
  0
LINE
  5
298
330
6C
100
AcDbEntity
  8
Sichtbare Kanten(DIN)
100
AcDbLine
 10
59.66609766827282
 20
-945.8191851418394
 30
0.0
 11
58.2661063520328
 21
-945.8191851418394
 31
0.0
  0
LINE
  5
299
330
6C
100
AcDbEntity
  8
Sichtbare Kanten(DIN)
100
AcDbLine
 10
58.2661063520328
 20
-945.8191851418394
 30
0.0
 11
57.22555935197007
 21
-945.8191851418394
 31
0.0
  0
SPLINE
  5
29A
330
6C
100
AcDbEntity
  8
Sichtbare Kanten(DIN)
100
AcDbSpline
210
0.0
220
0.0
230
1.0
 70
     8
 71
     3
 72
    16
 73
    12
 74
     0
 42
0.0000000001
 43
0.0000000001
 40
0.0
 40
0.0
 40
0.0
 40
0.0
 40
0.0974833916444421
 40
0.0974833916444421
 40
0.292815759019591
 40
0.292815759019591
 40
0.4881380178230703
 40
0.4881380178230703
 40
0.6376966952226793
 40
0.6376966952226793
 40
0.787254817805072
 40
0.787254817805072
 40
0.787254817805072
 40
0.787254817805072
 10
59.66609766827279
 20
-925.4435122309901
 30
0.0
 10
59.66609766827291
 20
-925.4435799266641
 30
0.0
 10
59.63442097187186
 20
-925.4436474435243
 30
0.0
 10
59.44547389030866
 20
-925.4438370240769
 30
0.0
 10
59.19585908702869
 20
-925.443943914291
 30
0.0
 10
58.4776081667564
 20
-925.4440544732794
 30
0.0
 10
58.01585025563287
 20
-925.4440569897498
 30
0.0
 10
57.06518086661251
 20
-925.4439220917566
 30
0.0
 10
56.61330636843043
 20
-925.4438180371296
 30
0.0
 10
55.66036005135725
 20
-925.4435021592302
 30
0.0
 10
55.16462467203677
 20
-925.4432920647445
 30
0.0
 10
54.66609766827281
 20
-925.4430250462444
 30
0.0
  0
SPLINE
  5
29B
330
6C
100
AcDbEntity
  8
Sichtbare Kanten(DIN)
100
AcDbSpline
210
0.0
220
0.0
230
1.0
 70
     8
 71
     3
 72
    10
 73
     6
 74
     0
 42
0.0000000001
 43
0.0000000001
 40
0.0
 40
0.0
 40
0.0
 40
0.0
 40
0.1459907506880322
 40
0.1459907506880322
 40
0.2919815016201546
 40
0.2919815016201546
 40
0.2919815016201546
 40
0.2919815016201546
 10
59.66609766827282
 20
-950.8021868764572
 30
0.0
 10
59.66609766827284
 20
-950.8884883941783
 30
0.0
 10
59.59726931048125
 20
-950.9743470464307
 30
0.0
 10
59.32618129177507
 20
-951.146920527301
 30
0.0
 10
59.12532284303965
 20
-951.2327501998935
 30
0.0
 10
58.86531542461357
 20
-951.3189946477115
 30
0.0
  0
SPLINE
  5
29C
330
6C
100
AcDbEntity
  8
Sichtbare Kanten(DIN)
100
AcDbSpline
210
0.0
220
0.0
230
1.0
 70
     8
 71
     3
 72
    26
 73
    22
 74
     0
 42
0.0000000001
 43
0.0000000001
 40
0.0
 40
0.0
 40
0.0
 40
0.0
 40
0.1471273734389713
 40
0.1471273734389713
 40
0.2987769341780335
 40
0.2987769341780335
 40
0.436866529047857
 40
0.436866529047857
 40
0.5325535622877864
 40
0.5325535622877864
 40
0.6462219975381839
 40
0.6462219975381839
 40
0.7428201269391506
 40
0.7428201269391506
 40
0.8383527341915886
 40
0.8383527341915886
 40
0.954410424525286
 40
0.954410424525286
 40
1.09104631581568
 40
1.09104631581568
 40
1.23959797900046
 40
1.23959797900046
 40
1.23959797900046
 40
1.23959797900046
 10
58.86531542461357
 20
-951.3189946477115
 30
0.0
 10
58.59909898883602
 20
-951.319134123533
 30
0.0
 10
58.27288480939134
 20
-951.257886817526
 30
0.0
 10
57.54091752988184
 20
-951.0001336722227
 30
0.0
 10
57.15384057060333
 20
-950.806127805056
 30
0.0
 10
56.47040264762714
 20
-950.3167671941369
 30
0.0
 10
56.18395633723597
 20
-950.0414373755138
 30
0.0
 10
55.80987896838411
 20
-949.518825024799
 30
0.0
 10
55.68480092147114
 20
-949.2841070381141
 30
0.0
 10
55.50120758533622
 20
-948.7330731227702
 30
0.0
 10
55.47092275109239
 20
-948.4428981621453
 30
0.0
 10
55.50362689393738
 20
-947.9489987754234
 30
0.0
 10
55.55610285199662
 20
-947.695618292305
 30
0.0
 10
55.78011844787795
 20
-947.1662677796324
 30
0.0
 10
55.93528460885976
 20
-946.9258178180417
 30
0.0
 10
56.33738959369239
 20
-946.4498951588321
 30
0.0
 10
56.60357991826848
 20
-946.2186791556591
 30
0.0
 10
57.23764228660876
 20
-945.7905522072662
 30
0.0
 10
57.59033620007642
 20
-945.621748679912
 30
0.0
 10
58.27926025023183
 20
-945.379834692226
 30
0.0
 10
58.60383085409413
 20
-945.3189417408863
 30
0.0
 10
58.86867748311438
 20
-945.3189940934281
 30
0.0
  0
SPLINE
  5
29D
330
6C
100
AcDbEntity
  8
Sichtbare Kanten(DIN)
100
AcDbSpline
210
0.0
220
0.0
230
1.0
 70
     8
 71
     3
 72
    10
 73
     6
 74
     0
 42
0.0000000001
 43
0.0000000001
 40
0.0
 40
0.0
 40
0.0
 40
0.0
 40
0.1455738515933214
 40
0.1455738515933214
 40
0.2911477034250809
 40
0.2911477034250809
 40
0.2911477034250809
 40
0.2911477034250809
 10
58.86867748311438
 20
-945.3189940934281
 30
0.0
 10
59.12762325038819
 20
-945.402539147059
 30
0.0
 10
59.32763565454745
 20
-945.4856297467133
 30
0.0
 10
59.5975674553696
 20
-945.6526349891348
 30
0.0
 10
59.66609766827288
 20
-945.7356967952909
 30
0.0
 10
59.66609766827282
 20
-945.8191851418394
 30
0.0
  0
SPLINE
  5
29E
330
6C
100
AcDbEntity
  8
Sichtbare Kanten(DIN)
100
AcDbSpline
210
0.0
220
0.0
230
1.0
 70
     8
 71
     3
 72
    16
 73
    12
 74
     0
 42
0.0000000001
 43
0.0000000001
 40
0.0
 40
0.0
 40
0.0
 40
0.0
 40
0.0974899074240168
 40
0.0974899074240168
 40
0.2928220254870904
 40
0.2928220254870904
 40
0.4881446917598119
 40
0.4881446917598119
 40
0.6596565504837693
 40
0.6596565504837693
 40
0.8311682059758037
 40
0.8311682059758037
 40
0.8311682059758037
 40
0.8311682059758037
 10
54.23031895453451
 20
-915.4625387405314
 30
0.0
 10
54.55404831647882
 20
-915.4342160913108
 30
0.0
 10
54.87976918808652
 20
-915.4375210849895
 30
0.0
 10
55.85020076005746
 20
-915.5423042960599
 30
0.0
 10
56.47770154792738
 20
-915.7379803018013
 30
0.0
 10
57.62234273809756
 20
-916.3588441399323
 30
0.0
 10
58.12854506308465
 20
-916.778085057367
 30
0.0
 10
58.90157880546205
 20
-917.7255080549656
 30
0.0
 10
59.18437105146908
 20
-918.2271970911518
 30
0.0
 10
59.5680437513095
 20
-919.3043147113371
 30
0.0
 10
59.66609766827296
 20
-919.8718074209036
 30
0.0
 10
59.66609766827281
 20
-920.4435122309901
 30
0.0
  0
SPLINE
  5
29F
330
6C
100
AcDbEntity
  8
Sichtbare Kanten(DIN)
100
AcDbSpline
210
0.0
220
0.0
230
1.0
 70
     8
 71
     3
 72
    16
 73
    12
 74
     0
 42
0.0000000001
 43
0.0000000001
 40
0.0
 40
0.0
 40
0.0
 40
0.0
 40
0.0977195974218734
 40
0.0977195974218734
 40
0.1953813554554139
 40
0.1953813554554139
 40
0.2930433683263108
 40
0.2930433683263108
 40
0.3543170087944347
 40
0.3543170087944347
 40
0.4155904915963657
 40
0.4155904915963657
 40
0.4155904915963657
 40
0.4155904915963657
 10
57.16609766827281
 20
-920.4435122309901
 30
0.0
 10
57.166097668273
 20
-920.117781853629
 30
0.0
 10
57.10243750102968
 20
-919.7951693449011
 30
0.0
 10
56.85504492268885
 20
-919.1927186295139
 30
0.0
 10
56.67374882239913
 20
-918.9186150018484
 30
0.0
 10
56.21629245802292
 20
-918.4553292959963
 30
0.0
 10
55.944505515412
 20
-918.270576740568
 30
0.0
 10
55.45702087830175
 20
-918.0631432945299
 30
0.0
 10
55.25998955855896
 20
-918.0065041841267
 30
0.0
 10
54.85655859020815
 20
-917.9424244235832
 30
0.0
 10
54.65167503219305
 20
-917.9352244542869
 30
0.0
 10
54.44820831140365
 20
-917.9530254857606
 30
0.0
  0
LINE
  5
2A0
330
6C
100
AcDbEntity
  8
Sichtbare Kanten(DIN)
100
AcDbLine
 10
81.66609766827251
 20
-947.1435122309902
 30
0.0
 11
81.66609766827249
 21
-947.2640351290452
 31
0.0
  0
LINE
  5
2A1
330
6C
100
AcDbEntity
  8
Sichtbare Kanten(DIN)
100
AcDbLine
 10
75.66609766827261
 20
-947.1435122309902
 30
0.0
 11
78.91334057885329
 21
-947.1435122309911
 31
0.0
  0
LINE
  5
2A2
330
6C
100
AcDbEntity
  8
Sichtbare Kanten(DIN)
100
AcDbLine
 10
79.76485475769377
 20
-947.1435122309911
 30
0.0
 11
81.66609766827253
 21
-947.1435122309902
 31
0.0
  0
LINE
  5
2A3
330
6C
100
AcDbEntity
  8
Sichtbare Kanten(DIN)
100
AcDbLine
 10
75.66609766827261
 20
-947.4513403868538
 30
0.0
 11
75.66609766827261
 21
-947.1435122309902
 31
0.0
  0
LINE
  5
2A4
330
6C
100
AcDbEntity
  8
Sichtbare Kanten(DIN)
100
AcDbLine
 10
69.20035503550211
 20
-949.6435122309902
 30
0.0
 11
55.90157956273323
 21
-949.6435122309902
 31
0.0
  0
LINE
  5
2A5
330
6C
100
AcDbEntity
  8
Sichtbare Kanten(DIN)
100
AcDbLine
 10
102.8360976819772
 20
-949.6435122309902
 30
0.0
 11
89.47784030104498
 21
-949.6435122309902
 31
0.0
  0
LINE
  5
2A6
330
6C
100
AcDbEntity
  8
Sichtbare Kanten(DIN)
100
AcDbLine
 10
75.6660976682726
 20
-947.1435122309902
 30
0.0
 11
55.81136196192628
 21
-947.1435122309902
 31
0.0
  0
LINE
  5
2A7
330
6C
100
AcDbEntity
  8
Sichtbare Kanten(DIN)
100
AcDbLine
 10
102.6202377342478
 20
-947.1435122309902
 30
0.0
 11
81.66609766827251
 21
-947.1435122309902
 31
0.0
  0
LINE
  5
2A8
330
6C
100
AcDbEntity
  8
Sichtbare Kanten(DIN)
100
AcDbLine
 10
97.6660976682727
 20
-936.4087553438002
 30
0.0
 11
97.66609766827262
 21
-944.6435122310598
 31
0.0
  0
LINE
  5
2A9
330
6C
100
AcDbEntity
  8
Sichtbare Kanten(DIN)
100
AcDbLine
 10
99.01123089181112
 20
-936.4087553438002
 30
0.0
 11
97.66609766827267
 21
-936.4087553438002
 31
0.0
  0
LINE
  5
2AA
330
6C
100
AcDbEntity
  8
Sichtbare Kanten(DIN)
100
AcDbLine
 10
52.9160976682731
 20
-925.4499524885426
 30
0.0
 11
52.91609766827317
 21
-919.3539984565402
 31
0.0
  0
LINE
  5
2AB
330
6C
100
AcDbEntity
  8
Sichtbare Kanten(DIN)
100
AcDbLine
 10
104.4160976682726
 20
-919.3539984565406
 30
0.0
 11
104.4160976682726
 21
-925.6435122309866
 31
0.0
  0
LINE
  5
2AC
330
6C
100
AcDbEntity
  8
Sichtbare Kanten(DIN)
100
AcDbLine
 10
104.4160976682727
 20
-918.1693838903086
 30
0.0
 11
104.4160976682727
 21
-919.3539984565406
 31
0.0
  0
LINE
  5
2AD
330
6C
100
AcDbEntity
  8
Sichtbare Kanten(DIN)
100
AcDbLine
 10
104.4160976682726
 20
-914.3539984565421
 30
0.0
 11
104.4160976682727
 21
-915.6599308989228
 31
0.0
  0
LINE
  5
2AE
330
6C
100
AcDbEntity
  8
Sichtbare Kanten(DIN)
100
AcDbLine
 10
52.91609766827318
 20
-914.3539984565418
 30
0.0
 11
104.4160976682726
 21
-914.3539984565421
 31
0.0
  0
LINE
  5
2AF
330
6C
100
AcDbEntity
  8
Sichtbare Kanten(DIN)
100
AcDbLine
 10
52.91609766827317
 20
-915.5775182044436
 30
0.0
 11
52.91609766827317
 21
-914.3539984565418
 31
0.0
  0
LINE
  5
2B0
330
6C
100
AcDbEntity
  8
Sichtbare Kanten(DIN)
100
AcDbLine
 10
52.91609766827315
 20
-919.3539984565402
 30
0.0
 11
52.91609766827317
 21
-918.0870677983021
 31
0.0
  0
LINE
  5
2B1
330
6C
100
AcDbEntity
  8
Sichtbare Kanten(DIN)
100
AcDbLine
 10
97.66609766827262
 20
-947.1435122310591
 30
0.0
 11
97.6660976682726
 21
-944.6435122310598
 31
0.0
  0
CIRCLE
  5
2B2
330
6C
100
AcDbEntity
  8
Sichtbare Kanten(DIN)
100
AcDbCircle
 10
79.33909766827357
 20
-968.9160788423558
 30
0.0
 40
21.77672900054353
  0
LINE
  5
2B3
330
6C
100
AcDbEntity
  8
Sichtbare Kanten(DIN)
100
AcDbLine
 10
60.33909766827363
 20
-979.9160788423673
 30
0.0
 11
60.33909766827363
 21
-979.5568460122133
 31
0.0
  0
LINE
  5
2B4
330
6C
100
AcDbEntity
  8
Sichtbare Kanten(DIN)
100
AcDbLine
 10
60.33909766827363
 20
-958.2753116724981
 30
0.0
 11
60.33909766827363
 21
-957.9160788423671
 31
0.0
  0
LINE
  5
2B5
330
6C
100
AcDbEntity
  8
Sichtbare Kanten(DIN)
100
AcDbLine
 10
60.33909766827362
 20
-957.9160788423669
 30
0.0
 11
60.54479198906943
 21
-957.9160788423669
 31
0.0
  0
LINE
  5
2B6
330
6C
100
AcDbEntity
  8
Sichtbare Kanten(DIN)
100
AcDbLine
 10
98.13340334747737
 20
-957.9160788423669
 30
0.0
 11
147.3390976682713
 21
-957.9160788423669
 31
0.0
  0
LINE
  5
2B7
330
6C
100
AcDbEntity
  8
Sichtbare Kanten(DIN)
100
AcDbLine
 10
60.33909766827363
 20
-979.9160788423673
 30
0.0
 11
60.54479198908283
 21
-979.9160788423673
 31
0.0
  0
LINE
  5
2B8
330
6C
100
AcDbEntity
  8
Sichtbare Kanten(DIN)
100
AcDbLine
 10
98.13340334746397
 20
-979.9160788423673
 30
0.0
 11
147.3390976682713
 21
-979.9160788423673
 31
0.0
  0
LINE
  5
2B9
330
6C
100
AcDbEntity
  8
Sichtbare Kanten(DIN)
100
AcDbLine
 10
147.3390976682721
 20
-980.4160788423669
 30
0.0
 11
147.3390976682721
 21
-957.4160788423666
 31
0.0
  0
ARC
  5
2BA
330
6C
100
AcDbEntity
  8
Sichtbare Kanten(DIN)
100
AcDbCircle
 10
148.8390976682721
 20
-980.4160788423669
 30
0.0
 40
1.500000000000017
100
AcDbArc
 50
180.0
 51
270.0
  0
ARC
  5
2BB
330
6C
100
AcDbEntity
  8
Sichtbare Kanten(DIN)
100
AcDbCircle
 10
148.8390976682721
 20
-957.4160788423666
 30
0.0
 40
1.500000000000017
100
AcDbArc
 50
90.0
 51
180.0
  0
LINE
  5
2BC
330
6C
100
AcDbEntity
  8
Sichtbare Kanten(DIN)
100
AcDbLine
 10
262.3390976682717
 20
-957.9160788423667
 30
0.0
 11
262.3390976682717
 21
-979.9160788423669
 31
0.0
  0
ARC
  5
2BD
330
6C
100
AcDbEntity
  8
Sichtbare Kanten(DIN)
100
AcDbCircle
 10
260.3390976682718
 20
-957.9160788423665
 30
0.0
 40
2.000000000000023
100
AcDbArc
 50
0.0
 51
89.99999999999898
  0
ARC
  5
2BE
330
6C
100
AcDbEntity
  8
Sichtbare Kanten(DIN)
100
AcDbCircle
 10
260.3390976682718
 20
-979.9160788423669
 30
0.0
 40
2.000000000000023
100
AcDbArc
 50
269.999999999999
 51
0.0
  0
LINE
  5
2BF
330
6C
100
AcDbEntity
  8
Sichtbare Kanten(DIN)
100
AcDbLine
 10
148.8390976682721
 20
-955.9160788423664
 30
0.0
 11
260.3390976682718
 21
-955.9160788423664
 31
0.0
  0
LINE
  5
2C0
330
6C
100
AcDbEntity
  8
Sichtbare Kanten(DIN)
100
AcDbLine
 10
148.8390976682721
 20
-981.9160788423669
 30
0.0
 11
260.3390976682717
 21
-981.9160788423669
 31
0.0
  0
ENDSEC
  0
SECTION
  2
OBJECTS
  0
DICTIONARY
  5
C
330
0
100
AcDbDictionary
281
     1
  3
ACAD_COLOR
350
63
  3
ACAD_GROUP
350
D
  3
ACAD_LAYOUT
350
62
  3
ACAD_MATERIAL
350
10
  3
ACAD_MLEADERSTYLE
350
66
  3
ACAD_MLINESTYLE
350
5F
  3
ACAD_PLOTSETTINGS
350
61
  3
ACAD_PLOTSTYLENAME
350
E
  3
ACAD_SCALELIST
350
42
  3
ACAD_TABLESTYLE
350
64
  3
ACAD_VISUALSTYLE
350
29
  3
ACDB_RECOMPOSE_DATA
350
2D0
  3
AcDbVariableDictionary
350
2C1
  3
DWGPROPS
350
2D1
  0
DICTIONARY
  5
63
102
{ACAD_REACTORS
330
C
102
}
330
C
100
AcDbDictionary
281
     1
  0
DICTIONARY
  5
D
102
{ACAD_REACTORS
330
C
102
}
330
C
100
AcDbDictionary
281
     1
  0
DICTIONARY
  5
62
102
{ACAD_REACTORS
330
C
102
}
330
C
100
AcDbDictionary
281
     1
  3
Layout1
350
6B
  3
Layout2
350
73
  3
Model
350
6F
  0
DICTIONARY
  5
10
102
{ACAD_REACTORS
330
C
102
}
330
C
100
AcDbDictionary
281
     1
  3
ByBlock
350
19
  3
ByLayer
350
11
  3
Global
350
21
  0
DICTIONARY
  5
66
102
{ACAD_REACTORS
330
C
102
}
330
C
100
AcDbDictionary
281
     1
  3
Standard
350
67
  0
DICTIONARY
  5
5F
102
{ACAD_REACTORS
330
C
102
}
330
C
100
AcDbDictionary
281
     1
  3
Standard
350
60
  0
DICTIONARY
  5
61
102
{ACAD_REACTORS
330
C
102
}
330
C
100
AcDbDictionary
281
     1
  0
ACDBDICTIONARYWDFLT
  5
E
102
{ACAD_REACTORS
330
C
102
}
330
C
100
AcDbDictionary
281
     1
  3
Normal
350
F
100
AcDbDictionaryWithDefault
340
F
  0
DICTIONARY
  5
42
102
{ACAD_REACTORS
330
C
102
}
330
C
100
AcDbDictionary
281
     1
  3
A0
350
43
  3
A1
350
44
  3
A2
350
45
  3
A3
350
46
  3
A4
350
47
  3
A5
350
48
  3
A6
350
49
  3
A7
350
4A
  3
A8
350
4B
  3
A9
350
4C
  3
B0
350
4D
  3
B1
350
4E
  3
B2
350
4F
  3
B3
350
50
  3
B4
350
51
  3
B5
350
52
  3
B6
350
53
  0
DICTIONARY
  5
64
102
{ACAD_REACTORS
330
C
102
}
330
C
100
AcDbDictionary
281
     1
  3
Standard
350
65
  0
DICTIONARY
  5
29
102
{ACAD_REACTORS
330
C
102
}
330
C
100
AcDbDictionary
281
     1
  3
2dWireframe
350
2F
  3
Basic
350
2E
  3
Brighten
350
35
  3
ColorChange
350
39
  3
Conceptual
350
32
  3
Dim
350
34
  3
EdgeColorOff
350
41
  3
Facepattern
350
38
  3
Flat
350
2A
  3
FlatWithEdges
350
2B
  3
Gouraud
350
2C
  3
GouraudWithEdges
350
2D
  3
Hidden
350
31
  3
JitterOff
350
3F
  3
Linepattern
350
37
  3
OverhangOff
350
40
  3
Realistic
350
33
  3
Shaded
350
3E
  3
Shaded with edges
350
3D
  3
Shades of Gray
350
3A
  3
Sketchy
350
3B
  3
Thicken
350
36
  3
Wireframe
350
30
  3
X-Ray
350
3C
  0
XRECORD
  5
2D0
102
{ACAD_REACTORS
330
C
102
}
330
C
100
AcDbXrecord
280
     1
 90
        1
330
65
  0
DICTIONARY
  5
2C1
102
{ACAD_REACTORS
330
C
102
}
330
C
100
AcDbDictionary
281
     1
  3
CANNOSCALE
350
2C5
  3
CMLEADERSTYLE
350
2C3
  3
CTABLESTYLE
350
2C2
  3
DIMASSOC
350
2CC
  3
HIDETEXT
350
2CB
  3
INDEXCTL
350
2CA
  3
LAYEREVAL
350
2C7
  3
LAYERNOTIFY
350
2C8
  3
LIGHTINGUNITS
350
2C6
  3
MSLTSCALE
350
2C4
  3
SORTENTS
350
2C9
  3
XCLIPFRAME
350
2CD
  0
XRECORD
  5
2D1
102
{ACAD_REACTORS
330
C
102
}
330
C
100
AcDbXrecord
280
     1
  1
DWGPROPS COOKIE
  2

  3

  4
S.Rübsamen
  6

  7

  8

  9

300
Manager=
301
Firma=
302
Kategorie=
303
Bauteilnummer=
304
Bezeichnung=
305
Projekt=
306
Konstrukteur=S.Rübsamen
307
Ingenieur=
308
Bevollmächtigter=
309
Kostenstelle=
 40
0.0000167708333333
 41
2455798.472364005
 42
2455798.472364005
  1

 90
       34
300
Zulieferer=
300
Benutzerstatus=
300
Konstruktionsstatus=InBearbeitung
300
Kontrolliert von=
300
Konstruktion genehmigt von=
300
Fertigung genehmigt von=
300
Gewicht=
300
Oberfläche=
300
Oberfläche_2=roh
300
Werkstoff=Edelstahl V2A
300
Zeichnungs_Nr.=
300
Benennung2=
300
Benennung3=
300
Werkstoff_DIN=1.4301 / ASTM 304
300
Oberfläche_3=
300
ZeichnungsNr Index=
300
Änderung_a=
300
Änderung_b=
300
Datum_a=
300
Datum_b=
300
Status_a=
300
Status_b=
300
Name_a=
300
Name_b=
  0
LAYOUT
  5
6B
102
{ACAD_XDICTIONARY
360
307
102
}
102
{ACAD_REACTORS
330
62
102
}
330
62
100
AcDbPlotSettings
  1

  2

  4

  6

 40
0.0
 41
0.0
 42
0.0
 43
0.0
 44
0.0
 45
0.0
 46
0.0
 47
0.0
 48
0.0
 49
0.0
140
0.0
141
0.0
142
1.0
143
1.0
 70
   688
 72
     0
 73
     0
 74
     5
  7

 75
    16
147
1.0
148
0.0
149
0.0
100
AcDbLayout
  1
Layout1
 70
     1
 71
     1
 10
0.0
 20
0.0
 11
12.0
 21
9.0
 12
0.0
 22
0.0
 32
0.0
 14
0.0
 24
0.0
 34
0.0
 15
0.0
 25
0.0
 35
0.0
146
0.0
 13
0.0
 23
0.0
 33
0.0
 16
1.0
 26
0.0
 36
0.0
 17
0.0
 27
1.0
 37
0.0
 76
     0
330
68
  0
LAYOUT
  5
73
102
{ACAD_XDICTIONARY
360
30B
102
}
102
{ACAD_REACTORS
330
62
102
}
330
62
100
AcDbPlotSettings
  1

  2

  4

  6

 40
0.0
 41
0.0
 42
0.0
 43
0.0
 44
0.0
 45
0.0
 46
0.0
 47
0.0
 48
0.0
 49
0.0
140
0.0
141
0.0
142
1.0
143
1.0
 70
   688
 72
     0
 73
     0
 74
     5
  7

 75
    16
147
1.0
148
0.0
149
0.0
100
AcDbLayout
  1
Layout2
 70
     1
 71
     2
 10
0.0
 20
0.0
 11
12.0
 21
9.0
 12
0.0
 22
0.0
 32
0.0
 14
0.0
 24
0.0
 34
0.0
 15
0.0
 25
0.0
 35
0.0
146
0.0
 13
0.0
 23
0.0
 33
0.0
 16
1.0
 26
0.0
 36
0.0
 17
0.0
 27
1.0
 37
0.0
 76
     0
330
70
  0
LAYOUT
  5
6F
102
{ACAD_XDICTIONARY
360
309
102
}
102
{ACAD_REACTORS
330
62
102
}
330
62
100
AcDbPlotSettings
  1

  2

  4

  6

 40
0.0
 41
0.0
 42
0.0
 43
0.0
 44
0.0
 45
0.0
 46
0.0
 47
0.0
 48
0.0
 49
0.0
140
0.0
141
0.0
142
1.0
143
1.0
 70
  1712
 72
     0
 73
     0
 74
     0
  7

 75
     0
147
1.0
148
0.0
149
0.0
100
AcDbLayout
  1
Model
 70
     1
 71
     0
 10
0.0
 20
0.0
 11
12.0
 21
9.0
 12
0.0
 22
0.0
 32
0.0
 14
0.0
 24
0.0
 34
0.0
 15
0.0
 25
0.0
 35
0.0
146
0.0
 13
0.0
 23
0.0
 33
0.0
 16
1.0
 26
0.0
 36
0.0
 17
0.0
 27
1.0
 37
0.0
 76
     0
330
6C
  0
MATERIAL
  5
19
102
{ACAD_XDICTIONARY
360
1A
102
}
102
{ACAD_REACTORS
330
10
102
}
330
10
100
AcDbMaterial
  1
ByBlock
 72
     0
 43
0.0208333333333333
 43
0.0
 43
0.0
 43
0.0
 43
0.0
 43
0.0208333333333333
 43
0.0
 43
0.0
 43
0.0
 43
0.0
 43
1.0
 43
0.0
 43
0.0
 43
0.0
 43
0.0
 43
1.0
 77
     0
 47
0.0208333333333333
 47
0.0
 47
0.0
 47
0.0
 47
0.0
 47
0.0208333333333333
 47
0.0
 47
0.0
 47
0.0
 47
0.0
 47
1.0
 47
0.0
 47
0.0
 47
0.0
 47
0.0
 47
1.0
171
     0
 49
0.0208333333333333
 49
0.0
 49
0.0
 49
0.0
 49
0.0
 49
0.0208333333333333
 49
0.0
 49
0.0
 49
0.0
 49
0.0
 49
1.0
 49
0.0
 49
0.0
 49
0.0
 49
0.0
 49
1.0
175
     0
142
0.0208333333333333
142
0.0
142
0.0
142
0.0
142
0.0
142
0.0208333333333333
142
0.0
142
0.0
142
0.0
142
0.0
142
1.0
142
0.0
142
0.0
142
0.0
142
0.0
142
1.0
179
     0
144
0.0208333333333333
144
0.0
144
0.0
144
0.0
144
0.0
144
0.0208333333333333
144
0.0
144
0.0
144
0.0
144
0.0
144
1.0
144
0.0
144
0.0
144
0.0
144
0.0
144
1.0
147
0.0208333333333333
147
0.0
147
0.0
147
0.0
147
0.0
147
0.0208333333333333
147
0.0
147
0.0
147
0.0
147
0.0
147
1.0
147
0.0
147
0.0
147
0.0
147
0.0
147
1.0
  0
MATERIAL
  5
11
102
{ACAD_XDICTIONARY
360
12
102
}
102
{ACAD_REACTORS
330
10
102
}
330
10
100
AcDbMaterial
  1
ByLayer
 72
     0
 43
0.0208333333333333
 43
0.0
 43
0.0
 43
0.0
 43
0.0
 43
0.0208333333333333
 43
0.0
 43
0.0
 43
0.0
 43
0.0
 43
1.0
 43
0.0
 43
0.0
 43
0.0
 43
0.0
 43
1.0
 77
     0
 47
0.0208333333333333
 47
0.0
 47
0.0
 47
0.0
 47
0.0
 47
0.0208333333333333
 47
0.0
 47
0.0
 47
0.0
 47
0.0
 47
1.0
 47
0.0
 47
0.0
 47
0.0
 47
0.0
 47
1.0
171
     0
 49
0.0208333333333333
 49
0.0
 49
0.0
 49
0.0
 49
0.0
 49
0.0208333333333333
 49
0.0
 49
0.0
 49
0.0
 49
0.0
 49
1.0
 49
0.0
 49
0.0
 49
0.0
 49
0.0
 49
1.0
175
     0
142
0.0208333333333333
142
0.0
142
0.0
142
0.0
142
0.0
142
0.0208333333333333
142
0.0
142
0.0
142
0.0
142
0.0
142
1.0
142
0.0
142
0.0
142
0.0
142
0.0
142
1.0
179
     0
144
0.0208333333333333
144
0.0
144
0.0
144
0.0
144
0.0
144
0.0208333333333333
144
0.0
144
0.0
144
0.0
144
0.0
144
1.0
144
0.0
144
0.0
144
0.0
144
0.0
144
1.0
147
0.0208333333333333
147
0.0
147
0.0
147
0.0
147
0.0
147
0.0208333333333333
147
0.0
147
0.0
147
0.0
147
0.0
147
1.0
147
0.0
147
0.0
147
0.0
147
0.0
147
1.0
  0
MATERIAL
  5
21
102
{ACAD_XDICTIONARY
360
22
102
}
102
{ACAD_REACTORS
330
10
102
}
330
10
100
AcDbMaterial
  1
Global
 72
     0
 43
0.0208333333333333
 43
0.0
 43
0.0
 43
0.0
 43
0.0
 43
0.0208333333333333
 43
0.0
 43
0.0
 43
0.0
 43
0.0
 43
1.0
 43
0.0
 43
0.0
 43
0.0
 43
0.0
 43
1.0
 77
     0
 47
0.0208333333333333
 47
0.0
 47
0.0
 47
0.0
 47
0.0
 47
0.0208333333333333
 47
0.0
 47
0.0
 47
0.0
 47
0.0
 47
1.0
 47
0.0
 47
0.0
 47
0.0
 47
0.0
 47
1.0
171
     0
 49
0.0208333333333333
 49
0.0
 49
0.0
 49
0.0
 49
0.0
 49
0.0208333333333333
 49
0.0
 49
0.0
 49
0.0
 49
0.0
 49
1.0
 49
0.0
 49
0.0
 49
0.0
 49
0.0
 49
1.0
175
     0
142
0.0208333333333333
142
0.0
142
0.0
142
0.0
142
0.0
142
0.0208333333333333
142
0.0
142
0.0
142
0.0
142
0.0
142
1.0
142
0.0
142
0.0
142
0.0
142
0.0
142
1.0
179
     0
144
0.0208333333333333
144
0.0
144
0.0
144
0.0
144
0.0
144
0.0208333333333333
144
0.0
144
0.0
144
0.0
144
0.0
144
1.0
144
0.0
144
0.0
144
0.0
144
0.0
144
1.0
147
0.0208333333333333
147
0.0
147
0.0
147
0.0
147
0.0
147
0.0208333333333333
147
0.0
147
0.0
147
0.0
147
0.0
147
1.0
147
0.0
147
0.0
147
0.0
147
0.0
147
1.0
  0
MLEADERSTYLE
  5
67
102
{ACAD_REACTORS
330
66
102
}
330
66
100
AcDbMLeaderStyle
170
     2
171
     1
172
     0
 90
        2
 40
0.0
 41
0.0
173
     1
 91
-1056964608
340
5B
 92
       -2
290
     1
 42
0.09
291
     1
 43
0.36
  3
Standard
 44
0.18
300

342
55
174
     1
178
     6
175
     1
176
     0
 93
-1056964608
 45
0.18
292
     0
297
     0
 46
0.18
 94
-1056964608
 47
1.0
 49
1.0
140
1.0
293
     1
141
0.0
294
     1
177
     0
142
1.0
295
     0
296
     0
143
0.125
1001
ACAD_MLEADERVER
1070
     2
  0
MLINESTYLE
  5
60
102
{ACAD_REACTORS
330
5F
102
}
330
5F
100
AcDbMlineStyle
  2
STANDARD
 70
     0
  3

 62
   256
 51
90.0
 52
90.0
 71
     2
 49
0.5
 62
   256
  6
BYLAYER
 49
-0.5
 62
   256
  6
BYLAYER
  0
ACDBPLACEHOLDER
  5
F
102
{ACAD_REACTORS
330
E
102
}
330
E
  0
SCALE
  5
43
102
{ACAD_REACTORS
330
42
102
}
330
42
100
AcDbScale
 70
     0
300
1:1
140
1.0
141
1.0
290
     1
  0
SCALE
  5
44
102
{ACAD_REACTORS
330
42
102
}
330
42
100
AcDbScale
 70
     0
300
1/128" = 1'-0"
140
0.0078125
141
12.0
290
     0
  0
SCALE
  5
45
102
{ACAD_REACTORS
330
42
102
}
330
42
100
AcDbScale
 70
     0
300
1/64" = 1'-0"
140
0.015625
141
12.0
290
     0
  0
SCALE
  5
46
102
{ACAD_REACTORS
330
42
102
}
330
42
100
AcDbScale
 70
     0
300
1/32" = 1'-0"
140
0.03125
141
12.0
290
     0
  0
SCALE
  5
47
102
{ACAD_REACTORS
330
42
102
}
330
42
100
AcDbScale
 70
     0
300
1/16" = 1'-0"
140
0.0625
141
12.0
290
     0
  0
SCALE
  5
48
102
{ACAD_REACTORS
330
42
102
}
330
42
100
AcDbScale
 70
     0
300
3/32" = 1'-0"
140
0.09375
141
12.0
290
     0
  0
SCALE
  5
49
102
{ACAD_REACTORS
330
42
102
}
330
42
100
AcDbScale
 70
     0
300
1/8" = 1'-0"
140
0.125
141
12.0
290
     0
  0
SCALE
  5
4A
102
{ACAD_REACTORS
330
42
102
}
330
42
100
AcDbScale
 70
     0
300
3/16" = 1'-0"
140
0.1875
141
12.0
290
     0
  0
SCALE
  5
4B
102
{ACAD_REACTORS
330
42
102
}
330
42
100
AcDbScale
 70
     0
300
1/4" = 1'-0"
140
0.25
141
12.0
290
     0
  0
SCALE
  5
4C
102
{ACAD_REACTORS
330
42
102
}
330
42
100
AcDbScale
 70
     0
300
3/8" = 1'-0"
140
0.375
141
12.0
290
     0
  0
SCALE
  5
4D
102
{ACAD_REACTORS
330
42
102
}
330
42
100
AcDbScale
 70
     0
300
1/2" = 1'-0"
140
0.5
141
12.0
290
     0
  0
SCALE
  5
4E
102
{ACAD_REACTORS
330
42
102
}
330
42
100
AcDbScale
 70
     0
300
3/4" = 1'-0"
140
0.75
141
12.0
290
     0
  0
SCALE
  5
4F
102
{ACAD_REACTORS
330
42
102
}
330
42
100
AcDbScale
 70
     0
300
1" = 1'-0"
140
1.0
141
12.0
290
     0
  0
SCALE
  5
50
102
{ACAD_REACTORS
330
42
102
}
330
42
100
AcDbScale
 70
     0
300
1-1/2" = 1'-0"
140
1.5
141
12.0
290
     0
  0
SCALE
  5
51
102
{ACAD_REACTORS
330
42
102
}
330
42
100
AcDbScale
 70
     0
300
3" = 1'-0"
140
3.0
141
12.0
290
     0
  0
SCALE
  5
52
102
{ACAD_REACTORS
330
42
102
}
330
42
100
AcDbScale
 70
     0
300
6" = 1'-0"
140
6.0
141
12.0
290
     0
  0
SCALE
  5
53
102
{ACAD_REACTORS
330
42
102
}
330
42
100
AcDbScale
 70
     0
300
1'-0" = 1'-0"
140
12.0
141
12.0
290
     0
  0
TABLESTYLE
  5
65
102
{ACAD_XDICTIONARY
360
2CE
102
}
102
{ACAD_REACTORS
330
64
102
}
330
64
100
AcDbTableStyle
  3
Standard
 70
     0
 71
     0
 40
0.06
 41
0.06
280
     0
281
     0
  7
Standard
140
0.18
170
     2
 62
     0
 63
     7
283
     0
274
    -2
284
     1
 64
     0
275
    -2
285
     1
 65
     0
276
    -2
286
     1
 66
     0
277
    -2
287
     1
 67
     0
278
    -2
288
     1
 68
     0
279
    -2
289
     1
 69
     0
  7
Standard
140
0.25
170
     5
 62
     0
 63
     7
283
     0
274
    -2
284
     1
 64
     0
275
    -2
285
     1
 65
     0
276
    -2
286
     1
 66
     0
277
    -2
287
     1
 67
     0
278
    -2
288
     1
 68
     0
279
    -2
289
     1
 69
     0
  7
Standard
140
0.18
170
     5
 62
     0
 63
     7
283
     0
274
    -2
284
     1
 64
     0
275
    -2
285
     1
 65
     0
276
    -2
286
     1
 66
     0
277
    -2
287
     1
 67
     0
278
    -2
288
     1
 68
     0
279
    -2
289
     1
 69
     0
  0
VISUALSTYLE
  5
2F
102
{ACAD_XDICTIONARY
360
2DF
102
}
102
{ACAD_REACTORS
330
29
102
}
330
29
100
AcDbVisualStyle
  2
2dWireframe
 70
     4
 71
     0
 72
     2
 73
     0
 90
        0
 40
-0.6
 41
-30.0
 62
     5
 63
     7
 74
     1
 91
        4
 64
     7
 65
   257
 75
     1
175
     1
 42
1.0
 92
        0
 66
   257
 43
1.0
 76
     1
 77
     6
 78
     2
 67
     7
 79
     5
170
     0
171
     0
290
     0
174
     0
 93
        1
 44
0.0
173
     0
291
     0
 45
0.0
1001
ACAD
1000
AcDbSavedByObjectVersion
1070
     0
  0
VISUALSTYLE
  5
2E
102
{ACAD_XDICTIONARY
360
2DD
102
}
102
{ACAD_REACTORS
330
29
102
}
330
29
100
AcDbVisualStyle
  2
Basic
 70
     7
 71
     1
 72
     0
 73
     1
 90
        0
 40
-0.6
 41
-30.0
 62
     5
 63
     7
 74
     0
 91
        4
 64
     7
 65
   257
 75
     1
175
     1
 42
1.0
 92
        8
 66
     7
 43
1.0
 76
     1
 77
     6
 78
     2
 67
     7
 79
     5
170
     0
171
     0
290
     0
174
     0
 93
        1
 44
0.0
173
     0
291
     1
 45
0.0
1001
ACAD
1000
AcDbSavedByObjectVersion
1070
     0
  0
VISUALSTYLE
  5
35
102
{ACAD_XDICTIONARY
360
2EB
102
}
102
{ACAD_REACTORS
330
29
102
}
330
29
100
AcDbVisualStyle
  2
Brighten
 70
    12
 71
     2
 72
     2
 73
     0
 90
        0
 40
-0.6
 41
-30.0
 62
     5
 63
     7
 74
     1
 91
        4
 64
     7
 65
   257
 75
     1
175
     1
 42
1.0
 92
        8
 66
     7
 43
1.0
 76
     1
 77
     6
 78
     2
 67
     7
 79
     5
170
     0
171
     0
290
     0
174
     0
 93
        1
 44
50.0
173
     0
291
     1
 45
0.0
1001
ACAD
1000
AcDbSavedByObjectVersion
1070
     0
  0
VISUALSTYLE
  5
39
102
{ACAD_XDICTIONARY
360
2F3
102
}
102
{ACAD_REACTORS
330
29
102
}
330
29
100
AcDbVisualStyle
  2
ColorChange
 70
    16
 71
     2
 72
     2
 73
     3
 90
        0
 40
-0.6
 41
-30.0
 62
     5
 63
     8
 74
     1
 91
        4
 64
     7
 65
   257
 75
     1
175
     1
 42
1.0
 92
        8
 66
     8
 43
1.0
 76
     1
 77
     6
 78
     2
 67
     7
 79
     5
170
     0
171
     0
290
     0
174
     0
 93
        1
 44
0.0
173
     0
291
     1
 45
0.0
1001
ACAD
1000
AcDbSavedByObjectVersion
1070
     0
  0
VISUALSTYLE
  5
32
102
{ACAD_XDICTIONARY
360
2E5
102
}
102
{ACAD_REACTORS
330
29
102
}
330
29
100
AcDbVisualStyle
  2
Conceptual
 70
     9
 71
     3
 72
     2
 73
     0
 90
        0
 40
-0.6
 41
-30.0
 62
     5
 63
     7
 74
     2
 91
        2
 64
     7
 65
   257
 75
     1
175
     1
 42
179.0
 92
        8
 66
     7
 43
1.0
 76
     1
 77
     6
 78
     2
 67
     7
 79
     3
170
     0
171
     0
290
     0
174
     0
 93
        1
 44
0.0
173
     0
291
     0
 45
0.0
1001
ACAD
1000
AcDbSavedByObjectVersion
1070
     0
  0
VISUALSTYLE
  5
34
102
{ACAD_XDICTIONARY
360
2E9
102
}
102
{ACAD_REACTORS
330
29
102
}
330
29
100
AcDbVisualStyle
  2
Dim
 70
    11
 71
     2
 72
     2
 73
     0
 90
        0
 40
-0.6
 41
-30.0
 62
     5
 63
     7
 74
     1
 91
        4
 64
     7
 65
   257
 75
     1
175
     1
 42
1.0
 92
        8
 66
     7
 43
1.0
 76
     1
 77
     6
 78
     2
 67
     7
 79
     5
170
     0
171
     0
290
     0
174
     0
 93
        1
 44
-50.0
173
     0
291
     1
 45
0.0
1001
ACAD
1000
AcDbSavedByObjectVersion
1070
     0
  0
VISUALSTYLE
  5
41
102
{ACAD_XDICTIONARY
360
303
102
}
102
{ACAD_REACTORS
330
29
102
}
330
29
100
AcDbVisualStyle
  2
EdgeColorOff
 70
    22
 71
     2
 72
     2
 73
     0
 90
        0
 40
-0.6
 41
-30.0
 62
     5
 63
     7
 74
     1
 91
        4
 64
     7
 65
   257
 75
     1
175
     1
 42
1.0
 92
        8
 66
     7
 43
1.0
 76
     1
 77
     6
 78
     2
 67
     7
 79
     5
170
     0
171
     0
290
     0
174
     0
 93
        1
 44
0.0
173
     0
291
     1
 45
0.0
1001
ACAD
1000
AcDbSavedByObjectVersion
1070
     0
  0
VISUALSTYLE
  5
38
102
{ACAD_XDICTIONARY
360
2F1
102
}
102
{ACAD_REACTORS
330
29
102
}
330
29
100
AcDbVisualStyle
  2
Facepattern
 70
    15
 71
     2
 72
     2
 73
     0
 90
        0
 40
-0.6
 41
-30.0
 62
     5
 63
     7
 74
     1
 91
        4
 64
     7
 65
   257
 75
     1
175
     1
 42
1.0
 92
        8
 66
     7
 43
1.0
 76
     1
 77
     6
 78
     2
 67
     7
 79
     5
170
     0
171
     0
290
     0
174
     0
 93
        1
 44
0.0
173
     0
291
     1
 45
0.0
1001
ACAD
1000
AcDbSavedByObjectVersion
1070
     0
  0
VISUALSTYLE
  5
2A
102
{ACAD_XDICTIONARY
360
2D5
102
}
102
{ACAD_REACTORS
330
29
102
}
330
29
100
AcDbVisualStyle
  2
Flat
 70
     0
 71
     2
 72
     1
 73
     1
 90
        2
 40
-0.6
 41
30.0
 62
     5
 63
     7
 74
     0
 91
        0
 64
     7
 65
   257
 75
     1
175
     1
 42
1.0
 92
        8
 66
     7
 43
1.0
 76
     1
 77
     6
 78
     2
 67
     7
 79
     5
170
     0
171
     0
290
     0
174
     0
 93
       13
 44
0.0
173
     0
291
     1
 45
0.0
1001
ACAD
1000
AcDbSavedByObjectVersion
1070
     0
  0
VISUALSTYLE
  5
2B
102
{ACAD_XDICTIONARY
360
2D7
102
}
102
{ACAD_REACTORS
330
29
102
}
330
29
100
AcDbVisualStyle
  2
FlatWithEdges
 70
     1
 71
     2
 72
     1
 73
     1
 90
        2
 40
-0.6
 41
30.0
 62
     5
 63
     7
 74
     1
 91
        0
 64
     7
 65
   257
 75
     1
175
     1
 42
1.0
 92
        0
 66
   257
 43
1.0
 76
     1
 77
     6
 78
     2
 67
     7
 79
     5
170
     0
171
     0
290
     0
174
     0
 93
       13
 44
0.0
173
     0
291
     1
 45
0.0
1001
ACAD
1000
AcDbSavedByObjectVersion
1070
     0
  0
VISUALSTYLE
  5
2C
102
{ACAD_XDICTIONARY
360
2D9
102
}
102
{ACAD_REACTORS
330
29
102
}
330
29
100
AcDbVisualStyle
  2
Gouraud
 70
     2
 71
     2
 72
     2
 73
     1
 90
        2
 40
-0.6
 41
30.0
 62
     5
 63
     7
 74
     0
 91
        0
 64
     7
 65
   257
 75
     1
175
     1
 42
1.0
 92
        0
 66
     7
 43
1.0
 76
     1
 77
     6
 78
     2
 67
     7
 79
     5
170
     0
171
     0
290
     0
174
     0
 93
       13
 44
0.0
173
     0
291
     1
 45
0.0
1001
ACAD
1000
AcDbSavedByObjectVersion
1070
     0
  0
VISUALSTYLE
  5
2D
102
{ACAD_XDICTIONARY
360
2DB
102
}
102
{ACAD_REACTORS
330
29
102
}
330
29
100
AcDbVisualStyle
  2
GouraudWithEdges
 70
     3
 71
     2
 72
     2
 73
     1
 90
        2
 40
-0.6
 41
30.0
 62
     5
 63
     7
 74
     1
 91
        0
 64
     7
 65
   257
 75
     1
175
     1
 42
1.0
 92
        0
 66
   257
 43
1.0
 76
     1
 77
     6
 78
     2
 67
     7
 79
     5
170
     0
171
     0
290
     0
174
     0
 93
       13
 44
0.0
173
     0
291
     1
 45
0.0
1001
ACAD
1000
AcDbSavedByObjectVersion
1070
     0
  0
VISUALSTYLE
  5
31
102
{ACAD_XDICTIONARY
360
2E3
102
}
102
{ACAD_REACTORS
330
29
102
}
330
29
100
AcDbVisualStyle
  2
Hidden
 70
     6
 71
     1
 72
     2
 73
     2
 90
        0
 40
-0.6
 41
-30.0
 62
     5
 63
     7
 74
     2
 91
        2
 64
     7
 65
   257
 75
     2
175
     1
 42
40.0
 92
        0
 66
   257
 43
1.0
 76
     1
 77
     6
 78
     2
 67
     7
 79
     3
170
     0
171
     0
290
     0
174
     0
 93
        1
 44
0.0
173
     0
291
     0
 45
0.0
1001
ACAD
1000
AcDbSavedByObjectVersion
1070
     0
  0
VISUALSTYLE
  5
3F
102
{ACAD_XDICTIONARY
360
2FF
102
}
102
{ACAD_REACTORS
330
29
102
}
330
29
100
AcDbVisualStyle
  2
JitterOff
 70
    20
 71
     2
 72
     2
 73
     0
 90
        0
 40
-0.6
 41
-30.0
 62
     5
 63
     7
 74
     1
 91
        4
 64
     7
 65
   257
 75
     1
175
     1
 42
1.0
 92
       10
 66
     7
 43
1.0
 76
     1
 77
     6
 78
     2
 67
     7
 79
     5
170
     0
171
     0
290
     0
174
     0
 93
        1
 44
0.0
173
     0
291
     1
 45
0.0
1001
ACAD
1000
AcDbSavedByObjectVersion
1070
     0
  0
VISUALSTYLE
  5
37
102
{ACAD_XDICTIONARY
360
2EF
102
}
102
{ACAD_REACTORS
330
29
102
}
330
29
100
AcDbVisualStyle
  2
Linepattern
 70
    14
 71
     2
 72
     2
 73
     0
 90
        0
 40
-0.6
 41
-30.0
 62
     5
 63
     7
 74
     1
 91
        4
 64
     7
 65
   257
 75
     7
175
     7
 42
1.0
 92
        8
 66
     7
 43
1.0
 76
     1
 77
     6
 78
     2
 67
     7
 79
     5
170
     0
171
     0
290
     0
174
     0
 93
        1
 44
0.0
173
     0
291
     1
 45
0.0
1001
ACAD
1000
AcDbSavedByObjectVersion
1070
     0
  0
VISUALSTYLE
  5
40
102
{ACAD_XDICTIONARY
360
301
102
}
102
{ACAD_REACTORS
330
29
102
}
330
29
100
AcDbVisualStyle
  2
OverhangOff
 70
    21
 71
     2
 72
     2
 73
     0
 90
        0
 40
-0.6
 41
-30.0
 62
     5
 63
     7
 74
     1
 91
        4
 64
     7
 65
   257
 75
     1
175
     1
 42
1.0
 92
        9
 66
     7
 43
1.0
 76
     1
 77
     6
 78
     2
 67
     7
 79
     5
170
     0
171
     0
290
     0
174
     0
 93
        1
 44
0.0
173
     0
291
     1
 45
0.0
1001
ACAD
1000
AcDbSavedByObjectVersion
1070
     0
  0
VISUALSTYLE
  5
33
102
{ACAD_XDICTIONARY
360
2E7
102
}
102
{ACAD_REACTORS
330
29
102
}
330
29
100
AcDbVisualStyle
  2
Realistic
 70
     8
 71
     2
 72
     3
 73
     0
 90
        2
 40
-0.6
 41
30.0
 62
     5
 63
     7
 74
     0
 91
        0
 64
     7
 65
   257
 75
     1
175
     1
 42
1.0
 92
        8
 66
   257
 43
1.0
 76
     1
 77
     6
 78
     2
 67
     7
 79
     3
170
     0
171
     0
290
     0
174
     0
 93
       13
 44
0.0
173
     0
291
     0
 45
0.0
1001
ACAD
1000
AcDbSavedByObjectVersion
1070
     0
  0
VISUALSTYLE
  5
3E
102
{ACAD_XDICTIONARY
360
2FD
102
}
102
{ACAD_REACTORS
330
29
102
}
330
29
100
AcDbVisualStyle
  2
Shaded
 70
    27
 71
     2
 72
     2
 73
     1
 90
        2
 40
-0.6
 41
30.0
 62
     5
 63
     7
 74
     0
 91
        4
 64
     7
 65
   257
 75
     1
175
     1
 42
1.0
 92
        8
 66
   257
 43
1.0
 76
     1
 77
     6
 78
     2
 67
     8
 79
     3
170
     0
171
     0
290
     0
174
     0
 93
        5
 44
0.0
173
     0
291
     0
 45
0.0
1001
ACAD
1000
AcDbSavedByObjectVersion
1070
     0
  0
VISUALSTYLE
  5
3D
102
{ACAD_XDICTIONARY
360
2FB
102
}
102
{ACAD_REACTORS
330
29
102
}
330
29
100
AcDbVisualStyle
  2
Shaded with edges
 70
    26
 71
     2
 72
     2
 73
     1
 90
        2
 40
-0.6
 41
30.0
 62
     5
 63
     7
 74
     1
 91
       10
 64
     7
 65
   257
 75
     2
175
     1
 42
1.0
 92
        8
 66
   257
 43
1.0
 76
     1
 77
     6
 78
     2
 67
     7
 79
     3
170
     0
171
     0
290
     0
174
     0
 93
        5
 44
0.0
173
     0
291
     0
 45
0.0
1001
ACAD
1000
AcDbSavedByObjectVersion
1070
     0
  0
VISUALSTYLE
  5
3A
102
{ACAD_XDICTIONARY
360
2F5
102
}
102
{ACAD_REACTORS
330
29
102
}
330
29
100
AcDbVisualStyle
  2
Shades of Gray
 70
    23
 71
     2
 72
     2
 73
     3
 90
        0
 40
-0.6
 41
-30.0
 62
     5
 63
     7
 74
     2
 91
        2
 64
     7
 65
     7
 75
     1
175
     1
 42
40.0
 92
        8
 66
     7
 43
1.0
 76
     1
 77
     6
 78
     2
 67
     7
 79
     3
170
     0
171
     0
290
     0
174
     0
 93
        1
 44
0.0
173
     0
291
     0
 45
0.0
1001
ACAD
1000
AcDbSavedByObjectVersion
1070
     0
  0
VISUALSTYLE
  5
3B
102
{ACAD_XDICTIONARY
360
2F7
102
}
102
{ACAD_REACTORS
330
29
102
}
330
29
100
AcDbVisualStyle
  2
Sketchy
 70
    24
 71
     1
 72
     2
 73
     2
 90
        0
 40
-0.6
 41
-30.0
 62
     5
 63
     7
 74
     2
 91
        2
 64
     7
 65
     7
 75
     1
175
     1
 42
40.0
 92
       11
 66
     7
 43
1.0
 76
     1
 77
     6
 78
     2
 67
     7
 79
     6
170
     0
171
     0
290
     0
174
     0
 93
        1
 44
0.0
173
     0
291
     0
 45
0.0
1001
ACAD
1000
AcDbSavedByObjectVersion
1070
     0
  0
VISUALSTYLE
  5
36
102
{ACAD_XDICTIONARY
360
2ED
102
}
102
{ACAD_REACTORS
330
29
102
}
330
29
100
AcDbVisualStyle
  2
Thicken
 70
    13
 71
     2
 72
     2
 73
     0
 90
        0
 40
-0.6
 41
-30.0
 62
     5
 63
     7
 74
     1
 91
        4
 64
     7
 65
   257
 75
     1
175
     1
 42
1.0
 92
       12
 66
     7
 43
1.0
 76
     1
 77
     6
 78
     2
 67
     7
 79
     5
170
     0
171
     0
290
     0
174
     0
 93
        1
 44
0.0
173
     0
291
     1
 45
0.0
1001
ACAD
1000
AcDbSavedByObjectVersion
1070
     0
  0
VISUALSTYLE
  5
30
102
{ACAD_XDICTIONARY
360
2E1
102
}
102
{ACAD_REACTORS
330
29
102
}
330
29
100
AcDbVisualStyle
  2
Wireframe
 70
     5
 71
     0
 72
     2
 73
     0
 90
        0
 40
-0.6
 41
-30.0
 62
     5
 63
     7
 74
     1
 91
        4
 64
     7
 65
   257
 75
     1
175
     1
 42
1.0
 92
        0
 66
   257
 43
1.0
 76
     1
 77
     6
 78
     2
 67
     7
 79
     3
170
     0
171
     0
290
     0
174
     0
 93
        1
 44
0.0
173
     0
291
     0
 45
0.0
1001
ACAD
1000
AcDbSavedByObjectVersion
1070
     0
  0
VISUALSTYLE
  5
3C
102
{ACAD_XDICTIONARY
360
2F9
102
}
102
{ACAD_REACTORS
330
29
102
}
330
29
100
AcDbVisualStyle
  2
X-Ray
 70
    25
 71
     2
 72
     2
 73
     1
 90
        1
 40
0.5
 41
-30.0
 62
     5
 63
     7
 74
     1
 91
        0
 64
     7
 65
   257
 75
     1
175
     1
 42
1.0
 92
        8
 66
     7
 43
1.0
 76
     1
 77
     6
 78
     2
 67
     7
 79
     3
170
     0
171
     0
290
     0
174
     0
 93
       13
 44
0.0
173
     0
291
     0
 45
0.0
1001
ACAD
1000
AcDbSavedByObjectVersion
1070
     0
  0
DICTIONARYVAR
  5
2C5
102
{ACAD_REACTORS
330
2C1
102
}
330
2C1
100
DictionaryVariables
280
     0
  1
1:1
  0
DICTIONARYVAR
  5
2C3
102
{ACAD_REACTORS
330
2C1
102
}
330
2C1
100
DictionaryVariables
280
     0
  1
STANDARD
  0
DICTIONARYVAR
  5
2C2
102
{ACAD_REACTORS
330
2C1
102
}
330
2C1
100
DictionaryVariables
280
     0
  1
STANDARD
  0
DICTIONARYVAR
  5
2CC
102
{ACAD_REACTORS
330
2C1
102
}
330
2C1
100
DictionaryVariables
280
     0
  1
1
  0
DICTIONARYVAR
  5
2CB
102
{ACAD_REACTORS
330
2C1
102
}
330
2C1
100
DictionaryVariables
280
     0
  1
1
  0
DICTIONARYVAR
  5
2CA
102
{ACAD_REACTORS
330
2C1
102
}
330
2C1
100
DictionaryVariables
280
     0
  1
0
  0
DICTIONARYVAR
  5
2C7
102
{ACAD_REACTORS
330
2C1
102
}
330
2C1
100
DictionaryVariables
280
     0
  1
0
  0
DICTIONARYVAR
  5
2C8
102
{ACAD_REACTORS
330
2C1
102
}
330
2C1
100
DictionaryVariables
280
     0
  1
0
  0
DICTIONARYVAR
  5
2C6
102
{ACAD_REACTORS
330
2C1
102
}
330
2C1
100
DictionaryVariables
280
     0
  1
2
  0
DICTIONARYVAR
  5
2C4
102
{ACAD_REACTORS
330
2C1
102
}
330
2C1
100
DictionaryVariables
280
     0
  1
1
  0
DICTIONARYVAR
  5
2C9
102
{ACAD_REACTORS
330
2C1
102
}
330
2C1
100
DictionaryVariables
280
     0
  1
127
  0
DICTIONARYVAR
  5
2CD
102
{ACAD_REACTORS
330
2C1
102
}
330
2C1
100
DictionaryVariables
280
     0
  1
2
  0
DICTIONARY
  5
307
330
6B
100
AcDbDictionary
280
     1
281
     1
  3
ACAD_XREC_ROUNDTRIP
360
308
  0
DICTIONARY
  5
30B
330
73
100
AcDbDictionary
280
     1
281
     1
  3
ACAD_XREC_ROUNDTRIP
360
30C
  0
DICTIONARY
  5
309
330
6F
100
AcDbDictionary
280
     1
281
     1
  3
ACAD_XREC_ROUNDTRIP
360
30A
  0
DICTIONARY
  5
1A
330
19
100
AcDbDictionary
280
     1
281
     1
  3
ACAD_XREC_ROUNDTRIP
360
2D3
  3
BUMPTILE
360
1C
  3
DIFFUSETILE
360
1B
  3
OPACITYTILE
360
1F
  3
REFLECTIONTILE
360
1E
  3
REFRACTIONTILE
360
20
  3
SPECULARTILE
360
1D
  0
DICTIONARY
  5
12
330
11
100
AcDbDictionary
280
     1
281
     1
  3
ACAD_XREC_ROUNDTRIP
360
2D2
  3
BUMPTILE
360
14
  3
DIFFUSETILE
360
13
  3
OPACITYTILE
360
17
  3
REFLECTIONTILE
360
16
  3
REFRACTIONTILE
360
18
  3
SPECULARTILE
360
15
  0
DICTIONARY
  5
22
330
21
100
AcDbDictionary
280
     1
281
     1
  3
ACAD_XREC_ROUNDTRIP
360
2D4
  3
BUMPTILE
360
24
  3
DIFFUSETILE
360
23
  3
OPACITYTILE
360
27
  3
REFLECTIONTILE
360
26
  3
REFRACTIONTILE
360
28
  3
SPECULARTILE
360
25
  0
DICTIONARY
  5
2CE
330
65
100
AcDbDictionary
280
     1
281
     1
  3
ACAD_ROUNDTRIP_2008_TABLESTYLE_CELLSTYLEMAP
360
2CF
  3
ACAD_XREC_ROUNDTRIP
360
305
  0
DICTIONARY
  5
2DF
330
2F
100
AcDbDictionary
280
     1
281
     1
  3
ACAD_XREC_ROUNDTRIP
360
2E0
  0
DICTIONARY
  5
2DD
330
2E
100
AcDbDictionary
280
     1
281
     1
  3
ACAD_XREC_ROUNDTRIP
360
2DE
  0
DICTIONARY
  5
2EB
330
35
100
AcDbDictionary
280
     1
281
     1
  3
ACAD_XREC_ROUNDTRIP
360
2EC
  0
DICTIONARY
  5
2F3
330
39
100
AcDbDictionary
280
     1
281
     1
  3
ACAD_XREC_ROUNDTRIP
360
2F4
  0
DICTIONARY
  5
2E5
330
32
100
AcDbDictionary
280
     1
281
     1
  3
ACAD_XREC_ROUNDTRIP
360
2E6
  0
DICTIONARY
  5
2E9
330
34
100
AcDbDictionary
280
     1
281
     1
  3
ACAD_XREC_ROUNDTRIP
360
2EA
  0
DICTIONARY
  5
303
330
41
100
AcDbDictionary
280
     1
281
     1
  3
ACAD_XREC_ROUNDTRIP
360
304
  0
DICTIONARY
  5
2F1
330
38
100
AcDbDictionary
280
     1
281
     1
  3
ACAD_XREC_ROUNDTRIP
360
2F2
  0
DICTIONARY
  5
2D5
330
2A
100
AcDbDictionary
280
     1
281
     1
  3
ACAD_XREC_ROUNDTRIP
360
2D6
  0
DICTIONARY
  5
2D7
330
2B
100
AcDbDictionary
280
     1
281
     1
  3
ACAD_XREC_ROUNDTRIP
360
2D8
  0
DICTIONARY
  5
2D9
330
2C
100
AcDbDictionary
280
     1
281
     1
  3
ACAD_XREC_ROUNDTRIP
360
2DA
  0
DICTIONARY
  5
2DB
330
2D
100
AcDbDictionary
280
     1
281
     1
  3
ACAD_XREC_ROUNDTRIP
360
2DC
  0
DICTIONARY
  5
2E3
330
31
100
AcDbDictionary
280
     1
281
     1
  3
ACAD_XREC_ROUNDTRIP
360
2E4
  0
DICTIONARY
  5
2FF
330
3F
100
AcDbDictionary
280
     1
281
     1
  3
ACAD_XREC_ROUNDTRIP
360
300
  0
DICTIONARY
  5
2EF
330
37
100
AcDbDictionary
280
     1
281
     1
  3
ACAD_XREC_ROUNDTRIP
360
2F0
  0
DICTIONARY
  5
301
330
40
100
AcDbDictionary
280
     1
281
     1
  3
ACAD_XREC_ROUNDTRIP
360
302
  0
DICTIONARY
  5
2E7
330
33
100
AcDbDictionary
280
     1
281
     1
  3
ACAD_XREC_ROUNDTRIP
360
2E8
  0
DICTIONARY
  5
2FD
330
3E
100
AcDbDictionary
280
     1
281
     1
  3
ACAD_XREC_ROUNDTRIP
360
2FE
  0
DICTIONARY
  5
2FB
330
3D
100
AcDbDictionary
280
     1
281
     1
  3
ACAD_XREC_ROUNDTRIP
360
2FC
  0
DICTIONARY
  5
2F5
330
3A
100
AcDbDictionary
280
     1
281
     1
  3
ACAD_XREC_ROUNDTRIP
360
2F6
  0
DICTIONARY
  5
2F7
330
3B
100
AcDbDictionary
280
     1
281
     1
  3
ACAD_XREC_ROUNDTRIP
360
2F8
  0
DICTIONARY
  5
2ED
330
36
100
AcDbDictionary
280
     1
281
     1
  3
ACAD_XREC_ROUNDTRIP
360
2EE
  0
DICTIONARY
  5
2E1
330
30
100
AcDbDictionary
280
     1
281
     1
  3
ACAD_XREC_ROUNDTRIP
360
2E2
  0
DICTIONARY
  5
2F9
330
3C
100
AcDbDictionary
280
     1
281
     1
  3
ACAD_XREC_ROUNDTRIP
360
2FA
  0
XRECORD
  5
308
102
{ACAD_REACTORS
330
307
102
}
330
307
100
AcDbXrecord
280
     1
102
SHADEPLOT
 70
     0
102
SHADEPLOTRESLEVEL
 70
     2
102
SHADEPLOTCUSTOMDPI
 70
   300
  0
XRECORD
  5
30C
102
{ACAD_REACTORS
330
30B
102
}
330
30B
100
AcDbXrecord
280
     1
102
SHADEPLOT
 70
     0
102
SHADEPLOTRESLEVEL
 70
     2
102
SHADEPLOTCUSTOMDPI
 70
   300
  0
XRECORD
  5
30A
102
{ACAD_REACTORS
330
309
102
}
330
309
100
AcDbXrecord
280
     1
102
SHADEPLOT
 70
     0
102
SHADEPLOTRESLEVEL
 70
     2
102
SHADEPLOTCUSTOMDPI
 70
   300
  0
XRECORD
  5
2D3
102
{ACAD_REACTORS
330
1A
102
}
330
1A
100
AcDbXrecord
280
     1
102
MATERIAL
148
0.0
149
0.0
149
0.0
 93
        0
 94
      127
282
     0
 72
     0
 77
     0
171
     0
175
     0
179
     0
273
     0
  0
XRECORD
  5
1C
102
{ACAD_REACTORS
330
1A
102
}
330
1A
100
AcDbXrecord
280
     1
270
     1
271
     1
  0
XRECORD
  5
1B
102
{ACAD_REACTORS
330
1A
102
}
330
1A
100
AcDbXrecord
280
     1
270
     1
271
     1
  0
XRECORD
  5
1F
102
{ACAD_REACTORS
330
1A
102
}
330
1A
100
AcDbXrecord
280
     1
270
     1
271
     1
  0
XRECORD
  5
1E
102
{ACAD_REACTORS
330
1A
102
}
330
1A
100
AcDbXrecord
280
     1
270
     1
271
     1
  0
XRECORD
  5
20
102
{ACAD_REACTORS
330
1A
102
}
330
1A
100
AcDbXrecord
280
     1
270
     1
271
     1
  0
XRECORD
  5
1D
102
{ACAD_REACTORS
330
1A
102
}
330
1A
100
AcDbXrecord
280
     1
270
     1
271
     1
  0
XRECORD
  5
2D2
102
{ACAD_REACTORS
330
12
102
}
330
12
100
AcDbXrecord
280
     1
102
MATERIAL
148
0.0
149
0.0
149
0.0
 93
        0
 94
      127
282
     0
 72
     0
 77
     0
171
     0
175
     0
179
     0
273
     0
  0
XRECORD
  5
14
102
{ACAD_REACTORS
330
12
102
}
330
12
100
AcDbXrecord
280
     1
270
     1
271
     1
  0
XRECORD
  5
13
102
{ACAD_REACTORS
330
12
102
}
330
12
100
AcDbXrecord
280
     1
270
     1
271
     1
  0
XRECORD
  5
17
102
{ACAD_REACTORS
330
12
102
}
330
12
100
AcDbXrecord
280
     1
270
     1
271
     1
  0
XRECORD
  5
16
102
{ACAD_REACTORS
330
12
102
}
330
12
100
AcDbXrecord
280
     1
270
     1
271
     1
  0
XRECORD
  5
18
102
{ACAD_REACTORS
330
12
102
}
330
12
100
AcDbXrecord
280
     1
270
     1
271
     1
  0
XRECORD
  5
15
102
{ACAD_REACTORS
330
12
102
}
330
12
100
AcDbXrecord
280
     1
270
     1
271
     1
  0
XRECORD
  5
2D4
102
{ACAD_REACTORS
330
22
102
}
330
22
100
AcDbXrecord
280
     1
102
MATERIAL
148
0.0
149
0.0
149
0.0
 93
        0
 94
      127
282
     0
 72
     0
 77
     0
171
     0
175
     0
179
     0
273
     0
  0
XRECORD
  5
24
102
{ACAD_REACTORS
330
22
102
}
330
22
100
AcDbXrecord
280
     1
270
     1
271
     1
  0
XRECORD
  5
23
102
{ACAD_REACTORS
330
22
102
}
330
22
100
AcDbXrecord
280
     1
270
     1
271
     1
  0
XRECORD
  5
27
102
{ACAD_REACTORS
330
22
102
}
330
22
100
AcDbXrecord
280
     1
270
     1
271
     1
  0
XRECORD
  5
26
102
{ACAD_REACTORS
330
22
102
}
330
22
100
AcDbXrecord
280
     1
270
     1
271
     1
  0
XRECORD
  5
28
102
{ACAD_REACTORS
330
22
102
}
330
22
100
AcDbXrecord
280
     1
270
     1
271
     1
  0
XRECORD
  5
25
102
{ACAD_REACTORS
330
22
102
}
330
22
100
AcDbXrecord
280
     1
270
     1
271
     1
  0
CELLSTYLEMAP
  5
2CF
102
{ACAD_REACTORS
330
2CE
102
}
330
2CE
100
AcDbCellStyleMap
 90
        3
300
CELLSTYLE
  1
TABLEFORMAT_BEGIN
 90
        5
170
     1
 91
        0
 92
    32768
 62
   257
 93
        1
300
CONTENTFORMAT
  1
CONTENTFORMAT_BEGIN
 90
        0
 91
        0
 92
      512
 93
        0
300

 40
0.0
140
1.0
 94
        5
 62
     0
340
55
144
0.25
309
CONTENTFORMAT_END
171
     0
 94
        0
309
TABLEFORMAT_END
  1
CELLSTYLE_BEGIN
 90
        1
 91
        1
300
_TITLE
309
CELLSTYLE_END
300
CELLSTYLE
  1
TABLEFORMAT_BEGIN
 90
        5
170
     1
 91
        0
 92
        0
 62
   257
 93
        1
300
CONTENTFORMAT
  1
CONTENTFORMAT_BEGIN
 90
        0
 91
        0
 92
      512
 93
        0
300

 40
0.0
140
1.0
 94
        5
 62
     0
340
55
144
0.18
309
CONTENTFORMAT_END
171
     0
 94
        0
309
TABLEFORMAT_END
  1
CELLSTYLE_BEGIN
 90
        2
 91
        1
300
_HEADER
309
CELLSTYLE_END
300
CELLSTYLE
  1
TABLEFORMAT_BEGIN
 90
        5
170
     1
 91
        0
 92
        0
 62
   257
 93
        1
300
CONTENTFORMAT
  1
CONTENTFORMAT_BEGIN
 90
        0
 91
        0
 92
      512
 93
        0
300

 40
0.0
140
1.0
 94
        2
 62
     0
340
55
144
0.18
309
CONTENTFORMAT_END
171
     0
 94
        0
309
TABLEFORMAT_END
  1
CELLSTYLE_BEGIN
 90
        3
 91
        2
300
_DATA
309
CELLSTYLE_END
  0
XRECORD
  5
305
102
{ACAD_REACTORS
330
2CE
102
}
330
2CE
100
AcDbXrecord
280
     1
102
ACAD_ROUNDTRIP_PRE2007_TABLESTYLE
 90
      512
 91
        0
  1

 92
      512
 93
        0
  2

 94
      512
 95
        0
  3

  0
XRECORD
  5
2E0
102
{ACAD_REACTORS
330
2DF
102
}
330
2DF
100
AcDbXrecord
280
     1
102
RTVSPropertyOp0
 70
     1
102
RTVSPropertyOp1
 70
     1
102
RTVSPropertyOp2
 70
     1
102
RTVSPropertyOp3
 70
     1
102
RTVSPropertyOp4
 70
     1
102
RTVSPropertyOp5
 70
     1
102
RTVSPropertyOp6
 70
     1
102
RTVSPropertyOp7
 70
     1
102
RTVSPropertyOp8
 70
     1
102
RTVSPropertyOp9
 70
     1
102
RTVSPropertyOp10
 70
     1
102
RTVSPropertyOp11
 70
     1
102
RTVSPropertyOp12
 70
     1
102
RTVSPropertyOp13
 70
     1
102
RTVSPropertyOp14
 70
     1
102
RTVSPropertyOp15
 70
     1
102
RTVSPropertyOp16
 70
     1
102
RTVSPropertyOp17
 70
     1
102
RTVSPropertyOp18
 70
     1
102
RTVSPropertyOp19
 70
     1
102
RTVSPropertyOp20
 70
     1
102
RTVSPropertyOp21
 70
     1
102
RTVSPropertyOp22
 70
     1
102
RTVSPropertyOp23
 70
     1
102
RTVSPropertyOp24
 70
     1
102
RTVSPropertyOp25
 70
     1
102
RTVSPropertyOp26
 70
     1
102
RTVSPropertyOp27
 70
     1
102
RTVSPropertyOp28
 70
     1
102
RTVSPropertyOp29
 70
     1
102
RTVSPropertyOp30
 70
     1
102
RTVSPropertyOp31
 70
     1
102
RTVSPropertyOp32
 70
     1
  0
XRECORD
  5
2DE
102
{ACAD_REACTORS
330
2DD
102
}
330
2DD
100
AcDbXrecord
280
     1
102
RTVSPropertyOp0
 70
     1
102
RTVSPropertyOp1
 70
     1
102
RTVSPropertyOp2
 70
     1
102
RTVSPropertyOp3
 70
     1
102
RTVSPropertyOp4
 70
     1
102
RTVSPropertyOp5
 70
     1
102
RTVSPropertyOp6
 70
     1
102
RTVSPropertyOp7
 70
     1
102
RTVSPropertyOp8
 70
     1
102
RTVSPropertyOp9
 70
     1
102
RTVSPropertyOp10
 70
     1
102
RTVSPropertyOp11
 70
     1
102
RTVSPropertyOp12
 70
     1
102
RTVSPropertyOp13
 70
     1
102
RTVSPropertyOp14
 70
     1
102
RTVSPropertyOp15
 70
     1
102
RTVSPropertyOp16
 70
     1
102
RTVSPropertyOp17
 70
     1
102
RTVSPropertyOp18
 70
     1
102
RTVSPropertyOp19
 70
     1
102
RTVSPropertyOp20
 70
     1
102
RTVSPropertyOp21
 70
     1
102
RTVSPropertyOp22
 70
     1
102
RTVSPropertyOp23
 70
     1
102
RTVSPropertyOp24
 70
     1
102
RTVSPropertyOp25
 70
     1
102
RTVSPropertyOp26
 70
     1
102
RTVSPropertyOp27
 70
     1
102
RTVSPropertyOp28
 70
     1
102
RTVSPropertyOp29
 70
     1
102
RTVSPropertyOp30
 70
     1
102
RTVSPropertyOp31
 70
     1
102
RTVSPropertyOp32
 70
     1
  0
XRECORD
  5
2EC
102
{ACAD_REACTORS
330
2EB
102
}
330
2EB
100
AcDbXrecord
280
     1
102
RTVSPropertyOp0
 70
     1
102
RTVSPropertyOp1
 70
     1
102
RTVSPropertyOp2
 70
     1
102
RTVSPropertyOp3
 70
     1
102
RTVSPropertyOp4
 70
     1
102
RTVSPropertyOp5
 70
     1
102
RTVSPropertyOp6
 70
     1
102
RTVSPropertyOp7
 70
     1
102
RTVSPropertyOp8
 70
     1
102
RTVSPropertyOp9
 70
     1
102
RTVSPropertyOp10
 70
     1
102
RTVSPropertyOp11
 70
     1
102
RTVSPropertyOp12
 70
     1
102
RTVSPropertyOp13
 70
     1
102
RTVSPropertyOp14
 70
     1
102
RTVSPropertyOp15
 70
     1
102
RTVSPropertyOp16
 70
     1
102
RTVSPropertyOp17
 70
     1
102
RTVSPropertyOp18
 70
     1
102
RTVSPropertyOp19
 70
     1
102
RTVSPropertyOp20
 70
     1
102
RTVSPropertyOp21
 70
     1
102
RTVSPropertyOp22
 70
     1
102
RTVSPropertyOp23
 70
     1
102
RTVSPropertyOp24
 70
     1
102
RTVSPropertyOp25
 70
     1
102
RTVSPropertyOp26
 70
     1
102
RTVSPropertyOp27
 70
     1
102
RTVSPropertyOp28
 70
     1
102
RTVSPropertyOp29
 70
     1
102
RTVSPropertyOp30
 70
     1
102
RTVSPropertyOp31
 70
     1
102
RTVSPropertyOp32
 70
     1
  0
XRECORD
  5
2F4
102
{ACAD_REACTORS
330
2F3
102
}
330
2F3
100
AcDbXrecord
280
     1
102
RTVSPropertyOp0
 70
     1
102
RTVSPropertyOp1
 70
     1
102
RTVSPropertyOp2
 70
     1
102
RTVSPropertyOp3
 70
     1
102
RTVSPropertyOp4
 70
     1
102
RTVSPropertyOp5
 70
     1
102
RTVSPropertyOp6
 70
     1
102
RTVSPropertyOp7
 70
     1
102
RTVSPropertyOp8
 70
     1
102
RTVSPropertyOp9
 70
     1
102
RTVSPropertyOp10
 70
     1
102
RTVSPropertyOp11
 70
     1
102
RTVSPropertyOp12
 70
     1
102
RTVSPropertyOp13
 70
     1
102
RTVSPropertyOp14
 70
     1
102
RTVSPropertyOp15
 70
     1
102
RTVSPropertyOp16
 70
     1
102
RTVSPropertyOp17
 70
     1
102
RTVSPropertyOp18
 70
     1
102
RTVSPropertyOp19
 70
     1
102
RTVSPropertyOp20
 70
     1
102
RTVSPropertyOp21
 70
     1
102
RTVSPropertyOp22
 70
     1
102
RTVSPropertyOp23
 70
     1
102
RTVSPropertyOp24
 70
     1
102
RTVSPropertyOp25
 70
     1
102
RTVSPropertyOp26
 70
     1
102
RTVSPropertyOp27
 70
     1
102
RTVSPropertyOp28
 70
     1
102
RTVSPropertyOp29
 70
     1
102
RTVSPropertyOp30
 70
     1
102
RTVSPropertyOp31
 70
     1
102
RTVSPropertyOp32
 70
     1
  0
XRECORD
  5
2E6
102
{ACAD_REACTORS
330
2E5
102
}
330
2E5
100
AcDbXrecord
280
     1
102
RTVSPropertyOp0
 70
     1
102
RTVSPropertyOp1
 70
     1
102
RTVSPropertyOp2
 70
     1
102
RTVSPropertyOp3
 70
     1
102
RTVSPropertyOp4
 70
     1
102
RTVSPropertyOp5
 70
     1
102
RTVSPropertyOp6
 70
     1
102
RTVSPropertyOp7
 70
     1
102
RTVSPropertyOp8
 70
     1
102
RTVSPropertyOp9
 70
     1
102
RTVSPropertyOp10
 70
     1
102
RTVSPropertyOp11
 70
     1
102
RTVSPropertyOp12
 70
     1
102
RTVSPropertyOp13
 70
     1
102
RTVSPropertyOp14
 70
     1
102
RTVSPropertyOp15
 70
     1
102
RTVSPropertyOp16
 70
     1
102
RTVSPropertyOp17
 70
     1
102
RTVSPropertyOp18
 70
     1
102
RTVSPropertyOp19
 70
     1
102
RTVSPropertyOp20
 70
     1
102
RTVSPropertyOp21
 70
     1
102
RTVSPropertyOp22
 70
     1
102
RTVSPropertyOp23
 70
     1
102
RTVSPropertyOp24
 70
     1
102
RTVSPropertyOp25
 70
     1
102
RTVSPropertyOp26
 70
     1
102
RTVSPropertyOp27
 70
     1
102
RTVSPropertyOp28
 70
     1
102
RTVSPropertyOp29
 70
     1
102
RTVSPropertyOp30
 70
     1
102
RTVSPropertyOp31
 70
     1
102
RTVSPropertyOp32
 70
     1
  0
XRECORD
  5
2EA
102
{ACAD_REACTORS
330
2E9
102
}
330
2E9
100
AcDbXrecord
280
     1
102
RTVSPropertyOp0
 70
     1
102
RTVSPropertyOp1
 70
     1
102
RTVSPropertyOp2
 70
     1
102
RTVSPropertyOp3
 70
     1
102
RTVSPropertyOp4
 70
     1
102
RTVSPropertyOp5
 70
     1
102
RTVSPropertyOp6
 70
     1
102
RTVSPropertyOp7
 70
     1
102
RTVSPropertyOp8
 70
     1
102
RTVSPropertyOp9
 70
     1
102
RTVSPropertyOp10
 70
     1
102
RTVSPropertyOp11
 70
     1
102
RTVSPropertyOp12
 70
     1
102
RTVSPropertyOp13
 70
     1
102
RTVSPropertyOp14
 70
     1
102
RTVSPropertyOp15
 70
     1
102
RTVSPropertyOp16
 70
     1
102
RTVSPropertyOp17
 70
     1
102
RTVSPropertyOp18
 70
     1
102
RTVSPropertyOp19
 70
     1
102
RTVSPropertyOp20
 70
     1
102
RTVSPropertyOp21
 70
     1
102
RTVSPropertyOp22
 70
     1
102
RTVSPropertyOp23
 70
     1
102
RTVSPropertyOp24
 70
     1
102
RTVSPropertyOp25
 70
     1
102
RTVSPropertyOp26
 70
     1
102
RTVSPropertyOp27
 70
     1
102
RTVSPropertyOp28
 70
     1
102
RTVSPropertyOp29
 70
     1
102
RTVSPropertyOp30
 70
     1
102
RTVSPropertyOp31
 70
     1
102
RTVSPropertyOp32
 70
     1
  0
XRECORD
  5
304
102
{ACAD_REACTORS
330
303
102
}
330
303
100
AcDbXrecord
280
     1
102
RTVSPropertyOp0
 70
     0
102
RTVSPropertyOp1
 70
     0
102
RTVSPropertyOp2
 70
     0
102
RTVSPropertyOp3
 70
     0
102
RTVSPropertyOp4
 70
     0
102
RTVSPropertyOp5
 70
     0
102
RTVSPropertyOp6
 70
     0
102
RTVSPropertyOp7
 70
     0
102
RTVSPropertyOp8
 70
     0
102
RTVSPropertyOp9
 70
     0
102
RTVSPropertyOp10
 70
     0
102
RTVSPropertyOp11
 70
     0
102
RTVSPropertyOp12
 70
     0
102
RTVSPropertyOp13
 70
     0
102
RTVSPropertyOp14
 70
     2
102
RTVSPropertyOp15
 70
     0
102
RTVSPropertyOp16
 70
     0
102
RTVSPropertyOp17
 70
     0
102
RTVSPropertyOp18
 70
     0
102
RTVSPropertyOp19
 70
     0
102
RTVSPropertyOp20
 70
     0
102
RTVSPropertyOp21
 70
     0
102
RTVSPropertyOp22
 70
     0
102
RTVSPropertyOp23
 70
     0
102
RTVSPropertyOp24
 70
     0
102
RTVSPropertyOp25
 70
     0
102
RTVSPropertyOp26
 70
     0
102
RTVSPropertyOp27
 70
     0
102
RTVSPropertyOp28
 70
     0
102
RTVSPropertyOp29
 70
     0
102
RTVSPropertyOp30
 70
     0
102
RTVSPropertyOp31
 70
     0
102
RTVSPropertyOp32
 70
     0
  0
XRECORD
  5
2F2
102
{ACAD_REACTORS
330
2F1
102
}
330
2F1
100
AcDbXrecord
280
     1
102
RTVSPropertyOp0
 70
     1
102
RTVSPropertyOp1
 70
     1
102
RTVSPropertyOp2
 70
     1
102
RTVSPropertyOp3
 70
     1
102
RTVSPropertyOp4
 70
     1
102
RTVSPropertyOp5
 70
     1
102
RTVSPropertyOp6
 70
     1
102
RTVSPropertyOp7
 70
     1
102
RTVSPropertyOp8
 70
     1
102
RTVSPropertyOp9
 70
     1
102
RTVSPropertyOp10
 70
     1
102
RTVSPropertyOp11
 70
     1
102
RTVSPropertyOp12
 70
     1
102
RTVSPropertyOp13
 70
     1
102
RTVSPropertyOp14
 70
     1
102
RTVSPropertyOp15
 70
     1
102
RTVSPropertyOp16
 70
     1
102
RTVSPropertyOp17
 70
     1
102
RTVSPropertyOp18
 70
     1
102
RTVSPropertyOp19
 70
     1
102
RTVSPropertyOp20
 70
     1
102
RTVSPropertyOp21
 70
     1
102
RTVSPropertyOp22
 70
     1
102
RTVSPropertyOp23
 70
     1
102
RTVSPropertyOp24
 70
     1
102
RTVSPropertyOp25
 70
     1
102
RTVSPropertyOp26
 70
     1
102
RTVSPropertyOp27
 70
     1
102
RTVSPropertyOp28
 70
     1
102
RTVSPropertyOp29
 70
     1
102
RTVSPropertyOp30
 70
     1
102
RTVSPropertyOp31
 70
     1
102
RTVSPropertyOp32
 70
     1
  0
XRECORD
  5
2D6
102
{ACAD_REACTORS
330
2D5
102
}
330
2D5
100
AcDbXrecord
280
     1
102
RTVSPropertyOp0
 70
     1
102
RTVSPropertyOp1
 70
     1
102
RTVSPropertyOp2
 70
     1
102
RTVSPropertyOp3
 70
     1
102
RTVSPropertyOp4
 70
     1
102
RTVSPropertyOp5
 70
     1
102
RTVSPropertyOp6
 70
     1
102
RTVSPropertyOp7
 70
     1
102
RTVSPropertyOp8
 70
     1
102
RTVSPropertyOp9
 70
     1
102
RTVSPropertyOp10
 70
     1
102
RTVSPropertyOp11
 70
     1
102
RTVSPropertyOp12
 70
     1
102
RTVSPropertyOp13
 70
     1
102
RTVSPropertyOp14
 70
     1
102
RTVSPropertyOp15
 70
     1
102
RTVSPropertyOp16
 70
     1
102
RTVSPropertyOp17
 70
     1
102
RTVSPropertyOp18
 70
     1
102
RTVSPropertyOp19
 70
     1
102
RTVSPropertyOp20
 70
     1
102
RTVSPropertyOp21
 70
     1
102
RTVSPropertyOp22
 70
     1
102
RTVSPropertyOp23
 70
     1
102
RTVSPropertyOp24
 70
     1
102
RTVSPropertyOp25
 70
     1
102
RTVSPropertyOp26
 70
     1
102
RTVSPropertyOp27
 70
     1
102
RTVSPropertyOp28
 70
     1
102
RTVSPropertyOp29
 70
     1
102
RTVSPropertyOp30
 70
     1
102
RTVSPropertyOp31
 70
     1
102
RTVSPropertyOp32
 70
     1
  0
XRECORD
  5
2D8
102
{ACAD_REACTORS
330
2D7
102
}
330
2D7
100
AcDbXrecord
280
     1
102
RTVSPropertyOp0
 70
     1
102
RTVSPropertyOp1
 70
     1
102
RTVSPropertyOp2
 70
     1
102
RTVSPropertyOp3
 70
     1
102
RTVSPropertyOp4
 70
     1
102
RTVSPropertyOp5
 70
     1
102
RTVSPropertyOp6
 70
     1
102
RTVSPropertyOp7
 70
     1
102
RTVSPropertyOp8
 70
     1
102
RTVSPropertyOp9
 70
     1
102
RTVSPropertyOp10
 70
     1
102
RTVSPropertyOp11
 70
     1
102
RTVSPropertyOp12
 70
     1
102
RTVSPropertyOp13
 70
     1
102
RTVSPropertyOp14
 70
     1
102
RTVSPropertyOp15
 70
     1
102
RTVSPropertyOp16
 70
     1
102
RTVSPropertyOp17
 70
     1
102
RTVSPropertyOp18
 70
     1
102
RTVSPropertyOp19
 70
     1
102
RTVSPropertyOp20
 70
     1
102
RTVSPropertyOp21
 70
     1
102
RTVSPropertyOp22
 70
     1
102
RTVSPropertyOp23
 70
     1
102
RTVSPropertyOp24
 70
     1
102
RTVSPropertyOp25
 70
     1
102
RTVSPropertyOp26
 70
     1
102
RTVSPropertyOp27
 70
     1
102
RTVSPropertyOp28
 70
     1
102
RTVSPropertyOp29
 70
     1
102
RTVSPropertyOp30
 70
     1
102
RTVSPropertyOp31
 70
     1
102
RTVSPropertyOp32
 70
     1
  0
XRECORD
  5
2DA
102
{ACAD_REACTORS
330
2D9
102
}
330
2D9
100
AcDbXrecord
280
     1
102
RTVSPropertyOp0
 70
     1
102
RTVSPropertyOp1
 70
     1
102
RTVSPropertyOp2
 70
     1
102
RTVSPropertyOp3
 70
     1
102
RTVSPropertyOp4
 70
     1
102
RTVSPropertyOp5
 70
     1
102
RTVSPropertyOp6
 70
     1
102
RTVSPropertyOp7
 70
     1
102
RTVSPropertyOp8
 70
     1
102
RTVSPropertyOp9
 70
     1
102
RTVSPropertyOp10
 70
     1
102
RTVSPropertyOp11
 70
     1
102
RTVSPropertyOp12
 70
     1
102
RTVSPropertyOp13
 70
     1
102
RTVSPropertyOp14
 70
     1
102
RTVSPropertyOp15
 70
     1
102
RTVSPropertyOp16
 70
     1
102
RTVSPropertyOp17
 70
     1
102
RTVSPropertyOp18
 70
     1
102
RTVSPropertyOp19
 70
     1
102
RTVSPropertyOp20
 70
     1
102
RTVSPropertyOp21
 70
     1
102
RTVSPropertyOp22
 70
     1
102
RTVSPropertyOp23
 70
     1
102
RTVSPropertyOp24
 70
     1
102
RTVSPropertyOp25
 70
     1
102
RTVSPropertyOp26
 70
     1
102
RTVSPropertyOp27
 70
     1
102
RTVSPropertyOp28
 70
     1
102
RTVSPropertyOp29
 70
     1
102
RTVSPropertyOp30
 70
     1
102
RTVSPropertyOp31
 70
     1
102
RTVSPropertyOp32
 70
     1
  0
XRECORD
  5
2DC
102
{ACAD_REACTORS
330
2DB
102
}
330
2DB
100
AcDbXrecord
280
     1
102
RTVSPropertyOp0
 70
     1
102
RTVSPropertyOp1
 70
     1
102
RTVSPropertyOp2
 70
     1
102
RTVSPropertyOp3
 70
     1
102
RTVSPropertyOp4
 70
     1
102
RTVSPropertyOp5
 70
     1
102
RTVSPropertyOp6
 70
     1
102
RTVSPropertyOp7
 70
     1
102
RTVSPropertyOp8
 70
     1
102
RTVSPropertyOp9
 70
     1
102
RTVSPropertyOp10
 70
     1
102
RTVSPropertyOp11
 70
     1
102
RTVSPropertyOp12
 70
     1
102
RTVSPropertyOp13
 70
     1
102
RTVSPropertyOp14
 70
     1
102
RTVSPropertyOp15
 70
     1
102
RTVSPropertyOp16
 70
     1
102
RTVSPropertyOp17
 70
     1
102
RTVSPropertyOp18
 70
     1
102
RTVSPropertyOp19
 70
     1
102
RTVSPropertyOp20
 70
     1
102
RTVSPropertyOp21
 70
     1
102
RTVSPropertyOp22
 70
     1
102
RTVSPropertyOp23
 70
     1
102
RTVSPropertyOp24
 70
     1
102
RTVSPropertyOp25
 70
     1
102
RTVSPropertyOp26
 70
     1
102
RTVSPropertyOp27
 70
     1
102
RTVSPropertyOp28
 70
     1
102
RTVSPropertyOp29
 70
     1
102
RTVSPropertyOp30
 70
     1
102
RTVSPropertyOp31
 70
     1
102
RTVSPropertyOp32
 70
     1
  0
XRECORD
  5
2E4
102
{ACAD_REACTORS
330
2E3
102
}
330
2E3
100
AcDbXrecord
280
     1
102
RTVSPropertyOp0
 70
     1
102
RTVSPropertyOp1
 70
     1
102
RTVSPropertyOp2
 70
     1
102
RTVSPropertyOp3
 70
     1
102
RTVSPropertyOp4
 70
     1
102
RTVSPropertyOp5
 70
     1
102
RTVSPropertyOp6
 70
     1
102
RTVSPropertyOp7
 70
     1
102
RTVSPropertyOp8
 70
     1
102
RTVSPropertyOp9
 70
     1
102
RTVSPropertyOp10
 70
     1
102
RTVSPropertyOp11
 70
     1
102
RTVSPropertyOp12
 70
     1
102
RTVSPropertyOp13
 70
     1
102
RTVSPropertyOp14
 70
     1
102
RTVSPropertyOp15
 70
     1
102
RTVSPropertyOp16
 70
     1
102
RTVSPropertyOp17
 70
     1
102
RTVSPropertyOp18
 70
     1
102
RTVSPropertyOp19
 70
     1
102
RTVSPropertyOp20
 70
     1
102
RTVSPropertyOp21
 70
     1
102
RTVSPropertyOp22
 70
     1
102
RTVSPropertyOp23
 70
     1
102
RTVSPropertyOp24
 70
     1
102
RTVSPropertyOp25
 70
     1
102
RTVSPropertyOp26
 70
     1
102
RTVSPropertyOp27
 70
     1
102
RTVSPropertyOp28
 70
     1
102
RTVSPropertyOp29
 70
     1
102
RTVSPropertyOp30
 70
     1
102
RTVSPropertyOp31
 70
     1
102
RTVSPropertyOp32
 70
     1
  0
XRECORD
  5
300
102
{ACAD_REACTORS
330
2FF
102
}
330
2FF
100
AcDbXrecord
280
     1
102
RTVSPropertyOp0
 70
     0
102
RTVSPropertyOp1
 70
     0
102
RTVSPropertyOp2
 70
     0
102
RTVSPropertyOp3
 70
     0
102
RTVSPropertyOp4
 70
     0
102
RTVSPropertyOp5
 70
     0
102
RTVSPropertyOp6
 70
     0
102
RTVSPropertyOp7
 70
     0
102
RTVSPropertyOp8
 70
     0
102
RTVSPropertyOp9
 70
     0
102
RTVSPropertyOp10
 70
     0
102
RTVSPropertyOp11
 70
     0
102
RTVSPropertyOp12
 70
     0
102
RTVSPropertyOp13
 70
     0
102
RTVSPropertyOp14
 70
     2
102
RTVSPropertyOp15
 70
     0
102
RTVSPropertyOp16
 70
     0
102
RTVSPropertyOp17
 70
     0
102
RTVSPropertyOp18
 70
     0
102
RTVSPropertyOp19
 70
     0
102
RTVSPropertyOp20
 70
     0
102
RTVSPropertyOp21
 70
     0
102
RTVSPropertyOp22
 70
     0
102
RTVSPropertyOp23
 70
     0
102
RTVSPropertyOp24
 70
     0
102
RTVSPropertyOp25
 70
     0
102
RTVSPropertyOp26
 70
     0
102
RTVSPropertyOp27
 70
     0
102
RTVSPropertyOp28
 70
     0
102
RTVSPropertyOp29
 70
     0
102
RTVSPropertyOp30
 70
     0
102
RTVSPropertyOp31
 70
     0
102
RTVSPropertyOp32
 70
     0
  0
XRECORD
  5
2F0
102
{ACAD_REACTORS
330
2EF
102
}
330
2EF
100
AcDbXrecord
280
     1
102
RTVSPropertyOp0
 70
     1
102
RTVSPropertyOp1
 70
     1
102
RTVSPropertyOp2
 70
     1
102
RTVSPropertyOp3
 70
     1
102
RTVSPropertyOp4
 70
     1
102
RTVSPropertyOp5
 70
     1
102
RTVSPropertyOp6
 70
     1
102
RTVSPropertyOp7
 70
     1
102
RTVSPropertyOp8
 70
     1
102
RTVSPropertyOp9
 70
     1
102
RTVSPropertyOp10
 70
     1
102
RTVSPropertyOp11
 70
     1
102
RTVSPropertyOp12
 70
     1
102
RTVSPropertyOp13
 70
     1
102
RTVSPropertyOp14
 70
     1
102
RTVSPropertyOp15
 70
     1
102
RTVSPropertyOp16
 70
     1
102
RTVSPropertyOp17
 70
     1
102
RTVSPropertyOp18
 70
     1
102
RTVSPropertyOp19
 70
     1
102
RTVSPropertyOp20
 70
     1
102
RTVSPropertyOp21
 70
     1
102
RTVSPropertyOp22
 70
     1
102
RTVSPropertyOp23
 70
     1
102
RTVSPropertyOp24
 70
     1
102
RTVSPropertyOp25
 70
     1
102
RTVSPropertyOp26
 70
     1
102
RTVSPropertyOp27
 70
     1
102
RTVSPropertyOp28
 70
     1
102
RTVSPropertyOp29
 70
     1
102
RTVSPropertyOp30
 70
     1
102
RTVSPropertyOp31
 70
     1
102
RTVSPropertyOp32
 70
     1
  0
XRECORD
  5
302
102
{ACAD_REACTORS
330
301
102
}
330
301
100
AcDbXrecord
280
     1
102
RTVSPropertyOp0
 70
     0
102
RTVSPropertyOp1
 70
     0
102
RTVSPropertyOp2
 70
     0
102
RTVSPropertyOp3
 70
     0
102
RTVSPropertyOp4
 70
     0
102
RTVSPropertyOp5
 70
     0
102
RTVSPropertyOp6
 70
     0
102
RTVSPropertyOp7
 70
     0
102
RTVSPropertyOp8
 70
     0
102
RTVSPropertyOp9
 70
     0
102
RTVSPropertyOp10
 70
     0
102
RTVSPropertyOp11
 70
     0
102
RTVSPropertyOp12
 70
     0
102
RTVSPropertyOp13
 70
     0
102
RTVSPropertyOp14
 70
     2
102
RTVSPropertyOp15
 70
     0
102
RTVSPropertyOp16
 70
     0
102
RTVSPropertyOp17
 70
     0
102
RTVSPropertyOp18
 70
     0
102
RTVSPropertyOp19
 70
     0
102
RTVSPropertyOp20
 70
     0
102
RTVSPropertyOp21
 70
     0
102
RTVSPropertyOp22
 70
     0
102
RTVSPropertyOp23
 70
     0
102
RTVSPropertyOp24
 70
     0
102
RTVSPropertyOp25
 70
     0
102
RTVSPropertyOp26
 70
     0
102
RTVSPropertyOp27
 70
     0
102
RTVSPropertyOp28
 70
     0
102
RTVSPropertyOp29
 70
     0
102
RTVSPropertyOp30
 70
     0
102
RTVSPropertyOp31
 70
     0
102
RTVSPropertyOp32
 70
     0
  0
XRECORD
  5
2E8
102
{ACAD_REACTORS
330
2E7
102
}
330
2E7
100
AcDbXrecord
280
     1
102
RTVSPropertyOp0
 70
     1
102
RTVSPropertyOp1
 70
     1
102
RTVSPropertyOp2
 70
     1
102
RTVSPropertyOp3
 70
     1
102
RTVSPropertyOp4
 70
     1
102
RTVSPropertyOp5
 70
     1
102
RTVSPropertyOp6
 70
     1
102
RTVSPropertyOp7
 70
     1
102
RTVSPropertyOp8
 70
     1
102
RTVSPropertyOp9
 70
     1
102
RTVSPropertyOp10
 70
     1
102
RTVSPropertyOp11
 70
     1
102
RTVSPropertyOp12
 70
     1
102
RTVSPropertyOp13
 70
     1
102
RTVSPropertyOp14
 70
     1
102
RTVSPropertyOp15
 70
     1
102
RTVSPropertyOp16
 70
     1
102
RTVSPropertyOp17
 70
     1
102
RTVSPropertyOp18
 70
     1
102
RTVSPropertyOp19
 70
     1
102
RTVSPropertyOp20
 70
     1
102
RTVSPropertyOp21
 70
     1
102
RTVSPropertyOp22
 70
     1
102
RTVSPropertyOp23
 70
     1
102
RTVSPropertyOp24
 70
     1
102
RTVSPropertyOp25
 70
     1
102
RTVSPropertyOp26
 70
     1
102
RTVSPropertyOp27
 70
     1
102
RTVSPropertyOp28
 70
     1
102
RTVSPropertyOp29
 70
     1
102
RTVSPropertyOp30
 70
     1
102
RTVSPropertyOp31
 70
     1
102
RTVSPropertyOp32
 70
     1
  0
XRECORD
  5
2FE
102
{ACAD_REACTORS
330
2FD
102
}
330
2FD
100
AcDbXrecord
280
     1
102
RTVSPropertyOp0
 70
     1
102
RTVSPropertyOp1
 70
     1
102
RTVSPropertyOp2
 70
     1
102
RTVSPropertyOp3
 70
     1
102
RTVSPropertyOp4
 70
     1
102
RTVSPropertyOp5
 70
     1
102
RTVSPropertyOp6
 70
     1
102
RTVSPropertyOp7
 70
     1
102
RTVSPropertyOp8
 70
     1
102
RTVSPropertyOp9
 70
     1
102
RTVSPropertyOp10
 70
     1
102
RTVSPropertyOp11
 70
     1
102
RTVSPropertyOp12
 70
     1
102
RTVSPropertyOp13
 70
     1
102
RTVSPropertyOp14
 70
     1
102
RTVSPropertyOp15
 70
     1
102
RTVSPropertyOp16
 70
     1
102
RTVSPropertyOp17
 70
     1
102
RTVSPropertyOp18
 70
     1
102
RTVSPropertyOp19
 70
     1
102
RTVSPropertyOp20
 70
     1
102
RTVSPropertyOp21
 70
     1
102
RTVSPropertyOp22
 70
     1
102
RTVSPropertyOp23
 70
     1
102
RTVSPropertyOp24
 70
     1
102
RTVSPropertyOp25
 70
     1
102
RTVSPropertyOp26
 70
     1
102
RTVSPropertyOp27
 70
     1
102
RTVSPropertyOp28
 70
     1
102
RTVSPropertyOp29
 70
     1
102
RTVSPropertyOp30
 70
     1
102
RTVSPropertyOp31
 70
     1
102
RTVSPropertyOp32
 70
     1
  0
XRECORD
  5
2FC
102
{ACAD_REACTORS
330
2FB
102
}
330
2FB
100
AcDbXrecord
280
     1
102
RTVSPropertyOp0
 70
     1
102
RTVSPropertyOp1
 70
     1
102
RTVSPropertyOp2
 70
     1
102
RTVSPropertyOp3
 70
     1
102
RTVSPropertyOp4
 70
     1
102
RTVSPropertyOp5
 70
     1
102
RTVSPropertyOp6
 70
     1
102
RTVSPropertyOp7
 70
     1
102
RTVSPropertyOp8
 70
     1
102
RTVSPropertyOp9
 70
     1
102
RTVSPropertyOp10
 70
     1
102
RTVSPropertyOp11
 70
     1
102
RTVSPropertyOp12
 70
     1
102
RTVSPropertyOp13
 70
     1
102
RTVSPropertyOp14
 70
     1
102
RTVSPropertyOp15
 70
     1
102
RTVSPropertyOp16
 70
     1
102
RTVSPropertyOp17
 70
     1
102
RTVSPropertyOp18
 70
     1
102
RTVSPropertyOp19
 70
     1
102
RTVSPropertyOp20
 70
     1
102
RTVSPropertyOp21
 70
     1
102
RTVSPropertyOp22
 70
     1
102
RTVSPropertyOp23
 70
     1
102
RTVSPropertyOp24
 70
     1
102
RTVSPropertyOp25
 70
     1
102
RTVSPropertyOp26
 70
     1
102
RTVSPropertyOp27
 70
     1
102
RTVSPropertyOp28
 70
     1
102
RTVSPropertyOp29
 70
     1
102
RTVSPropertyOp30
 70
     1
102
RTVSPropertyOp31
 70
     1
102
RTVSPropertyOp32
 70
     1
  0
XRECORD
  5
2F6
102
{ACAD_REACTORS
330
2F5
102
}
330
2F5
100
AcDbXrecord
280
     1
102
RTVSPropertyOp0
 70
     1
102
RTVSPropertyOp1
 70
     1
102
RTVSPropertyOp2
 70
     1
102
RTVSPropertyOp3
 70
     1
102
RTVSPropertyOp4
 70
     1
102
RTVSPropertyOp5
 70
     1
102
RTVSPropertyOp6
 70
     1
102
RTVSPropertyOp7
 70
     1
102
RTVSPropertyOp8
 70
     1
102
RTVSPropertyOp9
 70
     1
102
RTVSPropertyOp10
 70
     1
102
RTVSPropertyOp11
 70
     1
102
RTVSPropertyOp12
 70
     1
102
RTVSPropertyOp13
 70
     1
102
RTVSPropertyOp14
 70
     1
102
RTVSPropertyOp15
 70
     1
102
RTVSPropertyOp16
 70
     1
102
RTVSPropertyOp17
 70
     1
102
RTVSPropertyOp18
 70
     1
102
RTVSPropertyOp19
 70
     1
102
RTVSPropertyOp20
 70
     1
102
RTVSPropertyOp21
 70
     1
102
RTVSPropertyOp22
 70
     1
102
RTVSPropertyOp23
 70
     1
102
RTVSPropertyOp24
 70
     1
102
RTVSPropertyOp25
 70
     1
102
RTVSPropertyOp26
 70
     1
102
RTVSPropertyOp27
 70
     1
102
RTVSPropertyOp28
 70
     1
102
RTVSPropertyOp29
 70
     1
102
RTVSPropertyOp30
 70
     1
102
RTVSPropertyOp31
 70
     1
102
RTVSPropertyOp32
 70
     1
  0
XRECORD
  5
2F8
102
{ACAD_REACTORS
330
2F7
102
}
330
2F7
100
AcDbXrecord
280
     1
102
RTVSPropertyOp0
 70
     1
102
RTVSPropertyOp1
 70
     1
102
RTVSPropertyOp2
 70
     1
102
RTVSPropertyOp3
 70
     1
102
RTVSPropertyOp4
 70
     1
102
RTVSPropertyOp5
 70
     1
102
RTVSPropertyOp6
 70
     1
102
RTVSPropertyOp7
 70
     1
102
RTVSPropertyOp8
 70
     1
102
RTVSPropertyOp9
 70
     1
102
RTVSPropertyOp10
 70
     1
102
RTVSPropertyOp11
 70
     1
102
RTVSPropertyOp12
 70
     1
102
RTVSPropertyOp13
 70
     1
102
RTVSPropertyOp14
 70
     1
102
RTVSPropertyOp15
 70
     1
102
RTVSPropertyOp16
 70
     1
102
RTVSPropertyOp17
 70
     1
102
RTVSPropertyOp18
 70
     1
102
RTVSPropertyOp19
 70
     1
102
RTVSPropertyOp20
 70
     1
102
RTVSPropertyOp21
 70
     1
102
RTVSPropertyOp22
 70
     1
102
RTVSPropertyOp23
 70
     1
102
RTVSPropertyOp24
 70
     1
102
RTVSPropertyOp25
 70
     1
102
RTVSPropertyOp26
 70
     1
102
RTVSPropertyOp27
 70
     1
102
RTVSPropertyOp28
 70
     1
102
RTVSPropertyOp29
 70
     1
102
RTVSPropertyOp30
 70
     1
102
RTVSPropertyOp31
 70
     1
102
RTVSPropertyOp32
 70
     1
  0
XRECORD
  5
2EE
102
{ACAD_REACTORS
330
2ED
102
}
330
2ED
100
AcDbXrecord
280
     1
102
RTVSPropertyOp0
 70
     1
102
RTVSPropertyOp1
 70
     1
102
RTVSPropertyOp2
 70
     1
102
RTVSPropertyOp3
 70
     1
102
RTVSPropertyOp4
 70
     1
102
RTVSPropertyOp5
 70
     1
102
RTVSPropertyOp6
 70
     1
102
RTVSPropertyOp7
 70
     1
102
RTVSPropertyOp8
 70
     1
102
RTVSPropertyOp9
 70
     1
102
RTVSPropertyOp10
 70
     1
102
RTVSPropertyOp11
 70
     1
102
RTVSPropertyOp12
 70
     1
102
RTVSPropertyOp13
 70
     1
102
RTVSPropertyOp14
 70
     1
102
RTVSPropertyOp15
 70
     1
102
RTVSPropertyOp16
 70
     1
102
RTVSPropertyOp17
 70
     1
102
RTVSPropertyOp18
 70
     1
102
RTVSPropertyOp19
 70
     1
102
RTVSPropertyOp20
 70
     1
102
RTVSPropertyOp21
 70
     1
102
RTVSPropertyOp22
 70
     1
102
RTVSPropertyOp23
 70
     1
102
RTVSPropertyOp24
 70
     1
102
RTVSPropertyOp25
 70
     1
102
RTVSPropertyOp26
 70
     1
102
RTVSPropertyOp27
 70
     1
102
RTVSPropertyOp28
 70
     1
102
RTVSPropertyOp29
 70
     1
102
RTVSPropertyOp30
 70
     1
102
RTVSPropertyOp31
 70
     1
102
RTVSPropertyOp32
 70
     1
  0
XRECORD
  5
2E2
102
{ACAD_REACTORS
330
2E1
102
}
330
2E1
100
AcDbXrecord
280
     1
102
RTVSPropertyOp0
 70
     1
102
RTVSPropertyOp1
 70
     1
102
RTVSPropertyOp2
 70
     1
102
RTVSPropertyOp3
 70
     1
102
RTVSPropertyOp4
 70
     1
102
RTVSPropertyOp5
 70
     1
102
RTVSPropertyOp6
 70
     1
102
RTVSPropertyOp7
 70
     1
102
RTVSPropertyOp8
 70
     1
102
RTVSPropertyOp9
 70
     1
102
RTVSPropertyOp10
 70
     1
102
RTVSPropertyOp11
 70
     1
102
RTVSPropertyOp12
 70
     1
102
RTVSPropertyOp13
 70
     1
102
RTVSPropertyOp14
 70
     1
102
RTVSPropertyOp15
 70
     1
102
RTVSPropertyOp16
 70
     1
102
RTVSPropertyOp17
 70
     1
102
RTVSPropertyOp18
 70
     1
102
RTVSPropertyOp19
 70
     1
102
RTVSPropertyOp20
 70
     1
102
RTVSPropertyOp21
 70
     1
102
RTVSPropertyOp22
 70
     1
102
RTVSPropertyOp23
 70
     1
102
RTVSPropertyOp24
 70
     1
102
RTVSPropertyOp25
 70
     1
102
RTVSPropertyOp26
 70
     1
102
RTVSPropertyOp27
 70
     1
102
RTVSPropertyOp28
 70
     1
102
RTVSPropertyOp29
 70
     1
102
RTVSPropertyOp30
 70
     1
102
RTVSPropertyOp31
 70
     1
102
RTVSPropertyOp32
 70
     1
  0
XRECORD
  5
2FA
102
{ACAD_REACTORS
330
2F9
102
}
330
2F9
100
AcDbXrecord
280
     1
102
RTVSPropertyOp0
 70
     1
102
RTVSPropertyOp1
 70
     1
102
RTVSPropertyOp2
 70
     1
102
RTVSPropertyOp3
 70
     1
102
RTVSPropertyOp4
 70
     1
102
RTVSPropertyOp5
 70
     1
102
RTVSPropertyOp6
 70
     1
102
RTVSPropertyOp7
 70
     1
102
RTVSPropertyOp8
 70
     1
102
RTVSPropertyOp9
 70
     1
102
RTVSPropertyOp10
 70
     1
102
RTVSPropertyOp11
 70
     1
102
RTVSPropertyOp12
 70
     1
102
RTVSPropertyOp13
 70
     1
102
RTVSPropertyOp14
 70
     1
102
RTVSPropertyOp15
 70
     1
102
RTVSPropertyOp16
 70
     1
102
RTVSPropertyOp17
 70
     1
102
RTVSPropertyOp18
 70
     1
102
RTVSPropertyOp19
 70
     1
102
RTVSPropertyOp20
 70
     1
102
RTVSPropertyOp21
 70
     1
102
RTVSPropertyOp22
 70
     1
102
RTVSPropertyOp23
 70
     1
102
RTVSPropertyOp24
 70
     1
102
RTVSPropertyOp25
 70
     1
102
RTVSPropertyOp26
 70
     1
102
RTVSPropertyOp27
 70
     1
102
RTVSPropertyOp28
 70
     1
102
RTVSPropertyOp29
 70
     1
102
RTVSPropertyOp30
 70
     1
102
RTVSPropertyOp31
 70
     1
102
RTVSPropertyOp32
 70
     1
  0
ENDSEC
  0
EOF
