  0
SECTION
  2
HEADER
  9
$ACADVER
  1
AC1015
  9
$ACADMAINTVER
 70
    18
  9
$DWGCODEPAGE
  3
ANSI_1252
  9
$INSBASE
 10
0.0
 20
0.0
 30
0.0
  9
$EXTMIN
 10
0.0
 20
0.0
 30
0.0
  9
$EXTMAX
 10
420.0
 20
297.0
 30
0.0
  9
$LIMMIN
 10
0.0
 20
0.0
  9
$LIMMAX
 10
420.0
 20
297.0
  9
$ORTHOMODE
 70
     0
  9
$REGENMODE
 70
     1
  9
$FILLMODE
 70
     1
  9
$QTEXTMODE
 70
     0
  9
$MIRRTEXT
 70
     0
  9
$LTSCALE
 40
1.0
  9
$ATTMODE
 70
     1
  9
$TEXTSIZE
 40
0.2
  9
$TRACEWID
 40
0.05
  9
$TEXTSTYLE
  7
Standard
  9
$CLAYER
  8
0
  9
$CELTYPE
  6
ByLayer
  9
$CECOLOR
 62
   256
  9
$CELTSCALE
 40
1.0
  9
$DISPSILH
 70
     0
  9
$DIMSCALE
 40
1.0
  9
$DIMASZ
 40
1.799999999999999
  9
$DIMEXO
 40
0.0625
  9
$DIMDLI
 40
0.38
  9
$DIMRND
 40
0.0
  9
$DIMDLE
 40
0.0
  9
$DIMEXE
 40
0.18
  9
$DIMTP
 40
0.0
  9
$DIMTM
 40
0.0
  9
$DIMTXT
 40
0.25
  9
$DIMCEN
 40
0.09
  9
$DIMTSZ
 40
0.0
  9
$DIMTOL
 70
     0
  9
$DIMLIM
 70
     0
  9
$DIMTIH
 70
     1
  9
$DIMTOH
 70
     1
  9
$DIMSE1
 70
     0
  9
$DIMSE2
 70
     0
  9
$DIMTAD
 70
     0
  9
$DIMZIN
 70
     0
  9
$DIMBLK
  1

  9
$DIMASO
 70
     1
  9
$DIMSHO
 70
     1
  9
$DIMPOST
  1

  9
$DIMAPOST
  1

  9
$DIMALT
 70
     0
  9
$DIMALTD
 70
     2
  9
$DIMALTF
 40
25.4
  9
$DIMLFAC
 40
1.0
  9
$DIMTOFL
 70
     0
  9
$DIMTVP
 40
0.0
  9
$DIMTIX
 70
     0
  9
$DIMSOXD
 70
     0
  9
$DIMSAH
 70
     0
  9
$DIMBLK1
  1

  9
$DIMBLK2
  1

  9
$DIMSTYLE
  2
Standard
  9
$DIMCLRD
 70
     0
  9
$DIMCLRE
 70
     0
  9
$DIMCLRT
 70
     0
  9
$DIMTFAC
 40
1.0
  9
$DIMGAP
 40
0.09
  9
$DIMJUST
 70
     0
  9
$DIMSD1
 70
     0
  9
$DIMSD2
 70
     0
  9
$DIMTOLJ
 70
     1
  9
$DIMTZIN
 70
     0
  9
$DIMALTZ
 70
     0
  9
$DIMALTTZ
 70
     0
  9
$DIMUPT
 70
     0
  9
$DIMDEC
 70
     4
  9
$DIMTDEC
 70
     4
  9
$DIMALTU
 70
     2
  9
$DIMALTTD
 70
     2
  9
$DIMTXSTY
  7
Standard
  9
$DIMAUNIT
 70
     0
  9
$DIMADEC
 70
     0
  9
$DIMALTRND
 40
0.0
  9
$DIMAZIN
 70
     0
  9
$DIMDSEP
 70
    46
  9
$DIMATFIT
 70
     3
  9
$DIMFRAC
 70
     0
  9
$DIMLDRBLK
  1

  9
$DIMLUNIT
 70
     2
  9
$DIMLWD
 70
    -2
  9
$DIMLWE
 70
    -2
  9
$DIMTMOVE
 70
     0
  9
$LUNITS
 70
     2
  9
$LUPREC
 70
     4
  9
$SKETCHINC
 40
0.1
  9
$FILLETRAD
 40
0.0
  9
$AUNITS
 70
     0
  9
$AUPREC
 70
     0
  9
$MENU
  1
.
  9
$ELEVATION
 40
0.0
  9
$PELEVATION
 40
0.0
  9
$THICKNESS
 40
0.0
  9
$LIMCHECK
 70
     0
  9
$CHAMFERA
 40
0.0
  9
$CHAMFERB
 40
0.0
  9
$CHAMFERC
 40
0.0
  9
$CHAMFERD
 40
0.0
  9
$SKPOLY
 70
     0
  9
$TDCREATE
 40
2455798.506993843
  9
$TDUCREATE
 40
2455798.423660509
  9
$TDUPDATE
 40
2455798.506993843
  9
$TDUUPDATE
 40
2455798.423660509
  9
$TDINDWG
 40
0.0000162616
  9
$TDUSRTIMER
 40
0.0000162616
  9
$USRTIMER
 70
     1
  9
$ANGBASE
 50
0.0
  9
$ANGDIR
 70
     0
  9
$PDMODE
 70
     0
  9
$PDSIZE
 40
0.0
  9
$PLINEWID
 40
0.0
  9
$SPLFRAME
 70
     0
  9
$SPLINETYPE
 70
     6
  9
$SPLINESEGS
 70
     8
  9
$HANDSEED
  5
2EA
  9
$SURFTAB1
 70
     6
  9
$SURFTAB2
 70
     6
  9
$SURFTYPE
 70
     6
  9
$SURFU
 70
     6
  9
$SURFV
 70
     6
  9
$UCSBASE
  2

  9
$UCSNAME
  2

  9
$UCSORG
 10
0.0
 20
0.0
 30
0.0
  9
$UCSXDIR
 10
1.0
 20
0.0
 30
0.0
  9
$UCSYDIR
 10
0.0
 20
1.0
 30
0.0
  9
$UCSORTHOREF
  2

  9
$UCSORTHOVIEW
 70
     0
  9
$UCSORGTOP
 10
0.0
 20
0.0
 30
0.0
  9
$UCSORGBOTTOM
 10
0.0
 20
0.0
 30
0.0
  9
$UCSORGLEFT
 10
0.0
 20
0.0
 30
0.0
  9
$UCSORGRIGHT
 10
0.0
 20
0.0
 30
0.0
  9
$UCSORGFRONT
 10
0.0
 20
0.0
 30
0.0
  9
$UCSORGBACK
 10
0.0
 20
0.0
 30
0.0
  9
$PUCSBASE
  2

  9
$PUCSNAME
  2

  9
$PUCSORG
 10
0.0
 20
0.0
 30
0.0
  9
$PUCSXDIR
 10
1.0
 20
0.0
 30
0.0
  9
$PUCSYDIR
 10
0.0
 20
1.0
 30
0.0
  9
$PUCSORTHOREF
  2

  9
$PUCSORTHOVIEW
 70
     0
  9
$PUCSORGTOP
 10
0.0
 20
0.0
 30
0.0
  9
$PUCSORGBOTTOM
 10
0.0
 20
0.0
 30
0.0
  9
$PUCSORGLEFT
 10
0.0
 20
0.0
 30
0.0
  9
$PUCSORGRIGHT
 10
0.0
 20
0.0
 30
0.0
  9
$PUCSORGFRONT
 10
0.0
 20
0.0
 30
0.0
  9
$PUCSORGBACK
 10
0.0
 20
0.0
 30
0.0
  9
$USERI1
 70
     0
  9
$USERI2
 70
     0
  9
$USERI3
 70
     0
  9
$USERI4
 70
     0
  9
$USERI5
 70
     0
  9
$USERR1
 40
0.0
  9
$USERR2
 40
0.0
  9
$USERR3
 40
0.0
  9
$USERR4
 40
0.0
  9
$USERR5
 40
0.0
  9
$WORLDVIEW
 70
     1
  9
$SHADEDGE
 70
     3
  9
$SHADEDIF
 70
    70
  9
$TILEMODE
 70
     1
  9
$MAXACTVP
 70
    64
  9
$PINSBASE
 10
0.0
 20
0.0
 30
0.0
  9
$PLIMCHECK
 70
     0
  9
$PEXTMIN
 10
0.0
 20
0.0
 30
0.0
  9
$PEXTMAX
 10
420.0
 20
297.0
 30
0.0
  9
$PLIMMIN
 10
0.0
 20
0.0
  9
$PLIMMAX
 10
420.0
 20
297.0
  9
$UNITMODE
 70
     0
  9
$VISRETAIN
 70
     1
  9
$PLINEGEN
 70
     0
  9
$PSLTSCALE
 70
     1
  9
$TREEDEPTH
 70
  3020
  9
$CMLSTYLE
  2
Standard
  9
$CMLJUST
 70
     0
  9
$CMLSCALE
 40
1.0
  9
$PROXYGRAPHICS
 70
     1
  9
$MEASUREMENT
 70
     1
  9
$CELWEIGHT
370
    -1
  9
$ENDCAPS
280
     0
  9
$JOINSTYLE
280
     0
  9
$LWDISPLAY
290
     0
  9
$INSUNITS
 70
     4
  9
$HYPERLINKBASE
  1

  9
$STYLESHEET
  1

  9
$XEDIT
290
     1
  9
$CEPSNTYPE
380
     0
  9
$PSTYLEMODE
290
     1
  9
$FINGERPRINTGUID
  2
{81F48EC0-26C4-4961-AA2E-8C8DFF5814B2}
  9
$VERSIONGUID
  2
{D6D48374-6E36-4A4D-86D8-BCEE5FCB10D0}
  9
$EXTNAMES
290
     1
  9
$PSVPSCALE
 40
0.0
  9
$OLESTARTUP
290
     0
  0
ENDSEC
  0
SECTION
  2
CLASSES
  0
CLASS
  1
ACDBDICTIONARYWDFLT
  2
AcDbDictionaryWithDefault
  3
ObjectDBX Classes
 90
        0
280
     0
281
     0
  0
CLASS
  1
MATERIAL
  2
AcDbMaterial
  3
ObjectDBX Classes
 90
     1153
280
     0
281
     0
  0
CLASS
  1
VISUALSTYLE
  2
AcDbVisualStyle
  3
ObjectDBX Classes
 90
     4095
280
     0
281
     0
  0
CLASS
  1
SCALE
  2
AcDbScale
  3
ObjectDBX Classes
 90
     1153
280
     0
281
     0
  0
CLASS
  1
TABLESTYLE
  2
AcDbTableStyle
  3
ObjectDBX Classes
 90
     4095
280
     0
281
     0
  0
CLASS
  1
MLEADERSTYLE
  2
AcDbMLeaderStyle
  3
ACDB_MLEADERSTYLE_CLASS
 90
     4095
280
     0
281
     0
  0
CLASS
  1
DICTIONARYVAR
  2
AcDbDictionaryVar
  3
ObjectDBX Classes
 90
        0
280
     0
281
     0
  0
CLASS
  1
CELLSTYLEMAP
  2
AcDbCellStyleMap
  3
ObjectDBX Classes
 90
     1152
280
     0
281
     0
  0
CLASS
  1
ACDBPLACEHOLDER
  2
AcDbPlaceHolder
  3
ObjectDBX Classes
 90
        0
280
     0
281
     0
  0
CLASS
  1
LAYOUT
  2
AcDbLayout
  3
ObjectDBX Classes
 90
        0
280
     0
281
     0
  0
ENDSEC
  0
SECTION
  2
TABLES
  0
TABLE
  2
VPORT
  5
8
330
0
100
AcDbSymbolTable
 70
     1
  0
VPORT
  5
57
330
8
100
AcDbSymbolTableRecord
100
AcDbViewportTableRecord
  2
*Active
 70
     0
 10
0.0
 20
0.0
 11
1.0
 21
1.0
 12
210.0
 22
148.5
 13
0.0
 23
0.0
 14
1.0
 24
1.0
 15
0.0
 25
0.0
 16
0.0
 26
0.0
 36
1.0
 17
0.0
 27
0.0
 37
0.0
 40
297.0
 41
1.414141414141414
 42
50.0
 43
0.0
 44
0.0
 50
0.0
 51
0.0
 71
     0
 72
   100
 73
     1
 74
     1
 75
     0
 76
     0
 77
     0
 78
     0
281
     0
 65
     1
110
0.0
120
0.0
130
0.0
111
1.0
121
0.0
131
0.0
112
0.0
122
1.0
132
0.0
 79
     0
146
0.0
  0
ENDTAB
  0
TABLE
  2
LTYPE
  5
5
330
0
100
AcDbSymbolTable
 70
     1
  0
LTYPE
  5
5B
330
5
100
AcDbSymbolTableRecord
100
AcDbLinetypeTableRecord
  2
ByBlock
 70
     0
  3

 72
    65
 73
     0
 40
0.0
  0
LTYPE
  5
5C
330
5
100
AcDbSymbolTableRecord
100
AcDbLinetypeTableRecord
  2
ByLayer
 70
     0
  3

 72
    65
 73
     0
 40
0.0
  0
LTYPE
  5
5D
330
5
100
AcDbSymbolTableRecord
100
AcDbLinetypeTableRecord
  2
Continuous
 70
     0
  3
Solid line
 72
    65
 73
     0
 40
0.0
  0
ENDTAB
  0
TABLE
  2
LAYER
  5
2
330
0
100
AcDbSymbolTable
 70
    33
  0
LAYER
  5
54
330
2
100
AcDbSymbolTableRecord
100
AcDbLayerTableRecord
  2
0
 70
     0
 62
     7
  6
Continuous
370
    -3
390
F
  0
LAYER
  5
88
330
2
100
AcDbSymbolTableRecord
100
AcDbLayerTableRecord
  2
Sichtbare Kanten(DIN)
 70
     0
 62
     7
  6
Continuous
370
    50
390
F
  0
ENDTAB
  0
TABLE
  2
STYLE
  5
3
330
0
100
AcDbSymbolTable
 70
     9
  0
STYLE
  5
55
330
3
100
AcDbSymbolTableRecord
100
AcDbTextStyleTableRecord
  2
Standard
 70
     0
 40
0.0
 41
1.0
 50
0.0
 71
     0
 42
0.2
  3
arial.ttf
  4

1001
ACAD
1000
Arial
1071
      256
  0
STYLE
  5
5A
330
3
100
AcDbSymbolTableRecord
100
AcDbTextStyleTableRecord
  2
Annotative
 70
     0
 40
0.0
 41
1.0
 50
0.0
 71
     0
 42
0.2
  3
txt
  4

1001
AcadAnnotative
1000
AnnotativeData
1002
{
1070
     1
1070
     1
1002
}
  0
STYLE
  5
94
330
3
100
AcDbSymbolTableRecord
100
AcDbTextStyleTableRecord
  2
Aktuell-BSI
 70
     0
 40
0.0
 41
1.0
 50
0.0
 71
     0
 42
0.2
  3
arial.ttf
  4

1001
ACAD
1000
Arial
1071
      256
  0
STYLE
  5
95
330
3
100
AcDbSymbolTableRecord
100
AcDbTextStyleTableRecord
  2
Aktuell-DIN
 70
     0
 40
0.0
 41
0.899999976158142
 50
0.0
 71
     0
 42
0.2
  3
arial.ttf
  4

1001
ACAD
1000
Arial
1071
      256
  0
STYLE
  5
96
330
3
100
AcDbSymbolTableRecord
100
AcDbTextStyleTableRecord
  2
STANDARD-DIN
 70
     0
 40
0.0
 41
1.0
 50
0.0
 71
     0
 42
0.2
  3
arial.ttf
  4

1001
ACAD
1000
Arial
1071
      256
  0
STYLE
  5
97
330
3
100
AcDbSymbolTableRecord
100
AcDbTextStyleTableRecord
  2
STANDARD-DINNach Layer
 70
     0
 40
0.0
 41
1.0
 50
0.0
 71
     0
 42
0.2
  3
arial.ttf
  4

1001
ACAD
1000
Arial
1071
      256
  0
STYLE
  5
98
330
3
100
AcDbSymbolTableRecord
100
AcDbTextStyleTableRecord
  2
STANDARDGroßer Text
 70
     0
 40
0.0
 41
1.0
 50
0.0
 71
     0
 42
0.2
  3
arial.ttf
  4

1001
ACAD
1000
Arial
1071
      256
  0
STYLE
  5
99
330
3
100
AcDbSymbolTableRecord
100
AcDbTextStyleTableRecord
  2
STANDARDNach Layer
 70
     0
 40
0.0
 41
1.0
 50
0.0
 71
     0
 42
0.2
  3
arial.ttf
  4

1001
ACAD
1000
Arial
1071
      256
  0
STYLE
  5
9A
330
3
100
AcDbSymbolTableRecord
100
AcDbTextStyleTableRecord
  2
StüLiDaten
 70
     0
 40
0.0
 41
1.0
 50
0.0
 71
     0
 42
0.2
  3
arial.ttf
  4

1001
ACAD
1000
Arial
1071
      256
  0
ENDTAB
  0
TABLE
  2
VIEW
  5
6
330
0
100
AcDbSymbolTable
 70
     0
  0
ENDTAB
  0
TABLE
  2
UCS
  5
7
330
0
100
AcDbSymbolTable
 70
     0
  0
ENDTAB
  0
TABLE
  2
APPID
  5
9
330
0
100
AcDbSymbolTable
 70
     3
  0
APPID
  5
56
330
9
100
AcDbSymbolTableRecord
100
AcDbRegAppTableRecord
  2
ACAD
 70
     0
  0
APPID
  5
5E
330
9
100
AcDbSymbolTableRecord
100
AcDbRegAppTableRecord
  2
AcadAnnotative
 70
     0
  0
APPID
  5
2E3
330
9
100
AcDbSymbolTableRecord
100
AcDbRegAppTableRecord
  2
ACAD_MLEADERVER
 70
     0
  0
ENDTAB
  0
TABLE
  2
DIMSTYLE
  5
A
330
0
100
AcDbSymbolTable
 70
    10
100
AcDbDimStyleTable
 71
     0
  0
DIMSTYLE
105
58
330
A
100
AcDbSymbolTableRecord
100
AcDbDimStyleTableRecord
  2
Standard
 70
     0
340
55
  0
DIMSTYLE
105
59
330
A
100
AcDbSymbolTableRecord
100
AcDbDimStyleTableRecord
  2
Annotative
 70
     0
340
55
1001
AcadAnnotative
1000
AnnotativeData
1002
{
1070
     1
1070
     1
1002
}
  0
DIMSTYLE
105
9B
330
A
100
AcDbSymbolTableRecord
100
AcDbDimStyleTableRecord
  2
DIN - Andere
 70
     0
 41
2.5
 42
0.0
 43
5.999999999999999
 44
3.174999999999999
 45
0.00000001
 46
10.0
 73
     0
 74
     0
 77
     1
 78
     8
 79
     2
140
3.5
143
0.03937
147
0.8
171
     3
172
     1
176
     7
177
     7
178
     7
271
     2
272
     2
274
     3
278
    44
284
     8
286
     8
340
94
371
    25
372
    25
  0
DIMSTYLE
105
9C
330
A
100
AcDbSymbolTableRecord
100
AcDbDimStyleTableRecord
  2
DIN - Andere$7
 70
     0
 41
2.5
 42
0.0
 43
5.999999999999999
 44
3.174999999999999
 45
0.00000001
 46
10.0
 73
     0
 74
     0
 77
     1
 78
     8
 79
     2
140
3.5
143
0.03937
147
0.8
171
     3
172
     1
176
     7
177
     7
178
     7
271
     2
272
     2
274
     3
278
    44
284
     8
286
     8
340
94
371
    25
372
    25
  0
DIMSTYLE
105
9D
330
A
100
AcDbSymbolTableRecord
100
AcDbDimStyleTableRecord
  2
DIN - AndereGroßer Text
 70
     0
 41
5.0
 42
0.0
 43
5.999999999999999
 44
3.174999999999999
 45
0.00000001
 46
10.0
 73
     0
 74
     0
 77
     1
 78
     8
 79
     2
140
3.75
143
0.03937
146
0.9333333373069763
147
0.8
171
     3
172
     1
176
     7
177
     7
178
     7
271
     2
272
     2
274
     3
278
    44
284
     8
286
     8
340
98
371
    25
372
    25
  0
DIMSTYLE
105
9E
330
A
100
AcDbSymbolTableRecord
100
AcDbDimStyleTableRecord
  2
DIN - AndereGroßer Text$7
 70
     0
 41
5.0
 42
0.0
 43
5.999999999999999
 44
3.174999999999999
 45
0.00000001
 46
10.0
 73
     0
 74
     0
 77
     1
 78
     8
 79
     2
140
3.75
143
0.03937
146
0.9333333373069763
147
0.8
171
     3
172
     1
176
     7
177
     7
178
     7
271
     2
272
     2
274
     3
278
    44
284
     8
286
     8
340
98
371
    25
372
    25
  0
DIMSTYLE
105
9F
330
A
100
AcDbSymbolTableRecord
100
AcDbDimStyleTableRecord
  2
Führungslinie-Ursprungsindikator(DIN)
 70
     0
 41
2.5
340
55
342
A0
  0
DIMSTYLE
105
B1
330
A
100
AcDbSymbolTableRecord
100
AcDbDimStyleTableRecord
  2
Führungslinie - Bezugsstelle(DIN)
 70
     0
 41
2.5
340
55
342
A0
  0
DIMSTYLE
105
B2
330
A
100
AcDbSymbolTableRecord
100
AcDbDimStyleTableRecord
  2
Führungslinie - Punkt(DIN)
 70
     0
 41
2.5
340
55
342
A0
  0
DIMSTYLE
105
B3
330
A
100
AcDbSymbolTableRecord
100
AcDbDimStyleTableRecord
  2
Führungslinie(DIN)
 70
     0
 41
2.5
340
55
342
A0
  0
ENDTAB
  0
TABLE
  2
BLOCK_RECORD
  5
1
330
0
100
AcDbSymbolTable
 70
     3
  0
BLOCK_RECORD
  5
6C
330
1
100
AcDbSymbolTableRecord
100
AcDbBlockTableRecord
  2
*Model_Space
340
6F
  0
BLOCK_RECORD
  5
68
330
1
100
AcDbSymbolTableRecord
100
AcDbBlockTableRecord
  2
*Paper_Space
340
6B
  0
BLOCK_RECORD
  5
70
330
1
100
AcDbSymbolTableRecord
100
AcDbBlockTableRecord
  2
*Paper_Space0
340
73
  0
BLOCK_RECORD
  5
A0
330
1
100
AcDbSymbolTableRecord
100
AcDbBlockTableRecord
  2
_Closed
340
0
  0
BLOCK_RECORD
  5
A7
330
1
100
AcDbSymbolTableRecord
100
AcDbBlockTableRecord
  2
DatumFilled45
340
0
  0
ENDTAB
  0
ENDSEC
  0
SECTION
  2
BLOCKS
  0
BLOCK
  5
6D
330
6C
100
AcDbEntity
  8
0
100
AcDbBlockBegin
  2
*Model_Space
 70
     0
 10
0.0
 20
0.0
 30
0.0
  3
*Model_Space
  1

  0
ENDBLK
  5
6E
330
6C
100
AcDbEntity
  8
0
100
AcDbBlockEnd
  0
BLOCK
  5
69
330
68
100
AcDbEntity
 67
     1
  8
0
100
AcDbBlockBegin
  2
*Paper_Space
 70
     0
 10
0.0
 20
0.0
 30
0.0
  3
*Paper_Space
  1

  0
ENDBLK
  5
6A
330
68
100
AcDbEntity
 67
     1
  8
0
100
AcDbBlockEnd
  0
BLOCK
  5
71
330
70
100
AcDbEntity
 67
     1
  8
0
100
AcDbBlockBegin
  2
*Paper_Space0
 70
     0
 10
0.0
 20
0.0
 30
0.0
  3
*Paper_Space0
  1

  0
ENDBLK
  5
72
330
70
100
AcDbEntity
 67
     1
  8
0
100
AcDbBlockEnd
  0
BLOCK
  5
A5
330
A0
100
AcDbEntity
  8
0
100
AcDbBlockBegin
  2
_Closed
 70
     0
 10
0.0
 20
0.0
 30
0.0
  3
_Closed
  1

  0
LINE
  5
A1
330
A0
100
AcDbEntity
  8
0
  6
ByBlock
 62
     0
370
    -2
100
AcDbLine
 10
-1.0
 20
0.1666666666666666
 30
0.0
 11
0.0
 21
0.0
 31
0.0
  0
LINE
  5
A2
330
A0
100
AcDbEntity
  8
0
  6
ByBlock
 62
     0
370
    -2
100
AcDbLine
 10
0.0
 20
0.0
 30
0.0
 11
-1.0
 21
-0.1666666666666666
 31
0.0
  0
LINE
  5
A3
330
A0
100
AcDbEntity
  8
0
  6
ByBlock
 62
     0
370
    -2
100
AcDbLine
 10
-1.0
 20
0.1666666666666666
 30
0.0
 11
-1.0
 21
-0.1666666666666666
 31
0.0
  0
LINE
  5
A4
330
A0
100
AcDbEntity
  8
0
  6
ByBlock
 62
     0
370
    -2
100
AcDbLine
 10
0.0
 20
0.0
 30
0.0
 11
-1.0
 21
0.0
 31
0.0
  0
ENDBLK
  5
A6
330
A0
100
AcDbEntity
  8
0
100
AcDbBlockEnd
  0
BLOCK
  5
A8
330
A7
100
AcDbEntity
  8
0
100
AcDbBlockBegin
  2
DatumFilled45
 70
     0
 10
0.0
 20
0.0
 30
0.0
  3
DatumFilled45
  1

  0
POLYLINE
  5
AA
330
A7
100
AcDbEntity
  8
0
 62
     0
100
AcDb2dPolyline
 66
     1
 10
0.0
 20
0.0
 30
0.0
 70
   128
  0
VERTEX
  5
AB
330
AA
100
AcDbEntity
  8
0
 62
     0
100
AcDbVertex
100
AcDb2dVertex
 10
0.0
 20
1.0
 30
0.0
  0
VERTEX
  5
AC
330
AA
100
AcDbEntity
  8
0
 62
     0
100
AcDbVertex
100
AcDb2dVertex
 10
0.0
 20
-1.0
 30
0.0
  0
VERTEX
  5
AE
330
AA
100
AcDbEntity
  8
0
 62
     0
100
AcDbVertex
100
AcDb2dVertex
 10
-1.0
 20
0.0
 30
0.0
  0
VERTEX
  5
AF
330
AA
100
AcDbEntity
  8
0
 62
     0
100
AcDbVertex
100
AcDb2dVertex
 10
0.0
 20
1.0
 30
0.0
  0
SEQEND
  5
AD
330
AA
100
AcDbEntity
  8
0
 62
     0
  0
SOLID
  5
B0
330
A7
100
AcDbEntity
  8
0
 62
     0
100
AcDbTrace
 10
0.0
 20
1.0
 30
0.0
 11
0.0
 21
-1.0
 31
0.0
 12
-1.0
 22
0.0
 32
0.0
 13
0.0
 23
1.0
 33
0.0
  0
ENDBLK
  5
A9
330
A7
100
AcDbEntity
  8
0
100
AcDbBlockEnd
  0
ENDSEC
  0
SECTION
  2
ENTITIES
  0
ARC
  5
B4
330
6C
100
AcDbEntity
  8
Sichtbare Kanten(DIN)
100
AcDbCircle
 10
149.1893580128976
 20
258.1308093134897
 30
0.0
 40
2.499999999999964
100
AcDbArc
 50
89.99999999999674
 51
180.0
  0
ARC
  5
B5
330
6C
100
AcDbEntity
  8
Sichtbare Kanten(DIN)
100
AcDbCircle
 10
149.1893580128975
 20
258.1308093134897
 30
0.0
 40
4.99999999999997
100
AcDbArc
 50
89.99999999999836
 51
177.5327331637697
  0
LINE
  5
B6
330
6C
100
AcDbEntity
  8
Sichtbare Kanten(DIN)
100
AcDbLine
 10
155.5141149001571
 20
260.6308093134896
 30
0.0
 11
150.5141149001575
 21
260.6308093134896
 31
0.0
  0
LINE
  5
B7
330
6C
100
AcDbEntity
  8
Sichtbare Kanten(DIN)
100
AcDbLine
 10
150.5141149001575
 20
263.1308093134896
 30
0.0
 11
155.5141149001572
 21
263.1308093134896
 31
0.0
  0
LINE
  5
B8
330
6C
100
AcDbEntity
  8
Sichtbare Kanten(DIN)
100
AcDbLine
 10
93.75508735110274
 20
263.1308093134732
 30
0.0
 11
98.7550873511207
 21
263.1308093134698
 31
0.0
  0
LINE
  5
B9
330
6C
100
AcDbEntity
  8
Sichtbare Kanten(DIN)
100
AcDbLine
 10
155.5141149001572
 20
260.6308093134896
 30
0.0
 11
155.5141149001572
 21
263.1308093134896
 31
0.0
  0
LINE
  5
BA
330
6C
100
AcDbEntity
  8
Sichtbare Kanten(DIN)
100
AcDbLine
 10
93.75508735110273
 20
263.1308093134732
 30
0.0
 11
93.75508735110276
 21
260.6308093134732
 31
0.0
  0
LINE
  5
BB
330
6C
100
AcDbEntity
  8
Sichtbare Kanten(DIN)
100
AcDbLine
 10
98.75508735112072
 20
260.6308093134699
 30
0.0
 11
93.75508735110278
 21
260.6308093134733
 31
0.0
  0
LINE
  5
BC
330
6C
100
AcDbEntity
  8
Sichtbare Kanten(DIN)
100
AcDbLine
 10
150.5141149001575
 20
260.6308093134896
 30
0.0
 11
149.1893580128976
 21
260.6308093134896
 31
0.0
  0
LINE
  5
BD
330
6C
100
AcDbEntity
  8
Sichtbare Kanten(DIN)
100
AcDbLine
 10
149.1893580128976
 20
263.1308093134896
 30
0.0
 11
150.5141149001575
 21
263.1308093134896
 31
0.0
  0
LINE
  5
BE
330
6C
100
AcDbEntity
  8
Sichtbare Kanten(DIN)
100
AcDbLine
 10
98.75508735112077
 20
263.1308093134699
 30
0.0
 11
100.0798442383788
 21
263.13080931347
 31
0.0
  0
LINE
  5
BF
330
6C
100
AcDbEntity
  8
Sichtbare Kanten(DIN)
100
AcDbLine
 10
146.6893580128976
 20
258.1308093134897
 30
0.0
 11
146.6893580128976
 21
257.04605242623
 31
0.0
  0
LINE
  5
C0
330
6C
100
AcDbEntity
  8
Sichtbare Kanten(DIN)
100
AcDbLine
 10
141.6893580128976
 20
22.74605242623001
 30
0.0
 11
135.334601125638
 21
22.74605242623001
 31
0.0
  0
LINE
  5
C1
330
6C
100
AcDbEntity
  8
Sichtbare Kanten(DIN)
100
AcDbLine
 10
141.6893580128976
 20
258.34605242623
 30
0.0
 11
135.3346011256356
 21
258.34605242623
 31
0.0
  0
LINE
  5
C2
330
6C
100
AcDbEntity
  8
Sichtbare Kanten(DIN)
100
AcDbLine
 10
113.9346011256355
 20
258.34605242623
 30
0.0
 11
107.5798442383787
 21
258.34605242623
 31
0.0
  0
LINE
  5
C3
330
6C
100
AcDbEntity
  8
Sichtbare Kanten(DIN)
100
AcDbLine
 10
102.5798442383787
 20
257.04605242623
 30
0.0
 11
102.5798442383787
 21
258.1308093134698
 31
0.0
  0
LINE
  5
C4
330
6C
100
AcDbEntity
  8
Sichtbare Kanten(DIN)
100
AcDbLine
 10
113.934601125638
 20
22.74605242623005
 30
0.0
 11
107.5798442383784
 21
22.74605242623005
 31
0.0
  0
LINE
  5
C5
330
6C
100
AcDbEntity
  8
Sichtbare Kanten(DIN)
100
AcDbLine
 10
100.0798442383787
 20
260.6308093134699
 30
0.0
 11
98.75508735112072
 21
260.6308093134699
 31
0.0
  0
LINE
  5
C6
330
6C
100
AcDbEntity
  8
Sichtbare Kanten(DIN)
100
AcDbLine
 10
105.0798442383786
 20
222.34605242623
 30
0.0
 11
105.0798442383787
 21
226.54605242623
 31
0.0
  0
LINE
  5
C7
330
6C
100
AcDbEntity
  8
Sichtbare Kanten(DIN)
100
AcDbLine
 10
105.0798442383785
 20
63.74605242623005
 30
0.0
 11
105.0798442383785
 21
67.94605242623005
 31
0.0
  0
ARC
  5
C8
330
6C
100
AcDbEntity
  8
Sichtbare Kanten(DIN)
100
AcDbCircle
 10
127.1346011256381
 20
63.74605242622999
 30
0.0
 40
4.200000000000009
100
AcDbArc
 50
0.0
 51
90.0
  0
LINE
  5
C9
330
6C
100
AcDbEntity
  8
Sichtbare Kanten(DIN)
100
AcDbLine
 10
102.5798442383787
 20
226.54605242623
 30
0.0
 11
102.5798442383787
 21
222.34605242623
 31
0.0
  0
LINE
  5
CA
330
6C
100
AcDbEntity
  8
Sichtbare Kanten(DIN)
100
AcDbLine
 10
102.5798442383785
 20
67.94605242623005
 30
0.0
 11
102.5798442383785
 21
63.74605242623006
 31
0.0
  0
LINE
  5
CB
330
6C
100
AcDbEntity
  8
Sichtbare Kanten(DIN)
100
AcDbLine
 10
105.0798442383787
 20
222.3460524262301
 30
0.0
 11
105.0798442383787
 21
213.14605242623
 31
0.0
  0
LINE
  5
CC
330
6C
100
AcDbEntity
  8
Sichtbare Kanten(DIN)
100
AcDbLine
 10
124.7346011256355
 20
213.14605242623
 30
0.0
 11
107.5798442383786
 21
213.14605242623
 31
0.0
  0
LINE
  5
CD
330
6C
100
AcDbEntity
  8
Sichtbare Kanten(DIN)
100
AcDbLine
 10
131.3346011256356
 20
254.34605242623
 30
0.0
 11
131.3346011256355
 21
219.74605242623
 31
0.0
  0
LINE
  5
CE
330
6C
100
AcDbEntity
  8
Sichtbare Kanten(DIN)
100
AcDbLine
 10
107.5798442383787
 20
226.54605242623
 30
0.0
 11
114.1346011256355
 21
226.54605242623
 31
0.0
  0
LINE
  5
CF
330
6C
100
AcDbEntity
  8
Sichtbare Kanten(DIN)
100
AcDbLine
 10
117.9346011256356
 20
230.34605242623
 30
0.0
 11
117.9346011256355
 21
254.3460524262301
 31
0.0
  0
LINE
  5
D0
330
6C
100
AcDbEntity
  8
Sichtbare Kanten(DIN)
100
AcDbLine
 10
102.5798442383786
 20
213.14605242623
 30
0.0
 11
102.5798442383786
 21
222.3460524262301
 31
0.0
  0
LINE
  5
D1
330
6C
100
AcDbEntity
  8
Sichtbare Kanten(DIN)
100
AcDbLine
 10
105.0798442383785
 20
63.74605242623005
 30
0.0
 11
105.0798442383785
 21
54.54605242623003
 31
0.0
  0
LINE
  5
D2
330
6C
100
AcDbEntity
  8
Sichtbare Kanten(DIN)
100
AcDbLine
 10
107.5798442383785
 20
67.94605242623004
 30
0.0
 11
127.1346011256381
 21
67.94605242622999
 31
0.0
  0
LINE
  5
D3
330
6C
100
AcDbEntity
  8
Sichtbare Kanten(DIN)
100
AcDbLine
 10
131.3346011256381
 20
63.74605242623001
 30
0.0
 11
131.334601125638
 21
26.74605242623003
 31
0.0
  0
LINE
  5
D4
330
6C
100
AcDbEntity
  8
Sichtbare Kanten(DIN)
100
AcDbLine
 10
102.5798442383784
 20
54.54605242623003
 30
0.0
 11
102.5798442383785
 21
63.74605242623005
 31
0.0
  0
LINE
  5
D5
330
6C
100
AcDbEntity
  8
Sichtbare Kanten(DIN)
100
AcDbLine
 10
116.134601125638
 20
54.54605242623003
 30
0.0
 11
107.5798442383785
 21
54.54605242623003
 31
0.0
  0
LINE
  5
D6
330
6C
100
AcDbEntity
  8
Sichtbare Kanten(DIN)
100
AcDbLine
 10
117.934601125638
 20
26.74605242623003
 30
0.0
 11
117.934601125638
 21
52.74605242623003
 31
0.0
  0
ARC
  5
D7
330
6C
100
AcDbEntity
  8
Sichtbare Kanten(DIN)
100
AcDbCircle
 10
100.0798442383787
 20
258.1308093134699
 30
0.0
 40
5.0
100
AcDbArc
 50
2.467266836460522
 51
89.99999999999959
  0
ARC
  5
D8
330
6C
100
AcDbEntity
  8
Sichtbare Kanten(DIN)
100
AcDbCircle
 10
100.0798442383787
 20
258.1308093134698
 30
0.0
 40
2.500000000000024
100
AcDbArc
 50
0.0
 51
89.9999999999992
  0
LINE
  5
D9
330
6C
100
AcDbEntity
  8
Sichtbare Kanten(DIN)
100
AcDbLine
 10
146.6893580128976
 20
257.0460524262301
 30
0.0
 11
146.6893580128976
 21
22.74605242623
 31
0.0
  0
LINE
  5
DA
330
6C
100
AcDbEntity
  8
Sichtbare Kanten(DIN)
100
AcDbLine
 10
146.0316018898168
 20
257.0460524262298
 30
0.0
 11
146.0316018898168
 21
258.34605242623
 31
0.0
  0
LINE
  5
DB
330
6C
100
AcDbEntity
  8
Sichtbare Kanten(DIN)
100
AcDbLine
 10
141.6893580128976
 20
258.3460524262299
 30
0.0
 11
146.0316018898168
 21
258.3460524262301
 31
0.0
  0
LINE
  5
DC
330
6C
100
AcDbEntity
  8
Sichtbare Kanten(DIN)
100
AcDbLine
 10
146.6893580128976
 20
22.74605242623
 30
0.0
 11
141.6893580128976
 21
22.74605242623
 31
0.0
  0
LINE
  5
DD
330
6C
100
AcDbEntity
  8
Sichtbare Kanten(DIN)
100
AcDbLine
 10
146.0316018898168
 20
257.0460524262301
 30
0.0
 11
146.6893580128976
 21
257.0460524262301
 31
0.0
  0
LINE
  5
DE
330
6C
100
AcDbEntity
  8
Sichtbare Kanten(DIN)
100
AcDbLine
 10
107.5798442383785
 20
67.94605242622998
 30
0.0
 11
102.5798442383785
 21
67.94605242623004
 31
0.0
  0
LINE
  5
DF
330
6C
100
AcDbEntity
  8
Sichtbare Kanten(DIN)
100
AcDbLine
 10
102.5798442383787
 20
213.14605242623
 30
0.0
 11
107.5798442383787
 21
213.14605242623
 31
0.0
  0
LINE
  5
E0
330
6C
100
AcDbEntity
  8
Sichtbare Kanten(DIN)
100
AcDbLine
 10
107.5798442383787
 20
226.5460524262303
 30
0.0
 11
102.5798442383787
 21
226.54605242623
 31
0.0
  0
LINE
  5
E1
330
6C
100
AcDbEntity
  8
Sichtbare Kanten(DIN)
100
AcDbLine
 10
103.237600361456
 20
258.34605242623
 30
0.0
 11
107.5798442383787
 21
258.34605242623
 31
0.0
  0
LINE
  5
E2
330
6C
100
AcDbEntity
  8
Sichtbare Kanten(DIN)
100
AcDbLine
 10
102.5798442383787
 20
257.0460524262301
 30
0.0
 11
103.237600361456
 21
257.04605242623
 31
0.0
  0
LINE
  5
E3
330
6C
100
AcDbEntity
  8
Sichtbare Kanten(DIN)
100
AcDbLine
 10
102.5798442383785
 20
54.54605242623004
 30
0.0
 11
107.5798442383784
 21
54.54605242623003
 31
0.0
  0
LINE
  5
E4
330
6C
100
AcDbEntity
  8
Sichtbare Kanten(DIN)
100
AcDbLine
 10
102.5798442383784
 20
22.74605242623005
 30
0.0
 11
102.5798442383785
 21
54.54605242623003
 31
0.0
  0
LINE
  5
E5
330
6C
100
AcDbEntity
  8
Sichtbare Kanten(DIN)
100
AcDbLine
 10
102.5798442383785
 20
67.94605242623004
 30
0.0
 11
102.5798442383787
 21
213.14605242623
 31
0.0
  0
LINE
  5
E6
330
6C
100
AcDbEntity
  8
Sichtbare Kanten(DIN)
100
AcDbLine
 10
102.5798442383787
 20
226.54605242623
 30
0.0
 11
102.5798442383787
 21
257.0460524262301
 31
0.0
  0
LINE
  5
E7
330
6C
100
AcDbEntity
  8
Sichtbare Kanten(DIN)
100
AcDbLine
 10
107.5798442383784
 20
22.74605242623004
 30
0.0
 11
102.5798442383784
 21
22.74605242623004
 31
0.0
  0
LINE
  5
E8
330
6C
100
AcDbEntity
  8
Sichtbare Kanten(DIN)
100
AcDbLine
 10
103.237600361456
 20
258.3460524262305
 30
0.0
 11
103.237600361456
 21
257.0460524262301
 31
0.0
  0
ARC
  5
E9
330
6C
100
AcDbEntity
  8
Sichtbare Kanten(DIN)
100
AcDbCircle
 10
135.334601125638
 20
26.74605242623002
 30
0.0
 40
4.000000000000001
100
AcDbArc
 50
180.0
 51
270.0
  0
ARC
  5
EA
330
6C
100
AcDbEntity
  8
Sichtbare Kanten(DIN)
100
AcDbCircle
 10
135.3346011256356
 20
254.3460524262301
 30
0.0
 40
3.999999999999976
100
AcDbArc
 50
89.99999999999975
 51
180.0
  0
ARC
  5
EB
330
6C
100
AcDbEntity
  8
Sichtbare Kanten(DIN)
100
AcDbCircle
 10
113.9346011256355
 20
254.34605242623
 30
0.0
 40
3.999999999999985
100
AcDbArc
 50
0.0
 51
90.00000000000024
  0
ARC
  5
EC
330
6C
100
AcDbEntity
  8
Sichtbare Kanten(DIN)
100
AcDbCircle
 10
113.934601125638
 20
26.74605242623004
 30
0.0
 40
4.000000000000011
100
AcDbArc
 50
270.0
 51
0.0
  0
ARC
  5
ED
330
6C
100
AcDbEntity
  8
Sichtbare Kanten(DIN)
100
AcDbCircle
 10
124.7346011256355
 20
219.74605242623
 30
0.0
 40
6.600000000000002
100
AcDbArc
 50
269.9999999999998
 51
0.0
  0
ARC
  5
EE
330
6C
100
AcDbEntity
  8
Sichtbare Kanten(DIN)
100
AcDbCircle
 10
114.1346011256355
 20
230.34605242623
 30
0.0
 40
3.800000000000032
100
AcDbArc
 50
270.0000000000002
 51
0.0
  0
ARC
  5
EF
330
6C
100
AcDbEntity
  8
Sichtbare Kanten(DIN)
100
AcDbCircle
 10
116.134601125638
 20
52.74605242623005
 30
0.0
 40
1.799999999999988
100
AcDbArc
 50
0.0
 51
90.0000000000011
  0
LINE
  5
F0
330
6C
100
AcDbEntity
  8
Sichtbare Kanten(DIN)
100
AcDbLine
 10
113.934601125638
 20
22.74605242622993
 30
0.0
 11
135.334601125638
 21
22.74605242622993
 31
0.0
  0
ARC
  5
F1
330
6C
100
AcDbEntity
  8
Sichtbare Kanten(DIN)
100
AcDbCircle
 10
124.0798442383787
 20
258.24605242623
 30
0.0
 40
3.0
100
AcDbArc
 50
180.0
 51
0.0
  0
LINE
  5
F2
330
6C
100
AcDbEntity
  8
Sichtbare Kanten(DIN)
100
AcDbLine
 10
146.6893580128976
 20
29.33178176445168
 30
0.0
 11
146.8798442383787
 21
29.04605242622995
 31
0.0
  0
LINE
  5
F3
330
6C
100
AcDbEntity
  8
Sichtbare Kanten(DIN)
100
AcDbLine
 10
146.8798442383787
 20
29.04605242622995
 30
0.0
 11
149.2798442383787
 21
29.04605242622995
 31
0.0
  0
ARC
  5
F4
330
6C
100
AcDbEntity
  8
Sichtbare Kanten(DIN)
100
AcDbCircle
 10
144.8109667242876
 20
33.0646633509215
 30
0.0
 40
6.010000000000015
100
AcDbArc
 50
318.0367303767586
 51
71.78737063348809
  0
LINE
  5
F5
330
6C
100
AcDbEntity
  8
Sichtbare Kanten(DIN)
100
AcDbLine
 10
146.6893580128976
 20
79.33178176445167
 30
0.0
 11
146.8798442383787
 21
79.04605242622995
 31
0.0
  0
LINE
  5
F6
330
6C
100
AcDbEntity
  8
Sichtbare Kanten(DIN)
100
AcDbLine
 10
146.8798442383787
 20
79.04605242622995
 30
0.0
 11
149.2798442383787
 21
79.04605242622995
 31
0.0
  0
ARC
  5
F7
330
6C
100
AcDbEntity
  8
Sichtbare Kanten(DIN)
100
AcDbCircle
 10
144.8109667242875
 20
83.06466335092151
 30
0.0
 40
6.010000000000021
100
AcDbArc
 50
318.0367303767587
 51
71.78737063348792
  0
LINE
  5
F8
330
6C
100
AcDbEntity
  8
Sichtbare Kanten(DIN)
100
AcDbLine
 10
146.6893580128976
 20
138.3317817644516
 30
0.0
 11
146.8798442383787
 21
138.04605242623
 31
0.0
  0
LINE
  5
F9
330
6C
100
AcDbEntity
  8
Sichtbare Kanten(DIN)
100
AcDbLine
 10
146.8798442383787
 20
138.04605242623
 30
0.0
 11
149.2798442383787
 21
138.04605242623
 31
0.0
  0
ARC
  5
FA
330
6C
100
AcDbEntity
  8
Sichtbare Kanten(DIN)
100
AcDbCircle
 10
144.8109667242875
 20
142.0646633509215
 30
0.0
 40
6.009999999999998
100
AcDbArc
 50
318.036730376759
 51
71.78737063348776
  0
LINE
  5
FB
330
6C
100
AcDbEntity
  8
Sichtbare Kanten(DIN)
100
AcDbLine
 10
146.8798442383787
 20
182.54605242623
 30
0.0
 11
146.6893580128976
 21
182.8317817644516
 31
0.0
  0
LINE
  5
FC
330
6C
100
AcDbEntity
  8
Sichtbare Kanten(DIN)
100
AcDbLine
 10
149.2798442383787
 20
182.54605242623
 30
0.0
 11
146.8798442383787
 21
182.54605242623
 31
0.0
  0
ARC
  5
FD
330
6C
100
AcDbEntity
  8
Sichtbare Kanten(DIN)
100
AcDbCircle
 10
144.8109667242875
 20
186.5646633509215
 30
0.0
 40
6.010000000000012
100
AcDbArc
 50
318.0367303767587
 51
71.78737063348737
  0
LINE
  5
FE
330
6C
100
AcDbEntity
  8
Sichtbare Kanten(DIN)
100
AcDbLine
 10
146.6893580128976
 20
244.24605242623
 30
0.0
 11
149.8298442383787
 21
244.24605242623
 31
0.0
  0
LINE
  5
FF
330
6C
100
AcDbEntity
  8
Sichtbare Kanten(DIN)
100
AcDbLine
 10
149.8298442383787
 20
244.24605242623
 30
0.0
 11
149.8298442383787
 21
258.24605242623
 31
0.0
  0
LINE
  5
100
330
6C
100
AcDbEntity
  8
Sichtbare Kanten(DIN)
100
AcDbLine
 10
149.8298442383787
 20
258.24605242623
 30
0.0
 11
146.69201562048
 21
258.24605242623
 31
0.0
  0
LINE
  5
101
330
6C
100
AcDbEntity
  8
Sichtbare Kanten(DIN)
100
AcDbLine
 10
134.4457816839037
 20
258.24605242623
 30
0.0
 11
127.0798442383787
 21
258.24605242623
 31
0.0
  0
LINE
  5
102
330
6C
100
AcDbEntity
  8
Sichtbare Kanten(DIN)
100
AcDbLine
 10
121.0798442383787
 20
258.24605242623
 30
0.0
 11
114.8234205673673
 21
258.24605242623
 31
0.0
  0
LINE
  5
103
330
6C
100
AcDbEntity
  8
Sichtbare Kanten(DIN)
100
AcDbLine
 10
102.5771866307954
 20
258.24605242623
 30
0.0
 11
98.32984423837871
 21
258.24605242623
 31
0.0
  0
LINE
  5
104
330
6C
100
AcDbEntity
  8
Sichtbare Kanten(DIN)
100
AcDbLine
 10
98.32984423837872
 20
258.24605242623
 30
0.0
 11
98.32984423837871
 21
244.2460524262299
 31
0.0
  0
LINE
  5
105
330
6C
100
AcDbEntity
  8
Sichtbare Kanten(DIN)
100
AcDbLine
 10
98.32984423837871
 20
244.2460524262299
 30
0.0
 11
101.7798442383787
 21
244.24605242623
 31
0.0
  0
LINE
  5
106
330
6C
100
AcDbEntity
  8
Sichtbare Kanten(DIN)
100
AcDbLine
 10
101.7798442383787
 20
244.24605242623
 30
0.0
 11
102.2798442383787
 21
246.2460524262299
 31
0.0
  0
LINE
  5
107
330
6C
100
AcDbEntity
  8
Sichtbare Kanten(DIN)
100
AcDbLine
 10
102.2798442383787
 20
246.2460524262299
 30
0.0
 11
102.2798442383787
 21
249.34605242623
 31
0.0
  0
LINE
  5
108
330
6C
100
AcDbEntity
  8
Sichtbare Kanten(DIN)
100
AcDbLine
 10
102.2798442383787
 20
249.34605242623
 30
0.0
 11
102.5798442383787
 21
249.34605242623
 31
0.0
  0
LINE
  5
109
330
6C
100
AcDbEntity
  8
Sichtbare Kanten(DIN)
100
AcDbLine
 10
102.3798442383787
 20
192.49605242623
 30
0.0
 11
102.5798442383786
 21
192.49605242623
 31
0.0
  0
ARC
  5
10A
330
6C
100
AcDbEntity
  8
Sichtbare Kanten(DIN)
100
AcDbCircle
 10
103.3487217524698
 20
186.5646633509215
 30
0.0
 40
6.009999999999999
100
AcDbArc
 50
99.27718821635071
 51
221.9632696232411
  0
LINE
  5
10B
330
6C
100
AcDbEntity
  8
Sichtbare Kanten(DIN)
100
AcDbLine
 10
101.2798442383787
 20
182.54605242623
 30
0.0
 11
98.8798442383787
 21
182.54605242623
 31
0.0
  0
LINE
  5
10C
330
6C
100
AcDbEntity
  8
Sichtbare Kanten(DIN)
100
AcDbLine
 10
102.2798442383787
 20
184.04605242623
 30
0.0
 11
101.2798442383787
 21
182.54605242623
 31
0.0
  0
LINE
  5
10D
330
6C
100
AcDbEntity
  8
Sichtbare Kanten(DIN)
100
AcDbLine
 10
102.2798442383787
 20
187.5960524262299
 30
0.0
 11
102.2798442383787
 21
184.04605242623
 31
0.0
  0
LINE
  5
10E
330
6C
100
AcDbEntity
  8
Sichtbare Kanten(DIN)
100
AcDbLine
 10
102.5798442383786
 20
187.5960524262299
 30
0.0
 11
102.2798442383787
 21
187.5960524262299
 31
0.0
  0
LINE
  5
10F
330
6C
100
AcDbEntity
  8
Sichtbare Kanten(DIN)
100
AcDbLine
 10
102.3798442383787
 20
147.9960524262299
 30
0.0
 11
102.5798442383786
 21
147.9960524262299
 31
0.0
  0
ARC
  5
110
330
6C
100
AcDbEntity
  8
Sichtbare Kanten(DIN)
100
AcDbCircle
 10
103.3487217524698
 20
142.0646633509215
 30
0.0
 40
6.010000000000001
100
AcDbArc
 50
99.27718821635089
 51
221.9632696232411
  0
LINE
  5
111
330
6C
100
AcDbEntity
  8
Sichtbare Kanten(DIN)
100
AcDbLine
 10
101.2798442383787
 20
138.04605242623
 30
0.0
 11
98.87984423837867
 21
138.04605242623
 31
0.0
  0
LINE
  5
112
330
6C
100
AcDbEntity
  8
Sichtbare Kanten(DIN)
100
AcDbLine
 10
102.2798442383787
 20
139.5460524262299
 30
0.0
 11
101.2798442383787
 21
138.0460524262299
 31
0.0
  0
LINE
  5
113
330
6C
100
AcDbEntity
  8
Sichtbare Kanten(DIN)
100
AcDbLine
 10
102.2798442383787
 20
143.0960524262299
 30
0.0
 11
102.2798442383787
 21
139.5460524262299
 31
0.0
  0
LINE
  5
114
330
6C
100
AcDbEntity
  8
Sichtbare Kanten(DIN)
100
AcDbLine
 10
102.5798442383786
 20
143.0960524262299
 30
0.0
 11
102.2798442383787
 21
143.0960524262299
 31
0.0
  0
LINE
  5
115
330
6C
100
AcDbEntity
  8
Sichtbare Kanten(DIN)
100
AcDbLine
 10
102.3798442383786
 20
88.99605242623
 30
0.0
 11
102.5798442383785
 21
88.99605242623
 31
0.0
  0
ARC
  5
116
330
6C
100
AcDbEntity
  8
Sichtbare Kanten(DIN)
100
AcDbCircle
 10
103.3487217524698
 20
83.06466335092151
 30
0.0
 40
6.009999999999991
100
AcDbArc
 50
99.27718821635089
 51
221.9632696232411
  0
LINE
  5
117
330
6C
100
AcDbEntity
  8
Sichtbare Kanten(DIN)
100
AcDbLine
 10
101.2798442383786
 20
79.04605242622995
 30
0.0
 11
98.87984423837865
 21
79.04605242622995
 31
0.0
  0
LINE
  5
118
330
6C
100
AcDbEntity
  8
Sichtbare Kanten(DIN)
100
AcDbLine
 10
102.2798442383786
 20
80.54605242622995
 30
0.0
 11
101.2798442383786
 21
79.04605242622995
 31
0.0
  0
LINE
  5
119
330
6C
100
AcDbEntity
  8
Sichtbare Kanten(DIN)
100
AcDbLine
 10
102.2798442383786
 20
84.09605242622999
 30
0.0
 11
102.2798442383787
 21
80.54605242622995
 31
0.0
  0
LINE
  5
11A
330
6C
100
AcDbEntity
  8
Sichtbare Kanten(DIN)
100
AcDbLine
 10
102.5798442383785
 20
84.09605242622999
 30
0.0
 11
102.2798442383786
 21
84.09605242622999
 31
0.0
  0
LINE
  5
11B
330
6C
100
AcDbEntity
  8
Sichtbare Kanten(DIN)
100
AcDbLine
 10
102.3798442383786
 20
38.99605242623
 30
0.0
 11
102.5798442383784
 21
38.99605242623
 31
0.0
  0
ARC
  5
11C
330
6C
100
AcDbEntity
  8
Sichtbare Kanten(DIN)
100
AcDbCircle
 10
103.3487217524698
 20
33.0646633509215
 30
0.0
 40
6.010000000000004
100
AcDbArc
 50
99.27718821635089
 51
221.9632696232411
  0
LINE
  5
11D
330
6C
100
AcDbEntity
  8
Sichtbare Kanten(DIN)
100
AcDbLine
 10
101.2798442383786
 20
29.04605242622995
 30
0.0
 11
98.87984423837863
 21
29.04605242622995
 31
0.0
  0
LINE
  5
11E
330
6C
100
AcDbEntity
  8
Sichtbare Kanten(DIN)
100
AcDbLine
 10
102.2798442383786
 20
30.54605242622994
 30
0.0
 11
101.2798442383786
 21
29.04605242622995
 31
0.0
  0
LINE
  5
11F
330
6C
100
AcDbEntity
  8
Sichtbare Kanten(DIN)
100
AcDbLine
 10
102.2798442383786
 20
34.09605242622998
 30
0.0
 11
102.2798442383786
 21
30.54605242622994
 31
0.0
  0
LINE
  5
120
330
6C
100
AcDbEntity
  8
Sichtbare Kanten(DIN)
100
AcDbLine
 10
102.5798442383784
 20
34.09605242622998
 30
0.0
 11
102.2798442383786
 21
34.09605242622998
 31
0.0
  0
LINE
  5
121
330
6C
100
AcDbEntity
  8
Sichtbare Kanten(DIN)
100
AcDbLine
 10
60.85692241936371
 20
258.1308093134893
 30
0.0
 11
61.50962824089964
 21
258.1308093134893
 31
0.0
  0
LINE
  5
122
330
6C
100
AcDbEntity
  8
Sichtbare Kanten(DIN)
100
AcDbLine
 10
186.6500602358577
 20
258.1308093134893
 30
0.0
 11
187.3027660573936
 21
258.1308093134893
 31
0.0
  0
LINE
  5
123
330
6C
100
AcDbEntity
  8
Sichtbare Kanten(DIN)
100
AcDbLine
 10
55.52734371578489
 20
254.1308093134893
 30
0.0
 11
57.78120986611839
 21
254.1308093134893
 31
0.0
  0
LINE
  5
124
330
6C
100
AcDbEntity
  8
Sichtbare Kanten(DIN)
100
AcDbLine
 10
55.52734371578496
 20
218.1308093134893
 30
0.0
 11
57.78120986611845
 21
218.1308093134893
 31
0.0
  0
LINE
  5
125
330
6C
100
AcDbEntity
  8
Sichtbare Kanten(DIN)
100
AcDbLine
 10
192.6323447609723
 20
218.1308093134892
 30
0.0
 11
190.3784786106388
 21
218.1308093134892
 31
0.0
  0
LINE
  5
126
330
6C
100
AcDbEntity
  8
Sichtbare Kanten(DIN)
100
AcDbLine
 10
192.6323447609724
 20
254.1308093134893
 30
0.0
 11
190.3784786106389
 21
254.1308093134893
 31
0.0
  0
LINE
  5
127
330
6C
100
AcDbEntity
  8
Sichtbare Kanten(DIN)
100
AcDbLine
 10
187.3027660573936
 20
258.1308093134893
 30
0.0
 11
187.3027660573936
 21
258.0690386832511
 31
0.0
  0
ELLIPSE
  5
128
330
6C
100
AcDbEntity
  8
Sichtbare Kanten(DIN)
100
AcDbEllipse
 10
186.6500602358576
 20
254.1308093134893
 30
0.0
 11
0.0000000000000761
 21
3.999999999999994
 31
0.0
210
0.0
220
0.0
230
1.0
 40
0.9321045936953126
 41
4.712388980384689
 42
6.283185307179598
  0
LINE
  5
129
330
6C
100
AcDbEntity
  8
Sichtbare Kanten(DIN)
100
AcDbLine
 10
60.85692241936371
 20
258.0690386832511
 30
0.0
 11
60.85692241936371
 21
258.1308093134893
 31
0.0
  0
ELLIPSE
  5
12A
330
6C
100
AcDbEntity
  8
Sichtbare Kanten(DIN)
100
AcDbEllipse
 10
61.50962824089965
 20
254.1308093134893
 30
0.0
 11
-0.0000000000000186
 21
4.000000000000006
 31
0.0
210
0.0
220
0.0
230
1.0
 40
0.9321045936953129
 41
0.0
 42
1.570796326794883
  0
LINE
  5
12B
330
6C
100
AcDbEntity
  8
Sichtbare Kanten(DIN)
100
AcDbLine
 10
61.50962824089965
 20
258.1308093134893
 30
0.0
 11
98.32984423837871
 21
258.1308093134895
 31
0.0
  0
LINE
  5
12C
330
6C
100
AcDbEntity
  8
Sichtbare Kanten(DIN)
100
AcDbLine
 10
149.8298442383787
 20
258.1308093134894
 30
0.0
 11
186.6500602358577
 21
258.1308093134893
 31
0.0
  0
LINE
  5
12D
330
6C
100
AcDbEntity
  8
Sichtbare Kanten(DIN)
100
AcDbLine
 10
121.0820585514147
 20
258.1308093134895
 30
0.0
 11
127.0776299253426
 21
258.1308093134895
 31
0.0
  0
LINE
  5
12E
330
6C
100
AcDbEntity
  8
Sichtbare Kanten(DIN)
100
AcDbLine
 10
121.9524640245937
 20
256.1308093134895
 30
0.0
 11
126.2072244521637
 21
256.1308093134895
 31
0.0
  0
ELLIPSE
  5
12F
330
6C
100
AcDbEntity
  8
Sichtbare Kanten(DIN)
100
AcDbEllipse
 10
214.2508539500997
 20
235.1308093134892
 30
0.0
 11
0.0000000000000512
 21
6.5
 31
0.0
210
0.0
220
0.0
230
1.0
 40
0.9808373273930449
 41
0.0305639670081211
 42
3.111028686581676
  0
ELLIPSE
  5
130
330
6C
100
AcDbEntity
  8
Sichtbare Kanten(DIN)
100
AcDbEllipse
 10
213.8611969871568
 20
235.1308093134892
 30
0.0
 11
-0.0000000000000099
 21
6.499999999999999
 31
0.0
210
0.0
220
0.0
230
1.0
 40
0.9808373273930454
 41
0.0
 42
6.283185307179586
  0
ELLIPSE
  5
131
330
6C
100
AcDbEntity
  8
Sichtbare Kanten(DIN)
100
AcDbEllipse
 10
33.90883452665761
 20
235.1308093134892
 30
0.0
 11
0.0000000000000584
 21
-6.499999999999995
 31
0.0
210
0.0
220
0.0
230
1.0
 40
0.9808373273930449
 41
0.0305639670081178
 42
3.111028686581665
  0
ELLIPSE
  5
132
330
6C
100
AcDbEntity
  8
Sichtbare Kanten(DIN)
100
AcDbEllipse
 10
34.29849148960051
 20
235.1308093134892
 30
0.0
 11
0.0000000000000047
 21
-6.5
 31
0.0
210
0.0
220
0.0
230
1.0
 40
0.9808373273930454
 41
0.0
 42
6.283185307179586
  0
ELLIPSE
  5
133
330
6C
100
AcDbEntity
  8
Sichtbare Kanten(DIN)
100
AcDbEllipse
 10
33.90883452665756
 20
233.1308093134893
 30
0.0
 11
0.00000000000005
 21
-15.00000000000001
 31
0.0
210
0.0
220
0.0
230
1.0
 40
0.9808373273930454
 41
4.712388980384688
 42
6.283185307179584
  0
LINE
  5
134
330
6C
100
AcDbEntity
  8
Sichtbare Kanten(DIN)
100
AcDbLine
 10
33.90883452665761
 20
218.1308093134892
 30
0.0
 11
34.29849148960047
 21
218.1308093134892
 31
0.0
  0
ELLIPSE
  5
135
330
6C
100
AcDbEntity
  8
Sichtbare Kanten(DIN)
100
AcDbEllipse
 10
34.29849148960047
 20
233.1308093134893
 30
0.0
 11
0.000000000000003
 21
-15.00000000000001
 31
0.0
210
0.0
220
0.0
230
1.0
 40
0.9808373273930454
 41
4.712388980384691
 42
6.283185307179586
  0
ELLIPSE
  5
136
330
6C
100
AcDbEntity
  8
Sichtbare Kanten(DIN)
100
AcDbEllipse
 10
34.29849148960044
 20
239.1308093134892
 30
0.0
 11
-0.00000000000003
 21
15.00000000000001
 31
0.0
210
0.0
220
0.0
230
1.0
 40
0.9808373273930454
 41
0.0
 42
1.570796326794896
  0
ELLIPSE
  5
137
330
6C
100
AcDbEntity
  8
Sichtbare Kanten(DIN)
100
AcDbEllipse
 10
33.90883452665756
 20
239.1308093134892
 30
0.0
 11
-0.0000000000000386
 21
15.00000000000002
 31
0.0
210
0.0
220
0.0
230
1.0
 40
0.9808373273930454
 41
0.0000000000000006
 42
1.570796326794894
  0
LINE
  5
138
330
6C
100
AcDbEntity
  8
Sichtbare Kanten(DIN)
100
AcDbLine
 10
34.2984914896004
 20
254.1308093134893
 30
0.0
 11
33.90883452665753
 21
254.1308093134893
 31
0.0
  0
ELLIPSE
  5
139
330
6C
100
AcDbEntity
  8
Sichtbare Kanten(DIN)
100
AcDbEllipse
 10
214.2508539500997
 20
233.1308093134892
 30
0.0
 11
0.000000000000003
 21
-15.00000000000001
 31
0.0
210
0.0
220
0.0
230
1.0
 40
0.9808373273930454
 41
0.0
 42
1.570796326794893
  0
ELLIPSE
  5
13A
330
6C
100
AcDbEntity
  8
Sichtbare Kanten(DIN)
100
AcDbEllipse
 10
213.8611969871569
 20
233.1308093134892
 30
0.0
 11
-0.000000000000005
 21
-14.99999999999999
 31
0.0
210
0.0
220
0.0
230
1.0
 40
0.9808373273930452
 41
0.0
 42
1.570796326794896
  0
LINE
  5
13B
330
6C
100
AcDbEntity
  8
Sichtbare Kanten(DIN)
100
AcDbLine
 10
213.8611969871569
 20
218.1308093134892
 30
0.0
 11
214.2508539500997
 21
218.1308093134892
 31
0.0
  0
ELLIPSE
  5
13C
330
6C
100
AcDbEntity
  8
Sichtbare Kanten(DIN)
100
AcDbEllipse
 10
213.8611969871568
 20
239.1308093134892
 30
0.0
 11
0.0000000000000325
 21
15.00000000000002
 31
0.0
210
0.0
220
0.0
230
1.0
 40
0.9808373273930458
 41
4.712388980384691
 42
6.283185307179585
  0
ELLIPSE
  5
13D
330
6C
100
AcDbEntity
  8
Sichtbare Kanten(DIN)
100
AcDbEllipse
 10
214.2508539500997
 20
239.1308093134892
 30
0.0
 11
0.0000000000000246
 21
15.0
 31
0.0
210
0.0
220
0.0
230
1.0
 40
0.9808373273930458
 41
4.712388980384693
 42
6.283185307179587
  0
LINE
  5
13E
330
6C
100
AcDbEntity
  8
Sichtbare Kanten(DIN)
100
AcDbLine
 10
214.2508539500997
 20
254.1308093134893
 30
0.0
 11
213.8611969871569
 21
254.1308093134892
 31
0.0
  0
LINE
  5
13F
330
6C
100
AcDbEntity
  8
Sichtbare Kanten(DIN)
100
AcDbLine
 10
19.58593157870476
 20
239.1308093134892
 30
0.0
 11
19.58593157870474
 21
233.1308093134893
 31
0.0
  0
LINE
  5
140
330
6C
100
AcDbEntity
  8
Sichtbare Kanten(DIN)
100
AcDbLine
 10
19.19627461576185
 20
239.1308093134892
 30
0.0
 11
19.19627461576183
 21
233.1308093134893
 31
0.0
  0
LINE
  5
141
330
6C
100
AcDbEntity
  8
Sichtbare Kanten(DIN)
100
AcDbLine
 10
34.29849148960045
 20
218.1308093134892
 30
0.0
 11
55.52734371578495
 21
218.1308093134893
 31
0.0
  0
LINE
  5
142
330
6C
100
AcDbEntity
  8
Sichtbare Kanten(DIN)
100
AcDbLine
 10
34.2984914896004
 20
254.1308093134893
 30
0.0
 11
55.52734371578488
 21
254.1308093134893
 31
0.0
  0
LINE
  5
143
330
6C
100
AcDbEntity
  8
Sichtbare Kanten(DIN)
100
AcDbLine
 10
213.8611969871569
 20
218.1308093134892
 30
0.0
 11
192.6323447609724
 21
218.1308093134893
 31
0.0
  0
LINE
  5
144
330
6C
100
AcDbEntity
  8
Sichtbare Kanten(DIN)
100
AcDbLine
 10
228.5737568980525
 20
233.1308093134892
 30
0.0
 11
228.5737568980525
 21
239.1308093134892
 31
0.0
  0
LINE
  5
145
330
6C
100
AcDbEntity
  8
Sichtbare Kanten(DIN)
100
AcDbLine
 10
213.8611969871569
 20
254.1308093134893
 30
0.0
 11
192.6323447609724
 21
254.1308093134893
 31
0.0
  0
LINE
  5
146
330
6C
100
AcDbEntity
  8
Sichtbare Kanten(DIN)
100
AcDbLine
 10
228.9634138609955
 20
233.1308093134892
 30
0.0
 11
228.9634138609955
 21
239.1308093134892
 31
0.0
  0
LINE
  5
147
330
6C
100
AcDbEntity
  8
Sichtbare Kanten(DIN)
100
AcDbLine
 10
190.3784786106388
 20
218.1308093134893
 30
0.0
 11
146.6893580128976
 21
218.1308093134895
 31
0.0
  0
LINE
  5
148
330
6C
100
AcDbEntity
  8
Sichtbare Kanten(DIN)
100
AcDbLine
 10
102.5798442383787
 20
218.1308093134894
 30
0.0
 11
57.78120986611849
 21
218.1308093134893
 31
0.0
  0
LINE
  5
149
330
6C
100
AcDbEntity
  8
Sichtbare Kanten(DIN)
100
AcDbLine
 10
187.3027660573935
 20
22.74605242622975
 30
0.0
 11
186.6500602358576
 21
22.74605242622975
 31
0.0
  0
LINE
  5
14A
330
6C
100
AcDbEntity
  8
Sichtbare Kanten(DIN)
100
AcDbLine
 10
61.5096282408997
 20
22.74605242622976
 30
0.0
 11
60.85692241936378
 21
22.74605242622976
 31
0.0
  0
LINE
  5
14B
330
6C
100
AcDbEntity
  8
Sichtbare Kanten(DIN)
100
AcDbLine
 10
192.6323447609723
 20
26.74605242622976
 30
0.0
 11
190.3784786106388
 21
26.74605242622976
 31
0.0
  0
LINE
  5
14C
330
6C
100
AcDbEntity
  8
Sichtbare Kanten(DIN)
100
AcDbLine
 10
192.6323447609723
 20
62.74605242622975
 30
0.0
 11
190.3784786106388
 21
62.74605242622975
 31
0.0
  0
LINE
  5
14D
330
6C
100
AcDbEntity
  8
Sichtbare Kanten(DIN)
100
AcDbLine
 10
55.52734371578509
 20
62.74605242622983
 30
0.0
 11
57.7812098661186
 21
62.74605242622983
 31
0.0
  0
LINE
  5
14E
330
6C
100
AcDbEntity
  8
Sichtbare Kanten(DIN)
100
AcDbLine
 10
55.52734371578503
 20
26.74605242622984
 30
0.0
 11
57.78120986611853
 21
26.74605242622984
 31
0.0
  0
LINE
  5
14F
330
6C
100
AcDbEntity
  8
Sichtbare Kanten(DIN)
100
AcDbLine
 10
60.85692241936379
 20
22.74605242622976
 30
0.0
 11
60.85692241936379
 21
22.8078230564679
 31
0.0
  0
ELLIPSE
  5
150
330
6C
100
AcDbEntity
  8
Sichtbare Kanten(DIN)
100
AcDbEllipse
 10
61.50962824089977
 20
26.74605242622976
 30
0.0
 11
-0.0000000000000771
 21
-3.999999999999995
 31
0.0
210
0.0
220
0.0
230
1.0
 40
0.9321045936953108
 41
4.712388980384684
 42
6.28318530717959
  0
LINE
  5
151
330
6C
100
AcDbEntity
  8
Sichtbare Kanten(DIN)
100
AcDbLine
 10
187.3027660573935
 20
22.80782305646789
 30
0.0
 11
187.3027660573935
 21
22.74605242622975
 31
0.0
  0
ELLIPSE
  5
152
330
6C
100
AcDbEntity
  8
Sichtbare Kanten(DIN)
100
AcDbEllipse
 10
186.6500602358575
 20
26.74605242622975
 30
0.0
 11
0.0000000000000176
 21
-4.000000000000006
 31
0.0
210
0.0
220
0.0
230
1.0
 40
0.9321045936953119
 41
0.0
 42
1.570796326794886
  0
LINE
  5
153
330
6C
100
AcDbEntity
  8
Sichtbare Kanten(DIN)
100
AcDbLine
 10
186.6500602358576
 20
22.74605242622975
 30
0.0
 11
146.6893580128975
 21
22.74605242622991
 31
0.0
  0
LINE
  5
154
330
6C
100
AcDbEntity
  8
Sichtbare Kanten(DIN)
100
AcDbLine
 10
102.5798442383784
 20
22.74605242622993
 30
0.0
 11
61.50962824089972
 21
22.74605242622976
 31
0.0
  0
ELLIPSE
  5
155
330
6C
100
AcDbEntity
  8
Sichtbare Kanten(DIN)
100
AcDbEllipse
 10
33.90883452665777
 20
45.7460524262299
 30
0.0
 11
0.0000000000000328
 21
-6.49999999999999
 31
0.0
210
0.0
220
0.0
230
1.0
 40
0.9808373273930431
 41
0.0305639670081191
 42
3.11102868658167
  0
ELLIPSE
  5
156
330
6C
100
AcDbEntity
  8
Sichtbare Kanten(DIN)
100
AcDbEllipse
 10
34.29849148960066
 20
45.74605242622992
 30
0.0
 11
0.0000000000000083
 21
-6.499999999999999
 31
0.0
210
0.0
220
0.0
230
1.0
 40
0.9808373273930438
 41
0.0
 42
6.283185307179586
  0
ELLIPSE
  5
157
330
6C
100
AcDbEntity
  8
Sichtbare Kanten(DIN)
100
AcDbEllipse
 10
214.2508539500996
 20
45.74605242622982
 30
0.0
 11
0.0000000000000583
 21
6.499999999999996
 31
0.0
210
0.0
220
0.0
230
1.0
 40
0.9808373273930437
 41
0.0305639670081223
 42
3.111028686581667
  0
ELLIPSE
  5
158
330
6C
100
AcDbEntity
  8
Sichtbare Kanten(DIN)
100
AcDbEllipse
 10
213.8611969871567
 20
45.74605242622982
 30
0.0
 11
-0.0000000000000031
 21
6.5
 31
0.0
210
0.0
220
0.0
230
1.0
 40
0.9808373273930442
 41
0.0
 42
6.283185307179586
  0
ELLIPSE
  5
159
330
6C
100
AcDbEntity
  8
Sichtbare Kanten(DIN)
100
AcDbEllipse
 10
214.2508539500997
 20
47.74605242622977
 30
0.0
 11
-0.0000000000000463
 21
15.00000000000001
 31
0.0
210
0.0
220
0.0
230
1.0
 40
0.9808373273930442
 41
4.712388980384689
 42
6.283185307179585
  0
LINE
  5
15A
330
6C
100
AcDbEntity
  8
Sichtbare Kanten(DIN)
100
AcDbLine
 10
214.2508539500996
 20
62.74605242622982
 30
0.0
 11
213.8611969871567
 21
62.74605242622979
 31
0.0
  0
ELLIPSE
  5
15B
330
6C
100
AcDbEntity
  8
Sichtbare Kanten(DIN)
100
AcDbEllipse
 10
213.8611969871567
 20
47.74605242622977
 30
0.0
 11
0.0000000000000007
 21
15.00000000000001
 31
0.0
210
0.0
220
0.0
230
1.0
 40
0.9808373273930442
 41
4.712388980384692
 42
6.283185307179586
  0
ELLIPSE
  5
15C
330
6C
100
AcDbEntity
  8
Sichtbare Kanten(DIN)
100
AcDbEllipse
 10
213.8611969871568
 20
41.7460524262298
 30
0.0
 11
0.0000000000000263
 21
-15.00000000000001
 31
0.0
210
0.0
220
0.0
230
1.0
 40
0.980837327393044
 41
0.0
 42
1.570796326794896
  0
ELLIPSE
  5
15D
330
6C
100
AcDbEntity
  8
Sichtbare Kanten(DIN)
100
AcDbEllipse
 10
214.2508539500997
 20
41.74605242622981
 30
0.0
 11
0.0000000000000348
 21
-15.00000000000002
 31
0.0
210
0.0
220
0.0
230
1.0
 40
0.9808373273930442
 41
0.0
 42
1.570796326794895
  0
LINE
  5
15E
330
6C
100
AcDbEntity
  8
Sichtbare Kanten(DIN)
100
AcDbLine
 10
213.8611969871568
 20
26.74605242622979
 30
0.0
 11
214.2508539500997
 21
26.74605242622979
 31
0.0
  0
ELLIPSE
  5
15F
330
6C
100
AcDbEntity
  8
Sichtbare Kanten(DIN)
100
AcDbEllipse
 10
33.90883452665772
 20
47.74605242622985
 30
0.0
 11
0.0000000000000007
 21
15.00000000000001
 31
0.0
210
0.0
220
0.0
230
1.0
 40
0.9808373273930438
 41
0.0000000000000006
 42
1.570796326794894
  0
ELLIPSE
  5
160
330
6C
100
AcDbEntity
  8
Sichtbare Kanten(DIN)
100
AcDbEllipse
 10
34.29849148960058
 20
47.74605242622988
 30
0.0
 11
0.0000000000000087
 21
15.0
 31
0.0
210
0.0
220
0.0
230
1.0
 40
0.9808373273930437
 41
0.0
 42
1.570796326794896
  0
LINE
  5
161
330
6C
100
AcDbEntity
  8
Sichtbare Kanten(DIN)
100
AcDbLine
 10
34.29849148960059
 20
62.74605242622985
 30
0.0
 11
33.9088345266577
 21
62.74605242622985
 31
0.0
  0
ELLIPSE
  5
162
330
6C
100
AcDbEntity
  8
Sichtbare Kanten(DIN)
100
AcDbEllipse
 10
34.29849148960063
 20
41.7460524262299
 30
0.0
 11
-0.0000000000000362
 21
-15.00000000000002
 31
0.0
210
0.0
220
0.0
230
1.0
 40
0.9808373273930442
 41
4.712388980384691
 42
6.283185307179586
  0
ELLIPSE
  5
163
330
6C
100
AcDbEntity
  8
Sichtbare Kanten(DIN)
100
AcDbEllipse
 10
33.90883452665772
 20
41.74605242622988
 30
0.0
 11
-0.0000000000000283
 21
-15.00000000000001
 31
0.0
210
0.0
220
0.0
230
1.0
 40
0.9808373273930442
 41
4.712388980384689
 42
6.283185307179588
  0
LINE
  5
164
330
6C
100
AcDbEntity
  8
Sichtbare Kanten(DIN)
100
AcDbLine
 10
33.90883452665772
 20
26.74605242622986
 30
0.0
 11
34.29849148960059
 21
26.74605242622988
 31
0.0
  0
LINE
  5
165
330
6C
100
AcDbEntity
  8
Sichtbare Kanten(DIN)
100
AcDbLine
 10
228.5737568980525
 20
41.74605242622982
 30
0.0
 11
228.5737568980524
 21
47.74605242622983
 31
0.0
  0
LINE
  5
166
330
6C
100
AcDbEntity
  8
Sichtbare Kanten(DIN)
100
AcDbLine
 10
228.9634138609953
 20
41.74605242622982
 30
0.0
 11
228.9634138609953
 21
47.74605242622982
 31
0.0
  0
LINE
  5
167
330
6C
100
AcDbEntity
  8
Sichtbare Kanten(DIN)
100
AcDbLine
 10
213.8611969871567
 20
62.74605242622979
 30
0.0
 11
192.6323447609723
 21
62.74605242622975
 31
0.0
  0
LINE
  5
168
330
6C
100
AcDbEntity
  8
Sichtbare Kanten(DIN)
100
AcDbLine
 10
213.8611969871568
 20
26.74605242622979
 30
0.0
 11
192.6323447609723
 21
26.74605242622975
 31
0.0
  0
LINE
  5
169
330
6C
100
AcDbEntity
  8
Sichtbare Kanten(DIN)
100
AcDbLine
 10
34.29849148960059
 20
62.74605242622985
 30
0.0
 11
55.52734371578509
 21
62.74605242622982
 31
0.0
  0
LINE
  5
16A
330
6C
100
AcDbEntity
  8
Sichtbare Kanten(DIN)
100
AcDbLine
 10
19.58593157870492
 20
47.74605242622989
 30
0.0
 11
19.5859315787049
 21
41.7460524262299
 31
0.0
  0
LINE
  5
16B
330
6C
100
AcDbEntity
  8
Sichtbare Kanten(DIN)
100
AcDbLine
 10
34.29849148960058
 20
26.74605242622988
 30
0.0
 11
55.52734371578503
 21
26.74605242622984
 31
0.0
  0
LINE
  5
16C
330
6C
100
AcDbEntity
  8
Sichtbare Kanten(DIN)
100
AcDbLine
 10
19.19627461576208
 20
47.74605242622989
 30
0.0
 11
19.19627461576206
 21
41.7460524262299
 31
0.0
  0
LINE
  5
16D
330
6C
100
AcDbEntity
  8
Sichtbare Kanten(DIN)
100
AcDbLine
 10
57.7812098661186
 20
62.74605242622983
 30
0.0
 11
102.5798442383784
 21
62.74605242622995
 31
0.0
  0
LINE
  5
16E
330
6C
100
AcDbEntity
  8
Sichtbare Kanten(DIN)
100
AcDbLine
 10
146.6893580128975
 20
62.74605242623
 30
0.0
 11
190.3784786106388
 21
62.74605242622977
 31
0.0
  0
LINE
  5
16F
330
6C
100
AcDbEntity
  8
Sichtbare Kanten(DIN)
100
AcDbLine
 10
126.2072244521637
 20
256.1308093134895
 30
0.0
 11
121.9524640245936
 21
256.1308093134895
 31
0.0
  0
LINE
  5
170
330
6C
100
AcDbEntity
  8
Sichtbare Kanten(DIN)
100
AcDbLine
 10
429.6574460250756
 20
258.1308093134999
 30
0.0
 11
429.6574460250757
 21
209.2460524262301
 31
0.0
  0
LINE
  5
171
330
6C
100
AcDbEntity
  8
Sichtbare Kanten(DIN)
100
AcDbLine
 10
429.6574460250716
 20
260.6308093134999
 30
0.0
 11
429.6574460250723
 21
258.1308093134999
 31
0.0
  0
LINE
  5
172
330
6C
100
AcDbEntity
  8
Sichtbare Kanten(DIN)
100
AcDbLine
 10
429.657446025073
 20
263.1308093134896
 30
0.0
 11
429.657446025073
 21
260.6308093135
 31
0.0
  0
LINE
  5
173
330
6C
100
AcDbEntity
  8
Sichtbare Kanten(DIN)
100
AcDbLine
 10
439.6574460250763
 20
209.2460524262301
 30
0.0
 11
429.6574460250757
 21
209.2460524262301
 31
0.0
  0
LINE
  5
174
330
6C
100
AcDbEntity
  8
Sichtbare Kanten(DIN)
100
AcDbLine
 10
469.6574460250988
 20
263.1308093134732
 30
0.0
 11
429.657446025073
 21
263.1308093134896
 31
0.0
  0
LINE
  5
175
330
6C
100
AcDbEntity
  8
Sichtbare Kanten(DIN)
100
AcDbLine
 10
432.9574460250762
 20
22.74605242623008
 30
0.0
 11
432.9574460250762
 21
43.74605242623011
 31
0.0
  0
LINE
  5
176
330
6C
100
AcDbEntity
  8
Sichtbare Kanten(DIN)
100
AcDbLine
 10
432.9574460250762
 20
56.7460524262301
 30
0.0
 11
432.9574460250762
 21
93.74605242623008
 31
0.0
  0
LINE
  5
177
330
6C
100
AcDbEntity
  8
Sichtbare Kanten(DIN)
100
AcDbLine
 10
432.9574460250763
 20
165.7460524262301
 30
0.0
 11
432.9574460250762
 21
197.2460524262301
 31
0.0
  0
LINE
  5
178
330
6C
100
AcDbEntity
  8
Sichtbare Kanten(DIN)
100
AcDbLine
 10
432.9574460250763
 20
106.7460524262301
 30
0.0
 11
432.9574460250762
 21
152.7460524262301
 31
0.0
  0
LINE
  5
179
330
6C
100
AcDbEntity
  8
Sichtbare Kanten(DIN)
100
AcDbLine
 10
475.2122029123358
 20
257.0460524262301
 30
0.0
 11
474.6574460250708
 21
257.0460524262301
 31
0.0
  0
LINE
  5
17A
330
6C
100
AcDbEntity
  8
Sichtbare Kanten(DIN)
100
AcDbLine
 10
475.2122029123358
 20
22.74605242623007
 30
0.0
 11
432.9574460250762
 21
22.74605242623008
 31
0.0
  0
LINE
  5
17B
330
6C
100
AcDbEntity
  8
Sichtbare Kanten(DIN)
100
AcDbLine
 10
474.6574460250708
 20
257.0460524262301
 30
0.0
 11
474.6574460250764
 21
258.1308093134698
 31
0.0
  0
LINE
  5
17C
330
6C
100
AcDbEntity
  8
Sichtbare Kanten(DIN)
100
AcDbLine
 10
429.657446025073
 20
260.6308093135
 30
0.0
 11
469.6574460250971
 21
260.6308093134732
 31
0.0
  0
SPLINE
  5
17D
330
6C
100
AcDbEntity
  8
Sichtbare Kanten(DIN)
100
AcDbSpline
210
0.0
220
0.0
230
1.0
 70
     8
 71
     3
 72
    10
 73
     6
 74
     0
 42
0.0000000001
 43
0.0000000001
 40
0.0
 40
0.0
 40
0.0
 40
0.0
 40
0.0991381451580472
 40
0.0991381451580472
 40
0.1889589207769124
 40
0.1889589207769124
 40
0.1889589207769124
 40
0.1889589207769124
 10
440.7801164988878
 20
258.1308093134925
 30
0.0
 10
440.843543038714
 20
258.4551258339456
 30
0.0
 10
440.9068197612312
 20
258.7786743891052
 30
0.0
 10
441.0277116027768
 20
259.3851789165758
 30
0.0
 10
441.085054094023
 20
259.6678549813236
 30
0.0
 10
441.1424964561066
 20
259.941633433643
 30
0.0
  0
SPLINE
  5
17E
330
6C
100
AcDbEntity
  8
Sichtbare Kanten(DIN)
100
AcDbSpline
210
0.0
220
0.0
230
1.0
 70
     8
 71
     3
 72
    10
 73
     6
 74
     0
 42
0.0000000001
 43
0.0000000001
 40
0.0093173695455173
 40
0.0093173695455173
 40
0.0093173695455173
 40
0.0093173695455173
 40
0.0991381451577607
 40
0.0991381451577607
 40
0.1982762903230118
 40
0.1982762903230118
 40
0.1982762903230118
 40
0.1982762903230118
 10
435.3723955940513
 20
259.941633433649
 30
0.0
 10
435.4298379561308
 20
259.6678549813498
 30
0.0
 10
435.4871804473726
 20
259.3851789166237
 30
0.0
 10
435.6080722889182
 20
258.7786743891541
 30
0.0
 10
435.6713490114397
 20
258.4551258339718
 30
0.0
 10
435.7347755512703
 20
258.1308093134959
 30
0.0
  0
SPLINE
  5
17F
330
6C
100
AcDbEntity
  8
Sichtbare Kanten(DIN)
100
AcDbSpline
210
0.0
220
0.0
230
1.0
 70
     8
 71
     3
 72
    10
 73
     6
 74
     0
 42
0.0000000001
 43
0.0000000001
 40
0.0
 40
0.0
 40
0.0
 40
0.0
 40
0.0522363853715291
 40
0.0522363853715291
 40
0.1044727707440723
 40
0.1044727707440723
 40
0.1044727707440723
 40
0.1044727707440723
 10
441.1603759171823
 20
259.0786756809988
 30
0.0
 10
441.0969493984336
 20
258.9286247097302
 30
0.0
 10
441.0336726583121
 20
258.7729471802014
 30
0.0
 10
440.9068197577595
 20
258.4547418425997
 30
0.0
 10
440.8435430176372
 20
258.292967564782
 30
0.0
 10
440.7801164988871
 20
258.1308093134925
 30
0.0
  0
SPLINE
  5
180
330
6C
100
AcDbEntity
  8
Sichtbare Kanten(DIN)
100
AcDbSpline
210
0.0
220
0.0
230
1.0
 70
     8
 71
     3
 72
    32
 73
    28
 74
     0
 42
0.0000000001
 43
0.0000000001
 40
0.0
 40
0.0
 40
0.0
 40
0.0
 40
0.0421772812297643
 40
0.0421772812297643
 40
0.0777364785084678
 40
0.0777364785084678
 40
0.1183070298911952
 40
0.1183070298911952
 40
0.1706333271826172
 40
0.1706333271826172
 40
0.2468693545513699
 40
0.2468693545513699
 40
0.3193159007594871
 40
0.3193159007594871
 40
0.3837977087943979
 40
0.3837977087943979
 40
0.4243236734211134
 40
0.4243236734211134
 40
0.4907661085748441
 40
0.4907661085748441
 40
0.539406135445863
 40
0.539406135445863
 40
0.5791706810626587
 40
0.5791706810626587
 40
0.5996242400025419
 40
0.5996242400025419
 40
0.6237547782821772
 40
0.6237547782821772
 40
0.6237547782821772
 40
0.6237547782821772
 10
435.3545161329749
 20
259.0786756809991
 30
0.0
 10
435.3034987030446
 20
259.1999019625907
 30
0.0
 10
435.261838380838
 20
259.3447486960629
 30
0.0
 10
435.2543357189299
 20
259.6287738974395
 30
0.0
 10
435.2780314610511
 20
259.7483740949111
 30
0.0
 10
435.3814838579877
 20
259.977301700958
 30
0.0
 10
435.4664839011001
 20
260.078241475982
 30
0.0
 10
435.7105291997736
 20
260.2684540176186
 30
0.0
 10
435.8898940386413
 20
260.3504703499057
 30
0.0
 10
436.4289171850342
 20
260.5013209571796
 30
0.0
 10
436.822222163097
 20
260.5447508639566
 30
0.0
 10
437.6921251857635
 20
260.5899066589024
 30
0.0
 10
438.1380314376761
 20
260.5940318049169
 30
0.0
 10
438.9633520725787
 20
260.5833038222921
 30
0.0
 10
439.3152274724017
 20
260.5694891348912
 30
0.0
 10
439.8167837727482
 20
260.5242571562666
 30
0.0
 10
440.0057099358772
 20
260.5002023209172
 30
0.0
 10
440.4765007828577
 20
260.4058913193794
 30
0.0
 10
440.70815576898
 20
260.3213668606227
 30
0.0
 10
441.0083721981701
 20
260.1197295759905
 30
0.0
 10
441.1108502200931
 20
260.0129787023578
 30
0.0
 10
441.2310743968498
 20
259.7706707941011
 30
0.0
 10
441.2588642258421
 20
259.6477948971631
 30
0.0
 10
441.2566378133241
 20
259.4440888658898
 30
0.0
 10
441.2480829887264
 20
259.3726344873966
 30
0.0
 10
441.2134142054115
 20
259.2161813007246
 30
0.0
 10
441.1863175744722
 20
259.1403175680143
 30
0.0
 10
441.1603759171823
 20
259.0786756809988
 30
0.0
  0
SPLINE
  5
181
330
6C
100
AcDbEntity
  8
Sichtbare Kanten(DIN)
100
AcDbSpline
210
0.0
220
0.0
230
1.0
 70
     8
 71
     3
 72
    10
 73
     6
 74
     0
 42
0.0000000001
 43
0.0000000001
 40
0.0
 40
0.0
 40
0.0
 40
0.0
 40
0.0522363853713536
 40
0.0522363853713536
 40
0.1044727707436154
 40
0.1044727707436154
 40
0.1044727707436154
 40
0.1044727707436154
 10
435.7347755512696
 20
258.1308093134959
 30
0.0
 10
435.6713490325208
 20
258.2929675647819
 30
0.0
 10
435.6080722923997
 20
258.4547418425961
 30
0.0
 10
435.4812193918473
 20
258.7729471801969
 30
0.0
 10
435.4179426517248
 20
258.9286247097283
 30
0.0
 10
435.3545161329749
 20
259.078675680999
 30
0.0
  0
LINE
  5
182
330
6C
100
AcDbEntity
  8
Sichtbare Kanten(DIN)
100
AcDbLine
 10
474.6574460250764
 20
258.1308093134702
 30
0.0
 11
474.6574460250767
 21
260.6308093134699
 31
0.0
  0
LINE
  5
183
330
6C
100
AcDbEntity
  8
Sichtbare Kanten(DIN)
100
AcDbLine
 10
469.6574460250988
 20
263.1308093134733
 30
0.0
 11
474.6574460251036
 21
263.1308093134699
 31
0.0
  0
LINE
  5
184
330
6C
100
AcDbEntity
  8
Sichtbare Kanten(DIN)
100
AcDbLine
 10
474.657446025102
 20
260.6308093134699
 30
0.0
 11
469.6574460250971
 21
260.6308093134733
 31
0.0
  0
LINE
  5
185
330
6C
100
AcDbEntity
  8
Sichtbare Kanten(DIN)
100
AcDbLine
 10
474.6574460250721
 20
260.63080931347
 30
0.0
 11
474.6574460250738
 21
263.13080931347
 31
0.0
  0
LINE
  5
186
330
6C
100
AcDbEntity
  8
Sichtbare Kanten(DIN)
100
AcDbLine
 10
440.780116498887
 20
258.1308093134925
 30
0.0
 11
439.657446025077
 21
253.825421477157
 31
0.0
  0
LINE
  5
187
330
6C
100
AcDbEntity
  8
Sichtbare Kanten(DIN)
100
AcDbLine
 10
436.9824460250788
 20
253.34605242623
 30
0.0
 11
435.7347755512696
 21
258.1308093134959
 31
0.0
  0
LINE
  5
188
330
6C
100
AcDbEntity
  8
Sichtbare Kanten(DIN)
100
AcDbLine
 10
437.1574460250776
 20
249.34605242623
 30
0.0
 11
436.9824460250788
 21
249.34605242623
 31
0.0
  0
LINE
  5
189
330
6C
100
AcDbEntity
  8
Sichtbare Kanten(DIN)
100
AcDbLine
 10
436.9824460250788
 20
249.34605242623
 30
0.0
 11
436.9824460250788
 21
253.34605242623
 31
0.0
  0
LINE
  5
18A
330
6C
100
AcDbEntity
  8
Sichtbare Kanten(DIN)
100
AcDbLine
 10
480.2122029123373
 20
67.94605242622999
 30
0.0
 11
475.2122029123358
 21
67.94605242623005
 31
0.0
  0
LINE
  5
18B
330
6C
100
AcDbEntity
  8
Sichtbare Kanten(DIN)
100
AcDbLine
 10
475.2122029123359
 20
213.14605242623
 30
0.0
 11
480.2122029123373
 21
213.14605242623
 31
0.0
  0
LINE
  5
18C
330
6C
100
AcDbEntity
  8
Sichtbare Kanten(DIN)
100
AcDbLine
 10
480.2122029123373
 20
213.14605242623
 30
0.0
 11
480.2122029123373
 21
210.3460524262302
 31
0.0
  0
LINE
  5
18D
330
6C
100
AcDbEntity
  8
Sichtbare Kanten(DIN)
100
AcDbLine
 10
480.2122029123373
 20
70.3460524262301
 30
0.0
 11
480.2122029123373
 21
67.94605242623005
 31
0.0
  0
LINE
  5
18E
330
6C
100
AcDbEntity
  8
Sichtbare Kanten(DIN)
100
AcDbLine
 10
480.2122029123373
 20
258.34605242623
 30
0.0
 11
480.2122029123373
 21
226.5460524262301
 31
0.0
  0
LINE
  5
18F
330
6C
100
AcDbEntity
  8
Sichtbare Kanten(DIN)
100
AcDbLine
 10
480.2122029123373
 20
226.5460524262303
 30
0.0
 11
475.2122029123358
 21
226.5460524262301
 31
0.0
  0
LINE
  5
190
330
6C
100
AcDbEntity
  8
Sichtbare Kanten(DIN)
100
AcDbLine
 10
476.4516501796022
 20
258.3460524262302
 30
0.0
 11
477.6910974468671
 21
258.3460524262306
 31
0.0
  0
LINE
  5
191
330
6C
100
AcDbEntity
  8
Sichtbare Kanten(DIN)
100
AcDbLine
 10
477.6910974468671
 20
258.3460524262301
 30
0.0
 11
480.2122029123373
 21
258.34605242623
 31
0.0
  0
LINE
  5
192
330
6C
100
AcDbEntity
  8
Sichtbare Kanten(DIN)
100
AcDbLine
 10
475.2122029123359
 20
257.0460524262301
 30
0.0
 11
477.6910974468671
 21
257.04605242623
 31
0.0
  0
LINE
  5
193
330
6C
100
AcDbEntity
  8
Sichtbare Kanten(DIN)
100
AcDbLine
 10
475.2122029123358
 20
54.54605242623006
 30
0.0
 11
480.2122029123373
 21
54.54605242623005
 31
0.0
  0
LINE
  5
194
330
6C
100
AcDbEntity
  8
Sichtbare Kanten(DIN)
100
AcDbLine
 10
480.2122029123373
 20
22.74605242623006
 30
0.0
 11
475.2122029123359
 21
22.74605242623006
 31
0.0
  0
LINE
  5
195
330
6C
100
AcDbEntity
  8
Sichtbare Kanten(DIN)
100
AcDbLine
 10
480.2122029123373
 20
54.54605242623005
 30
0.0
 11
480.2122029123373
 21
22.74605242623007
 31
0.0
  0
LINE
  5
196
330
6C
100
AcDbEntity
  8
Sichtbare Kanten(DIN)
100
AcDbLine
 10
477.6910974468671
 20
258.3460524262306
 30
0.0
 11
477.6910974468671
 21
257.0460524262301
 31
0.0
  0
LINE
  5
197
330
6C
100
AcDbEntity
  8
Sichtbare Kanten(DIN)
100
AcDbLine
 10
476.4516501796022
 20
257.0460524262301
 30
0.0
 11
476.4516501796022
 21
258.3460524262302
 31
0.0
  0
LINE
  5
198
330
6C
100
AcDbEntity
  8
Sichtbare Kanten(DIN)
100
AcDbLine
 10
457.4574460250763
 20
67.94605242623005
 30
0.0
 11
475.2122029123358
 21
67.94605242623005
 31
0.0
  0
LINE
  5
199
330
6C
100
AcDbEntity
  8
Sichtbare Kanten(DIN)
100
AcDbLine
 10
477.7122029123444
 20
54.54605242623005
 30
0.0
 11
477.7122029123444
 21
63.74605242623004
 31
0.0
  0
LINE
  5
19A
330
6C
100
AcDbEntity
  8
Sichtbare Kanten(DIN)
100
AcDbLine
 10
480.2122029123444
 20
63.74605242623004
 30
0.0
 11
480.2122029123444
 21
54.54605242623005
 31
0.0
  0
LINE
  5
19B
330
6C
100
AcDbEntity
  8
Sichtbare Kanten(DIN)
100
AcDbLine
 10
453.2574460250763
 20
48.14605242623009
 30
0.0
 11
453.2574460250763
 21
63.74605242623008
 31
0.0
  0
LINE
  5
19C
330
6C
100
AcDbEntity
  8
Sichtbare Kanten(DIN)
100
AcDbLine
 10
460.0574460250763
 20
41.54605242623006
 30
0.0
 11
459.8574460250763
 21
41.54605242623006
 31
0.0
  0
LINE
  5
19D
330
6C
100
AcDbEntity
  8
Sichtbare Kanten(DIN)
100
AcDbLine
 10
466.6574460250763
 20
52.54605242623007
 30
0.0
 11
466.6574460250763
 21
48.14605242623007
 31
0.0
  0
LINE
  5
19E
330
6C
100
AcDbEntity
  8
Sichtbare Kanten(DIN)
100
AcDbLine
 10
475.2122029123358
 20
54.54605242623005
 30
0.0
 11
468.6574460250763
 21
54.54605242623005
 31
0.0
  0
LINE
  5
19F
330
6C
100
AcDbEntity
  8
Sichtbare Kanten(DIN)
100
AcDbLine
 10
475.2122029123358
 20
213.14605242623
 30
0.0
 11
468.4574460250736
 21
213.14605242623
 31
0.0
  0
LINE
  5
1A0
330
6C
100
AcDbEntity
  8
Sichtbare Kanten(DIN)
100
AcDbLine
 10
477.7122029123444
 20
219.74605242623
 30
0.0
 11
477.7122029123444
 21
226.5460524262301
 31
0.0
  0
LINE
  5
1A1
330
6C
100
AcDbEntity
  8
Sichtbare Kanten(DIN)
100
AcDbLine
 10
480.2122029123444
 20
226.5460524262301
 30
0.0
 11
480.2122029123444
 21
219.74605242623
 31
0.0
  0
LINE
  5
1A2
330
6C
100
AcDbEntity
  8
Sichtbare Kanten(DIN)
100
AcDbLine
 10
457.2574460250735
 20
226.5460524262301
 30
0.0
 11
475.2122029123358
 21
226.5460524262301
 31
0.0
  0
LINE
  5
1A3
330
6C
100
AcDbEntity
  8
Sichtbare Kanten(DIN)
100
AcDbLine
 10
453.0574460250735
 20
206.7460524262301
 30
0.0
 11
453.0574460250736
 21
222.3460524262301
 31
0.0
  0
LINE
  5
1A4
330
6C
100
AcDbEntity
  8
Sichtbare Kanten(DIN)
100
AcDbLine
 10
459.8574460250737
 20
200.14605242623
 30
0.0
 11
459.6574460250736
 21
200.14605242623
 31
0.0
  0
LINE
  5
1A5
330
6C
100
AcDbEntity
  8
Sichtbare Kanten(DIN)
100
AcDbLine
 10
466.4574460250736
 20
211.1460524262301
 30
0.0
 11
466.4574460250736
 21
206.74605242623
 31
0.0
  0
LINE
  5
1A6
330
6C
100
AcDbEntity
  8
Sichtbare Kanten(DIN)
100
AcDbLine
 10
477.7122029123444
 20
219.74605242623
 30
0.0
 11
477.7122029123424
 21
213.14605242623
 31
0.0
  0
LINE
  5
1A7
330
6C
100
AcDbEntity
  8
Sichtbare Kanten(DIN)
100
AcDbLine
 10
480.2122029123425
 20
213.14605242623
 30
0.0
 11
480.2122029123444
 21
219.74605242623
 31
0.0
  0
ARC
  5
1A8
330
6C
100
AcDbEntity
  8
Sichtbare Kanten(DIN)
100
AcDbCircle
 10
459.8574460250763
 20
48.14605242623007
 30
0.0
 40
6.600000000000001
100
AcDbArc
 50
180.0
 51
270.0
  0
ARC
  5
1A9
330
6C
100
AcDbEntity
  8
Sichtbare Kanten(DIN)
100
AcDbCircle
 10
460.0574460250763
 20
48.14605242623009
 30
0.0
 40
6.600000000000015
100
AcDbArc
 50
270.0
 51
0.0
  0
ARC
  5
1AA
330
6C
100
AcDbEntity
  8
Sichtbare Kanten(DIN)
100
AcDbCircle
 10
459.6574460250736
 20
206.7460524262301
 30
0.0
 40
6.600000000000053
100
AcDbArc
 50
180.0
 51
269.9999999999994
  0
ARC
  5
1AB
330
6C
100
AcDbEntity
  8
Sichtbare Kanten(DIN)
100
AcDbCircle
 10
459.8574460250737
 20
206.74605242623
 30
0.0
 40
6.600000000000002
100
AcDbArc
 50
270.0
 51
0.0
  0
LINE
  5
1AC
330
6C
100
AcDbEntity
  8
Sichtbare Kanten(DIN)
100
AcDbLine
 10
477.7122029123431
 20
67.94605242623004
 30
0.0
 11
477.7122029123444
 21
63.74605242623001
 31
0.0
  0
LINE
  5
1AD
330
6C
100
AcDbEntity
  8
Sichtbare Kanten(DIN)
100
AcDbLine
 10
480.2122029123444
 20
63.74605242623001
 30
0.0
 11
480.2122029123431
 21
67.94605242623003
 31
0.0
  0
ARC
  5
1AE
330
6C
100
AcDbEntity
  8
Sichtbare Kanten(DIN)
100
AcDbCircle
 10
457.2574460250735
 20
222.3460524262301
 30
0.0
 40
4.199999999999946
100
AcDbArc
 50
89.99999999999904
 51
180.0
  0
ARC
  5
1AF
330
6C
100
AcDbEntity
  8
Sichtbare Kanten(DIN)
100
AcDbCircle
 10
457.4574460250763
 20
63.74605242623005
 30
0.0
 40
4.200000000000017
100
AcDbArc
 50
90.0
 51
180.0
  0
ARC
  5
1B0
330
6C
100
AcDbEntity
  8
Sichtbare Kanten(DIN)
100
AcDbCircle
 10
468.4574460250736
 20
211.1460524262301
 30
0.0
 40
1.99999999999999
100
AcDbArc
 50
90.0
 51
180.0
  0
ARC
  5
1B1
330
6C
100
AcDbEntity
  8
Sichtbare Kanten(DIN)
100
AcDbCircle
 10
468.6574460250763
 20
52.54605242623007
 30
0.0
 40
1.999999999999989
100
AcDbArc
 50
90.0
 51
180.0
  0
LINE
  5
1B2
330
6C
100
AcDbEntity
  8
Sichtbare Kanten(DIN)
100
AcDbLine
 10
439.6574460250763
 20
55.74605242623009
 30
0.0
 11
439.6574460250765
 21
38.99605242623003
 31
0.0
  0
LINE
  5
1B3
330
6C
100
AcDbEntity
  8
Sichtbare Kanten(DIN)
100
AcDbLine
 10
437.157446025077
 20
34.2460524262301
 30
0.0
 11
436.8074460250762
 21
34.2460524262301
 31
0.0
  0
LINE
  5
1B4
330
6C
100
AcDbEntity
  8
Sichtbare Kanten(DIN)
100
AcDbLine
 10
436.8074460250762
 20
34.2460524262301
 30
0.0
 11
436.8074460250762
 21
39.7460524262301
 31
0.0
  0
LINE
  5
1B5
330
6C
100
AcDbEntity
  8
Sichtbare Kanten(DIN)
100
AcDbLine
 10
436.8074460250762
 20
39.7460524262301
 30
0.0
 11
436.9574460250762
 21
39.7460524262301
 31
0.0
  0
LINE
  5
1B6
330
6C
100
AcDbEntity
  8
Sichtbare Kanten(DIN)
100
AcDbLine
 10
436.9574460250762
 20
39.7460524262301
 30
0.0
 11
436.7947370647405
 21
42.85072433871598
 31
0.0
  0
ARC
  5
1B7
330
6C
100
AcDbEntity
  8
Sichtbare Kanten(DIN)
100
AcDbCircle
 10
434.7974779952313
 20
42.74605242623008
 30
0.0
 40
2.000000000000023
100
AcDbArc
 50
3.000000000000409
 51
89.99999999999797
  0
LINE
  5
1B8
330
6C
100
AcDbEntity
  8
Sichtbare Kanten(DIN)
100
AcDbLine
 10
434.7974779952314
 20
44.7460524262301
 30
0.0
 11
433.9574460250761
 21
44.7460524262301
 31
0.0
  0
ARC
  5
1B9
330
6C
100
AcDbEntity
  8
Sichtbare Kanten(DIN)
100
AcDbCircle
 10
433.9574460250761
 20
43.74605242623011
 30
0.0
 40
0.9999999999999877
100
AcDbArc
 50
90.0
 51
180.0
  0
ARC
  5
1BA
330
6C
100
AcDbEntity
  8
Sichtbare Kanten(DIN)
100
AcDbCircle
 10
433.9574460250763
 20
56.74605242623009
 30
0.0
 40
0.9999999999999872
100
AcDbArc
 50
180.0
 51
270.0
  0
LINE
  5
1BB
330
6C
100
AcDbEntity
  8
Sichtbare Kanten(DIN)
100
AcDbLine
 10
433.9574460250763
 20
55.74605242623011
 30
0.0
 11
439.6574460250763
 21
55.74605242623009
 31
0.0
  0
LINE
  5
1BC
330
6C
100
AcDbEntity
  8
Sichtbare Kanten(DIN)
100
AcDbLine
 10
439.6574460250763
 20
105.7460524262301
 30
0.0
 11
439.6574460250765
 21
88.99605242623003
 31
0.0
  0
LINE
  5
1BD
330
6C
100
AcDbEntity
  8
Sichtbare Kanten(DIN)
100
AcDbLine
 10
437.157446025077
 20
84.24605242623009
 30
0.0
 11
436.8074460250763
 21
84.24605242623009
 31
0.0
  0
LINE
  5
1BE
330
6C
100
AcDbEntity
  8
Sichtbare Kanten(DIN)
100
AcDbLine
 10
436.8074460250763
 20
84.24605242623009
 30
0.0
 11
436.8074460250763
 21
89.74605242623011
 31
0.0
  0
LINE
  5
1BF
330
6C
100
AcDbEntity
  8
Sichtbare Kanten(DIN)
100
AcDbLine
 10
436.8074460250763
 20
89.74605242623011
 30
0.0
 11
436.9574460250763
 21
89.74605242623011
 31
0.0
  0
LINE
  5
1C0
330
6C
100
AcDbEntity
  8
Sichtbare Kanten(DIN)
100
AcDbLine
 10
436.9574460250763
 20
89.74605242623011
 30
0.0
 11
436.7947370647406
 21
92.85072433871597
 31
0.0
  0
ARC
  5
1C1
330
6C
100
AcDbEntity
  8
Sichtbare Kanten(DIN)
100
AcDbCircle
 10
434.7974779952314
 20
92.74605242623009
 30
0.0
 40
2.000000000000031
100
AcDbArc
 50
3.000000000000409
 51
89.99999999999797
  0
LINE
  5
1C2
330
6C
100
AcDbEntity
  8
Sichtbare Kanten(DIN)
100
AcDbLine
 10
434.7974779952314
 20
94.74605242623011
 30
0.0
 11
433.9574460250762
 21
94.74605242623011
 31
0.0
  0
ARC
  5
1C3
330
6C
100
AcDbEntity
  8
Sichtbare Kanten(DIN)
100
AcDbCircle
 10
433.9574460250762
 20
93.74605242623008
 30
0.0
 40
1.000000000000005
100
AcDbArc
 50
90.0
 51
180.0
  0
ARC
  5
1C4
330
6C
100
AcDbEntity
  8
Sichtbare Kanten(DIN)
100
AcDbCircle
 10
433.9574460250764
 20
106.7460524262301
 30
0.0
 40
1.000000000000019
100
AcDbArc
 50
180.0
 51
269.9999999999959
  0
LINE
  5
1C5
330
6C
100
AcDbEntity
  8
Sichtbare Kanten(DIN)
100
AcDbLine
 10
433.9574460250763
 20
105.7460524262301
 30
0.0
 11
439.6574460250763
 21
105.7460524262301
 31
0.0
  0
LINE
  5
1C6
330
6C
100
AcDbEntity
  8
Sichtbare Kanten(DIN)
100
AcDbLine
 10
439.6574460250763
 20
164.7460524262301
 30
0.0
 11
439.6574460250765
 21
147.99605242623
 31
0.0
  0
LINE
  5
1C7
330
6C
100
AcDbEntity
  8
Sichtbare Kanten(DIN)
100
AcDbLine
 10
437.1574460250768
 20
143.24605242623
 30
0.0
 11
436.8074460250763
 21
143.2460524262301
 31
0.0
  0
LINE
  5
1C8
330
6C
100
AcDbEntity
  8
Sichtbare Kanten(DIN)
100
AcDbLine
 10
436.8074460250763
 20
143.2460524262301
 30
0.0
 11
436.8074460250763
 21
148.7460524262301
 31
0.0
  0
LINE
  5
1C9
330
6C
100
AcDbEntity
  8
Sichtbare Kanten(DIN)
100
AcDbLine
 10
436.8074460250763
 20
148.7460524262301
 30
0.0
 11
436.9574460250763
 21
148.7460524262301
 31
0.0
  0
LINE
  5
1CA
330
6C
100
AcDbEntity
  8
Sichtbare Kanten(DIN)
100
AcDbLine
 10
436.9574460250763
 20
148.7460524262301
 30
0.0
 11
436.7947370647406
 21
151.850724338716
 31
0.0
  0
ARC
  5
1CB
330
6C
100
AcDbEntity
  8
Sichtbare Kanten(DIN)
100
AcDbCircle
 10
434.7974779952314
 20
151.7460524262301
 30
0.0
 40
2.000000000000004
100
AcDbArc
 50
2.999999999999801
 51
90.0
  0
LINE
  5
1CC
330
6C
100
AcDbEntity
  8
Sichtbare Kanten(DIN)
100
AcDbLine
 10
434.7974779952314
 20
153.7460524262301
 30
0.0
 11
433.9574460250762
 21
153.7460524262301
 31
0.0
  0
ARC
  5
1CD
330
6C
100
AcDbEntity
  8
Sichtbare Kanten(DIN)
100
AcDbCircle
 10
433.9574460250762
 20
152.74605242623
 30
0.0
 40
1.000000000000014
100
AcDbArc
 50
90.0
 51
180.0
  0
ARC
  5
1CE
330
6C
100
AcDbEntity
  8
Sichtbare Kanten(DIN)
100
AcDbCircle
 10
433.9574460250764
 20
165.7460524262301
 30
0.0
 40
1.000000000000002
100
AcDbArc
 50
180.0
 51
270.0
  0
LINE
  5
1CF
330
6C
100
AcDbEntity
  8
Sichtbare Kanten(DIN)
100
AcDbLine
 10
433.9574460250764
 20
164.7460524262301
 30
0.0
 11
439.6574460250763
 21
164.7460524262301
 31
0.0
  0
LINE
  5
1D0
330
6C
100
AcDbEntity
  8
Sichtbare Kanten(DIN)
100
AcDbLine
 10
439.6574460250763
 20
209.2460524262301
 30
0.0
 11
439.6574460250766
 21
192.49605242623
 31
0.0
  0
LINE
  5
1D1
330
6C
100
AcDbEntity
  8
Sichtbare Kanten(DIN)
100
AcDbLine
 10
437.1574460250768
 20
187.7460524262301
 30
0.0
 11
436.8074460250764
 21
187.7460524262301
 31
0.0
  0
LINE
  5
1D2
330
6C
100
AcDbEntity
  8
Sichtbare Kanten(DIN)
100
AcDbLine
 10
436.8074460250764
 20
187.7460524262301
 30
0.0
 11
436.8074460250764
 21
193.24605242623
 31
0.0
  0
LINE
  5
1D3
330
6C
100
AcDbEntity
  8
Sichtbare Kanten(DIN)
100
AcDbLine
 10
436.8074460250764
 20
193.24605242623
 30
0.0
 11
436.9574460250764
 21
193.24605242623
 31
0.0
  0
LINE
  5
1D4
330
6C
100
AcDbEntity
  8
Sichtbare Kanten(DIN)
100
AcDbLine
 10
436.9574460250764
 20
193.24605242623
 30
0.0
 11
436.7947370647406
 21
196.350724338716
 31
0.0
  0
ARC
  5
1D5
330
6C
100
AcDbEntity
  8
Sichtbare Kanten(DIN)
100
AcDbCircle
 10
434.7974779952314
 20
196.2460524262301
 30
0.0
 40
1.999999999999993
100
AcDbArc
 50
2.999999999999436
 51
90.0
  0
LINE
  5
1D6
330
6C
100
AcDbEntity
  8
Sichtbare Kanten(DIN)
100
AcDbLine
 10
434.7974779952314
 20
198.2460524262301
 30
0.0
 11
433.9574460250763
 21
198.2460524262301
 31
0.0
  0
ARC
  5
1D7
330
6C
100
AcDbEntity
  8
Sichtbare Kanten(DIN)
100
AcDbCircle
 10
433.9574460250762
 20
197.2460524262302
 30
0.0
 40
0.9999999999999433
100
AcDbArc
 50
89.99999999999593
 51
180.0
  0
LINE
  5
1D8
330
6C
100
AcDbEntity
  8
Sichtbare Kanten(DIN)
100
AcDbLine
 10
437.1574460250775
 20
29.04605242622999
 30
0.0
 11
437.1574460250785
 21
38.99605242623
 31
0.0
  0
LINE
  5
1D9
330
6C
100
AcDbEntity
  8
Sichtbare Kanten(DIN)
100
AcDbLine
 10
437.1574460250792
 20
55.74605242623007
 30
0.0
 11
437.1574460250792
 21
38.99605242622996
 31
0.0
  0
LINE
  5
1DA
330
6C
100
AcDbEntity
  8
Sichtbare Kanten(DIN)
100
AcDbLine
 10
437.1574460250774
 20
79.04605242622998
 30
0.0
 11
437.1574460250784
 21
88.99605242623
 31
0.0
  0
LINE
  5
1DB
330
6C
100
AcDbEntity
  8
Sichtbare Kanten(DIN)
100
AcDbLine
 10
437.1574460250792
 20
105.7460524262301
 30
0.0
 11
437.1574460250792
 21
88.99605242622996
 31
0.0
  0
LINE
  5
1DC
330
6C
100
AcDbEntity
  8
Sichtbare Kanten(DIN)
100
AcDbLine
 10
437.1574460250773
 20
138.04605242623
 30
0.0
 11
437.1574460250783
 21
147.99605242623
 31
0.0
  0
LINE
  5
1DD
330
6C
100
AcDbEntity
  8
Sichtbare Kanten(DIN)
100
AcDbLine
 10
437.1574460250791
 20
164.7460524262301
 30
0.0
 11
437.1574460250791
 21
147.99605242623
 31
0.0
  0
LINE
  5
1DE
330
6C
100
AcDbEntity
  8
Sichtbare Kanten(DIN)
100
AcDbLine
 10
437.1574460250772
 20
182.54605242623
 30
0.0
 11
437.1574460250783
 21
192.49605242623
 31
0.0
  0
LINE
  5
1DF
330
6C
100
AcDbEntity
  8
Sichtbare Kanten(DIN)
100
AcDbLine
 10
437.1574460250791
 20
209.2460524262301
 30
0.0
 11
437.1574460250791
 21
192.49605242623
 31
0.0
  0
LINE
  5
1E0
330
6C
100
AcDbEntity
  8
Sichtbare Kanten(DIN)
100
AcDbLine
 10
437.157446025077
 20
258.24605242623
 30
0.0
 11
437.157446025077
 21
244.24605242623
 31
0.0
  0
LINE
  5
1E1
330
6C
100
AcDbEntity
  8
Sichtbare Kanten(DIN)
100
AcDbLine
 10
439.657446025077
 20
258.24605242623
 30
0.0
 11
439.657446025077
 21
244.24605242623
 31
0.0
  0
LINE
  5
1E2
330
6C
100
AcDbEntity
  8
Sichtbare Kanten(DIN)
100
AcDbLine
 10
439.6574460250783
 20
192.49605242623
 30
0.0
 11
439.6574460250772
 21
182.54605242623
 31
0.0
  0
LINE
  5
1E3
330
6C
100
AcDbEntity
  8
Sichtbare Kanten(DIN)
100
AcDbLine
 10
439.6574460250784
 20
147.99605242623
 30
0.0
 11
439.6574460250773
 21
138.04605242623
 31
0.0
  0
LINE
  5
1E4
330
6C
100
AcDbEntity
  8
Sichtbare Kanten(DIN)
100
AcDbLine
 10
439.6574460250784
 20
88.99605242622998
 30
0.0
 11
439.6574460250774
 21
79.04605242622999
 31
0.0
  0
LINE
  5
1E5
330
6C
100
AcDbEntity
  8
Sichtbare Kanten(DIN)
100
AcDbLine
 10
439.6574460250786
 20
38.99605242623
 30
0.0
 11
439.6574460250774
 21
29.04605242622999
 31
0.0
  0
LINE
  5
1E6
330
6C
100
AcDbEntity
  8
Sichtbare Kanten(DIN)
100
AcDbLine
 10
439.657446025077
 20
258.24605242623
 30
0.0
 11
437.157446025077
 21
258.24605242623
 31
0.0
  0
LINE
  5
1E7
330
6C
100
AcDbEntity
  8
Sichtbare Kanten(DIN)
100
AcDbLine
 10
439.657446025077
 20
244.24605242623
 30
0.0
 11
437.157446025077
 21
244.24605242623
 31
0.0
  0
LINE
  5
1E8
330
6C
100
AcDbEntity
  8
Sichtbare Kanten(DIN)
100
AcDbLine
 10
439.6574460250773
 20
138.04605242623
 30
0.0
 11
437.1574460250773
 21
138.04605242623
 31
0.0
  0
LINE
  5
1E9
330
6C
100
AcDbEntity
  8
Sichtbare Kanten(DIN)
100
AcDbLine
 10
439.6574460250784
 20
147.99605242623
 30
0.0
 11
437.1574460250783
 21
147.99605242623
 31
0.0
  0
LINE
  5
1EA
330
6C
100
AcDbEntity
  8
Sichtbare Kanten(DIN)
100
AcDbLine
 10
439.6574460250775
 20
29.04605242622999
 30
0.0
 11
437.1574460250776
 21
29.04605242622999
 31
0.0
  0
LINE
  5
1EB
330
6C
100
AcDbEntity
  8
Sichtbare Kanten(DIN)
100
AcDbLine
 10
439.6574460250786
 20
38.99605242623004
 30
0.0
 11
437.1574460250785
 21
38.99605242623004
 31
0.0
  0
LINE
  5
1EC
330
6C
100
AcDbEntity
  8
Sichtbare Kanten(DIN)
100
AcDbLine
 10
439.6574460250774
 20
79.04605242622999
 30
0.0
 11
437.1574460250775
 21
79.04605242622999
 31
0.0
  0
LINE
  5
1ED
330
6C
100
AcDbEntity
  8
Sichtbare Kanten(DIN)
100
AcDbLine
 10
439.6574460250784
 20
88.99605242623003
 30
0.0
 11
437.1574460250784
 21
88.99605242623003
 31
0.0
  0
LINE
  5
1EE
330
6C
100
AcDbEntity
  8
Sichtbare Kanten(DIN)
100
AcDbLine
 10
439.6574460250783
 20
192.49605242623
 30
0.0
 11
437.1574460250783
 21
192.49605242623
 31
0.0
  0
LINE
  5
1EF
330
6C
100
AcDbEntity
  8
Sichtbare Kanten(DIN)
100
AcDbLine
 10
439.6574460250773
 20
182.54605242623
 30
0.0
 11
437.1574460250772
 21
182.54605242623
 31
0.0
  0
LINE
  5
1F0
330
6C
100
AcDbEntity
  8
Sichtbare Kanten(DIN)
100
AcDbLine
 10
307.1574460250659
 20
258.1308093134893
 30
0.0
 11
308.8372036540189
 21
258.1308093134893
 31
0.0
  0
LINE
  5
1F1
330
6C
100
AcDbEntity
  8
Sichtbare Kanten(DIN)
100
AcDbLine
 10
307.0869896257459
 20
254.1308093134893
 30
0.0
 11
307.0103389353183
 21
254.1308093134893
 31
0.0
  0
LINE
  5
1F2
330
6C
100
AcDbEntity
  8
Sichtbare Kanten(DIN)
100
AcDbLine
 10
307.0103389353184
 20
218.1308093134893
 30
0.0
 11
307.0869896257459
 21
218.1308093134893
 31
0.0
  0
LINE
  5
1F3
330
6C
100
AcDbEntity
  8
Sichtbare Kanten(DIN)
100
AcDbLine
 10
307.1574460250659
 20
256.1308093134893
 30
0.0
 11
307.1574460250659
 21
258.1308093134893
 31
0.0
  0
LINE
  5
1F4
330
6C
100
AcDbEntity
  8
Sichtbare Kanten(DIN)
100
AcDbLine
 10
308.8372036540189
 20
256.1308093134893
 30
0.0
 11
307.1574460250659
 21
256.1308093134893
 31
0.0
  0
LINE
  5
1F5
330
6C
100
AcDbEntity
  8
Sichtbare Kanten(DIN)
100
AcDbLine
 10
308.8372036540189
 20
258.1308093134893
 30
0.0
 11
308.8372036540189
 21
256.1308093134893
 31
0.0
  0
ELLIPSE
  5
1F6
330
6C
100
AcDbEntity
  8
Sichtbare Kanten(DIN)
100
AcDbEllipse
 10
308.8372036540189
 20
254.1308093134893
 30
0.0
 11
0.0000000000000012
 21
4.000000000000006
 31
0.0
210
0.0
220
0.0
230
1.0
 40
0.3621892135499007
 41
4.712388980384716
 42
6.283185307179644
  0
ELLIPSE
  5
1F7
330
6C
100
AcDbEntity
  8
Sichtbare Kanten(DIN)
100
AcDbEllipse
 10
308.8372036540189
 20
254.1308093134893
 30
0.0
 11
-0.0000000000000066
 21
1.999999999999981
 31
0.0
210
0.0
220
0.0
230
1.0
 40
0.3621892135499007
 41
4.712388980384687
 42
6.283185307179579
  0
LINE
  5
1F8
330
6C
100
AcDbEntity
  8
Sichtbare Kanten(DIN)
100
AcDbLine
 10
307.0103389353184
 20
218.1308093134893
 30
0.0
 11
307.0103389353183
 21
254.1308093134893
 31
0.0
  0
LINE
  5
1F9
330
6C
100
AcDbEntity
  8
Sichtbare Kanten(DIN)
100
AcDbLine
 10
308.8372036540189
 20
258.1308093134893
 30
0.0
 11
429.6574460250757
 21
258.1308093134895
 31
0.0
  0
LINE
  5
1FA
330
6C
100
AcDbEntity
  8
Sichtbare Kanten(DIN)
100
AcDbLine
 10
435.7347755512697
 20
258.1308093134895
 30
0.0
 11
437.1574460250809
 21
258.1308093134895
 31
0.0
  0
ELLIPSE
  5
1FB
330
6C
100
AcDbEntity
  8
Sichtbare Kanten(DIN)
100
AcDbEllipse
 10
311.3037796347437
 20
235.1308093134892
 30
0.0
 11
-0.0000000000000103
 21
6.5
 31
0.0
210
0.0
220
0.0
230
1.0
 40
0.1948284814711524
 41
0.0
 42
6.283185307179585
  0
ELLIPSE
  5
1FC
330
6C
100
AcDbEntity
  8
Sichtbare Kanten(DIN)
100
AcDbEllipse
 10
313.2654542895299
 20
235.1308093134893
 30
0.0
 11
0.0000000000001396
 21
-6.499999999999992
 31
0.0
210
0.0
220
0.0
230
1.0
 40
0.1948284814711541
 41
4.027544463114127
 42
5.397233497651086
  0
ELLIPSE
  5
1FD
330
6C
100
AcDbEntity
  8
Sichtbare Kanten(DIN)
100
AcDbEllipse
 10
311.3037796347437
 20
233.1308093134893
 30
0.0
 11
0.0000000000000094
 21
-15.00000000000001
 31
0.0
210
0.0
220
0.0
230
1.0
 40
0.1948284814711519
 41
0.0
 42
1.570796326794891
  0
LINE
  5
1FE
330
6C
100
AcDbEntity
  8
Sichtbare Kanten(DIN)
100
AcDbLine
 10
311.3037796347437
 20
218.1308093134892
 30
0.0
 11
313.2654542895299
 21
218.1308093134892
 31
0.0
  0
ELLIPSE
  5
1FF
330
6C
100
AcDbEntity
  8
Sichtbare Kanten(DIN)
100
AcDbEllipse
 10
313.2654542895299
 20
233.1308093134893
 30
0.0
 11
0.0000000000000159
 21
-15.00000000000001
 31
0.0
210
0.0
220
0.0
230
1.0
 40
0.1948284814711519
 41
0.0
 42
1.570796326794894
  0
ELLIPSE
  5
200
330
6C
100
AcDbEntity
  8
Sichtbare Kanten(DIN)
100
AcDbEllipse
 10
313.2654542895299
 20
239.1308093134892
 30
0.0
 11
-0.0000000000000229
 21
15.00000000000001
 31
0.0
210
0.0
220
0.0
230
1.0
 40
0.1948284814711523
 41
4.712388980384684
 42
6.283185307179642
  0
ELLIPSE
  5
201
330
6C
100
AcDbEntity
  8
Sichtbare Kanten(DIN)
100
AcDbEllipse
 10
311.3037796347437
 20
239.1308093134892
 30
0.0
 11
-0.0000000000000165
 21
15.00000000000002
 31
0.0
210
0.0
220
0.0
230
1.0
 40
0.1948284814711523
 41
4.712388980384751
 42
6.283185307179707
  0
LINE
  5
202
330
6C
100
AcDbEntity
  8
Sichtbare Kanten(DIN)
100
AcDbLine
 10
313.2654542895298
 20
254.1308093134893
 30
0.0
 11
311.3037796347436
 21
254.1308093134893
 31
0.0
  0
LINE
  5
203
330
6C
100
AcDbEntity
  8
Sichtbare Kanten(DIN)
100
AcDbLine
 10
316.1878815115971
 20
239.1308093134892
 30
0.0
 11
316.1878815115971
 21
233.1308093134893
 31
0.0
  0
LINE
  5
204
330
6C
100
AcDbEntity
  8
Sichtbare Kanten(DIN)
100
AcDbLine
 10
314.2262068568109
 20
239.1308093134892
 30
0.0
 11
314.2262068568109
 21
233.1308093134893
 31
0.0
  0
LINE
  5
205
330
6C
100
AcDbEntity
  8
Sichtbare Kanten(DIN)
100
AcDbLine
 10
307.0869896257459
 20
254.1308093134893
 30
0.0
 11
311.3037796347437
 21
254.1308093134893
 31
0.0
  0
LINE
  5
206
330
6C
100
AcDbEntity
  8
Sichtbare Kanten(DIN)
100
AcDbLine
 10
311.3037796347437
 20
218.1308093134892
 30
0.0
 11
307.0869896257459
 21
218.1308093134893
 31
0.0
  0
LINE
  5
207
330
6C
100
AcDbEntity
  8
Sichtbare Kanten(DIN)
100
AcDbLine
 10
429.6574460250757
 20
218.1308093134894
 30
0.0
 11
313.2654542895299
 21
218.1308093134893
 31
0.0
  0
LINE
  5
208
330
6C
100
AcDbEntity
  8
Sichtbare Kanten(DIN)
100
AcDbLine
 10
432.9574460250763
 20
22.74605242622997
 30
0.0
 11
308.8372036540206
 21
22.74605242622977
 31
0.0
  0
LINE
  5
209
330
6C
100
AcDbEntity
  8
Sichtbare Kanten(DIN)
100
AcDbLine
 10
308.8372036540206
 20
22.74605242622977
 30
0.0
 11
307.1574460250677
 21
22.74605242622977
 31
0.0
  0
LINE
  5
20A
330
6C
100
AcDbEntity
  8
Sichtbare Kanten(DIN)
100
AcDbLine
 10
307.0869896257476
 20
62.74605242622984
 30
0.0
 11
307.01033893532
 21
62.74605242622984
 31
0.0
  0
LINE
  5
20B
330
6C
100
AcDbEntity
  8
Sichtbare Kanten(DIN)
100
AcDbLine
 10
307.01033893532
 20
26.74605242622984
 30
0.0
 11
307.0869896257477
 21
26.74605242622984
 31
0.0
  0
LINE
  5
20C
330
6C
100
AcDbEntity
  8
Sichtbare Kanten(DIN)
100
AcDbLine
 10
307.1574460250677
 20
22.74605242622977
 30
0.0
 11
307.1574460250677
 21
24.74605242622978
 31
0.0
  0
LINE
  5
20D
330
6C
100
AcDbEntity
  8
Sichtbare Kanten(DIN)
100
AcDbLine
 10
308.8372036540206
 20
22.74605242622977
 30
0.0
 11
308.8372036540206
 21
24.74605242622978
 31
0.0
  0
LINE
  5
20E
330
6C
100
AcDbEntity
  8
Sichtbare Kanten(DIN)
100
AcDbLine
 10
307.1574460250677
 20
24.74605242622978
 30
0.0
 11
308.8372036540206
 21
24.74605242622978
 31
0.0
  0
ELLIPSE
  5
20F
330
6C
100
AcDbEntity
  8
Sichtbare Kanten(DIN)
100
AcDbEllipse
 10
308.8372036540206
 20
26.74605242622977
 30
0.0
 11
0.0000000000000305
 21
-3.999999999999995
 31
0.0
210
0.0
220
0.0
230
1.0
 40
0.3621892135499019
 41
0.0
 42
1.570796326794933
  0
ELLIPSE
  5
210
330
6C
100
AcDbEntity
  8
Sichtbare Kanten(DIN)
100
AcDbEllipse
 10
308.8372036540206
 20
26.74605242622979
 30
0.0
 11
0.0000000000000225
 21
-2.000000000000013
 31
0.0
210
0.0
220
0.0
230
1.0
 40
0.3621892135498963
 41
0.0
 42
1.570796326794814
  0
LINE
  5
211
330
6C
100
AcDbEntity
  8
Sichtbare Kanten(DIN)
100
AcDbLine
 10
307.01033893532
 20
26.74605242622984
 30
0.0
 11
307.01033893532
 21
62.74605242622984
 31
0.0
  0
ELLIPSE
  5
212
330
6C
100
AcDbEntity
  8
Sichtbare Kanten(DIN)
100
AcDbEllipse
 10
311.3037796347453
 20
45.74605242622993
 30
0.0
 11
-0.00000000000001
 21
6.499999999999999
 31
0.0
210
0.0
220
0.0
230
1.0
 40
0.1948284814711516
 41
0.0
 42
6.283185307179585
  0
ELLIPSE
  5
213
330
6C
100
AcDbEntity
  8
Sichtbare Kanten(DIN)
100
AcDbEllipse
 10
313.2654542895315
 20
45.74605242622993
 30
0.0
 11
0.0000000000001452
 21
-6.500000000000001
 31
0.0
210
0.0
220
0.0
230
1.0
 40
0.1948284814711547
 41
4.02754446311413
 42
5.397233497651084
  0
ELLIPSE
  5
214
330
6C
100
AcDbEntity
  8
Sichtbare Kanten(DIN)
100
AcDbEllipse
 10
311.3037796347452
 20
47.74605242622988
 30
0.0
 11
-0.0000000000000204
 21
15.00000000000001
 31
0.0
210
0.0
220
0.0
230
1.0
 40
0.1948284814711517
 41
4.712388980384695
 42
6.28318530717959
  0
ELLIPSE
  5
215
330
6C
100
AcDbEntity
  8
Sichtbare Kanten(DIN)
100
AcDbEllipse
 10
313.2654542895315
 20
47.74605242622989
 30
0.0
 11
-0.0000000000000284
 21
15.0
 31
0.0
210
0.0
220
0.0
230
1.0
 40
0.1948284814711515
 41
4.712388980384691
 42
6.283185307179573
  0
LINE
  5
216
330
6C
100
AcDbEntity
  8
Sichtbare Kanten(DIN)
100
AcDbLine
 10
313.2654542895315
 20
62.74605242622986
 30
0.0
 11
311.3037796347452
 21
62.74605242622988
 31
0.0
  0
ELLIPSE
  5
217
330
6C
100
AcDbEntity
  8
Sichtbare Kanten(DIN)
100
AcDbEllipse
 10
313.2654542895315
 20
41.74605242622992
 30
0.0
 11
0.0000000000000143
 21
-15.00000000000002
 31
0.0
210
0.0
220
0.0
230
1.0
 40
0.1948284814711502
 41
0.0
 42
1.570796326794829
  0
ELLIPSE
  5
218
330
6C
100
AcDbEntity
  8
Sichtbare Kanten(DIN)
100
AcDbEllipse
 10
311.3037796347452
 20
41.74605242622989
 30
0.0
 11
0.0000000000000095
 21
-15.0
 31
0.0
210
0.0
220
0.0
230
1.0
 40
0.1948284814711501
 41
0.0
 42
1.5707963267949
  0
LINE
  5
219
330
6C
100
AcDbEntity
  8
Sichtbare Kanten(DIN)
100
AcDbLine
 10
311.3037796347454
 20
26.74605242622988
 30
0.0
 11
313.2654542895315
 21
26.7460524262299
 31
0.0
  0
LINE
  5
21A
330
6C
100
AcDbEntity
  8
Sichtbare Kanten(DIN)
100
AcDbLine
 10
307.0869896257476
 20
62.74605242622983
 30
0.0
 11
311.3037796347452
 21
62.74605242622988
 31
0.0
  0
LINE
  5
21B
330
6C
100
AcDbEntity
  8
Sichtbare Kanten(DIN)
100
AcDbLine
 10
316.1878815115988
 20
47.74605242622991
 30
0.0
 11
316.1878815115988
 21
41.74605242622992
 31
0.0
  0
LINE
  5
21C
330
6C
100
AcDbEntity
  8
Sichtbare Kanten(DIN)
100
AcDbLine
 10
311.3037796347454
 20
26.74605242622988
 30
0.0
 11
307.0869896257476
 21
26.74605242622984
 31
0.0
  0
LINE
  5
21D
330
6C
100
AcDbEntity
  8
Sichtbare Kanten(DIN)
100
AcDbLine
 10
314.2262068568125
 20
47.74605242622991
 30
0.0
 11
314.2262068568126
 21
41.74605242622992
 31
0.0
  0
LINE
  5
21E
330
6C
100
AcDbEntity
  8
Sichtbare Kanten(DIN)
100
AcDbLine
 10
313.2654542895315
 20
62.74605242622984
 30
0.0
 11
431.0932368376862
 21
62.74605242622997
 31
0.0
  0
LINE
  5
21F
330
6C
100
AcDbEntity
  8
Sichtbare Kanten(DIN)
100
AcDbLine
 10
480.2122029123371
 20
70.34605242623017
 30
0.0
 11
480.3122029123371
 21
70.34605242623017
 31
0.0
  0
LINE
  5
220
330
6C
100
AcDbEntity
  8
Sichtbare Kanten(DIN)
100
AcDbLine
 10
480.3122029123371
 20
70.34605242623017
 30
0.0
 11
480.3122029123371
 21
210.3460524262301
 31
0.0
  0
LINE
  5
221
330
6C
100
AcDbEntity
  8
Sichtbare Kanten(DIN)
100
AcDbLine
 10
480.2122029123371
 20
210.3460524262301
 30
0.0
 11
480.3122029123371
 21
210.3460524262301
 31
0.0
  0
LINE
  5
222
330
6C
100
AcDbEntity
  8
Sichtbare Kanten(DIN)
100
AcDbLine
 10
480.2122029123371
 20
70.34605242623017
 30
0.0
 11
480.2122029123371
 21
210.3460524262301
 31
0.0
  0
LINE
  5
223
330
6C
100
AcDbEntity
  8
Sichtbare Kanten(DIN)
100
AcDbLine
 10
431.0932368376864
 20
62.74605242622997
 30
0.0
 11
431.0932368376864
 21
56.74605242623009
 31
0.0
  0
LINE
  5
224
330
6C
100
AcDbEntity
  8
Sichtbare Kanten(DIN)
100
AcDbLine
 10
431.0932368376864
 20
56.74605242623009
 30
0.0
 11
432.9574460250766
 21
56.74605242623009
 31
0.0
  0
LINE
  5
225
330
6C
100
AcDbEntity
  8
Sichtbare Kanten(DIN)
100
AcDbLine
 10
431.0932368376864
 20
62.74605242622997
 30
0.0
 11
432.9574460250766
 21
62.74605242622997
 31
0.0
  0
LINE
  5
226
330
6C
100
AcDbEntity
  8
Sichtbare Kanten(DIN)
100
AcDbLine
 10
431.0932368376864
 20
43.74605242623011
 30
0.0
 11
431.0932368376864
 21
26.74605242622996
 31
0.0
  0
LINE
  5
227
330
6C
100
AcDbEntity
  8
Sichtbare Kanten(DIN)
100
AcDbLine
 10
431.0932368376864
 20
26.74605242622996
 30
0.0
 11
432.9574460250766
 21
26.74605242622997
 31
0.0
  0
LINE
  5
228
330
6C
100
AcDbEntity
  8
Sichtbare Kanten(DIN)
100
AcDbLine
 10
431.0932368376864
 20
43.74605242623011
 30
0.0
 11
432.9574460250766
 21
43.74605242623011
 31
0.0
  0
LINE
  5
229
330
6C
100
AcDbEntity
  8
Sichtbare Kanten(DIN)
100
AcDbLine
 10
100.079844238292
 20
-181.6520277065887
 30
0.0
 11
105.079844238292
 21
-181.6520277065901
 31
0.0
  0
LINE
  5
22A
330
6C
100
AcDbEntity
  8
Sichtbare Kanten(DIN)
100
AcDbLine
 10
100.079844238292
 20
-181.6520277065919
 30
0.0
 11
93.75508735104274
 21
-181.652027706592
 31
0.0
  0
LINE
  5
22B
330
6C
100
AcDbEntity
  8
Sichtbare Kanten(DIN)
100
AcDbLine
 10
144.1893580128109
 20
-181.6520277065937
 30
0.0
 11
149.1893580128108
 21
-181.6520277065921
 31
0.0
  0
LINE
  5
22C
330
6C
100
AcDbEntity
  8
Sichtbare Kanten(DIN)
100
AcDbLine
 10
152.5141149000704
 20
-181.6520277065919
 30
0.0
 11
149.1893580128108
 21
-181.6520277065919
 31
0.0
  0
ARC
  5
22D
330
6C
100
AcDbEntity
  8
Sichtbare Kanten(DIN)
100
AcDbCircle
 10
155.5141149000704
 20
-181.6520277065919
 30
0.0
 40
3.000000000000019
100
AcDbArc
 50
180.0
 51
269.9999999999983
  0
LINE
  5
22E
330
6C
100
AcDbEntity
  8
Sichtbare Kanten(DIN)
100
AcDbLine
 10
149.1893580128109
 20
-226.6520277065919
 30
0.0
 11
150.5141149000707
 21
-226.6520277065918
 31
0.0
  0
LINE
  5
22F
330
6C
100
AcDbEntity
  8
Sichtbare Kanten(DIN)
100
AcDbLine
 10
155.5141149000704
 20
-184.6520277065918
 30
0.0
 11
155.5141149000704
 21
-221.6520277065919
 31
0.0
  0
LINE
  5
230
330
6C
100
AcDbEntity
  8
Sichtbare Kanten(DIN)
100
AcDbLine
 10
105.0798442382919
 20
-226.652027706589
 30
0.0
 11
105.0798442382919
 21
-227.206784593854
 31
0.0
  0
LINE
  5
231
330
6C
100
AcDbEntity
  8
Sichtbare Kanten(DIN)
100
AcDbLine
 10
93.75508735101599
 20
-221.6520277066178
 30
0.0
 11
93.75508735104274
 21
-181.652027706592
 31
0.0
  0
LINE
  5
232
330
6C
100
AcDbEntity
  8
Sichtbare Kanten(DIN)
100
AcDbLine
 10
98.75508735103402
 20
-226.6520277065913
 30
0.0
 11
100.079844238292
 21
-226.6520277065922
 31
0.0
  0
LINE
  5
233
330
6C
100
AcDbEntity
  8
Sichtbare Kanten(DIN)
100
AcDbLine
 10
146.6893580128108
 20
-226.6520277065942
 30
0.0
 11
146.6893580128108
 21
-227.206784593854
 31
0.0
  0
LINE
  5
234
330
6C
100
AcDbEntity
  8
Sichtbare Kanten(DIN)
100
AcDbLine
 10
135.3346011255488
 20
-229.7067845938537
 30
0.0
 11
141.6893580128108
 21
-229.7067845938537
 31
0.0
  0
LINE
  5
235
330
6C
100
AcDbEntity
  8
Sichtbare Kanten(DIN)
100
AcDbLine
 10
141.6893580128108
 20
-232.2067845938537
 30
0.0
 11
135.3346011255488
 21
-232.2067845938537
 31
0.0
  0
LINE
  5
236
330
6C
100
AcDbEntity
  8
Sichtbare Kanten(DIN)
100
AcDbLine
 10
144.1893580128108
 20
-227.206784593854
 30
0.0
 11
144.1893580128108
 21
-226.6520277065942
 31
0.0
  0
LINE
  5
237
330
6C
100
AcDbEntity
  8
Sichtbare Kanten(DIN)
100
AcDbLine
 10
113.9346011255488
 20
-232.2067845938537
 30
0.0
 11
107.579844238292
 21
-232.2067845938537
 31
0.0
  0
LINE
  5
238
330
6C
100
AcDbEntity
  8
Sichtbare Kanten(DIN)
100
AcDbLine
 10
107.5798442382919
 20
-229.7067845938537
 30
0.0
 11
113.9346011255488
 21
-229.7067845938537
 31
0.0
  0
LINE
  5
239
330
6C
100
AcDbEntity
  8
Sichtbare Kanten(DIN)
100
AcDbLine
 10
102.579844238292
 20
-227.206784593854
 30
0.0
 11
102.579844238292
 21
-226.652027706589
 31
0.0
  0
ARC
  5
23A
330
6C
100
AcDbEntity
  8
Sichtbare Kanten(DIN)
100
AcDbCircle
 10
150.5141149000704
 20
-221.6520277065919
 30
0.0
 40
4.999999999999999
100
AcDbArc
 50
270.0000000000041
 51
0.0
  0
ARC
  5
23B
330
6C
100
AcDbEntity
  8
Sichtbare Kanten(DIN)
100
AcDbCircle
 10
98.75508735101602
 20
-221.6520277066211
 30
0.0
 40
4.999999999999999
100
AcDbArc
 50
180.0
 51
270.0000000002056
  0
LINE
  5
23C
330
6C
100
AcDbEntity
  8
Sichtbare Kanten(DIN)
100
AcDbLine
 10
105.0798442382919
 20
-181.6520277065934
 30
0.0
 11
105.0798442382919
 21
-187.7293572327874
 31
0.0
  0
LINE
  5
23D
330
6C
100
AcDbEntity
  8
Sichtbare Kanten(DIN)
100
AcDbLine
 10
105.0798442382919
 20
-192.7746981804049
 30
0.0
 11
105.079844238292
 21
-226.6520277065942
 31
0.0
  0
LINE
  5
23E
330
6C
100
AcDbEntity
  8
Sichtbare Kanten(DIN)
100
AcDbLine
 10
105.079844238292
 20
-226.6520277065942
 30
0.0
 11
100.079844238292
 21
-226.6520277065948
 31
0.0
  0
SPLINE
  5
23F
330
6C
100
AcDbEntity
  8
Sichtbare Kanten(DIN)
100
AcDbSpline
210
0.0
220
0.0
230
1.0
 70
     8
 71
     3
 72
    10
 73
     6
 74
     0
 42
0.0000000001
 43
0.0000000001
 40
0.0
 40
0.0
 40
0.0
 40
0.0
 40
0.0991381451580472
 40
0.0991381451580472
 40
0.198276290323437
 40
0.198276290323437
 40
0.198276290323437
 40
0.198276290323437
 10
105.0798442382919
 20
-192.7746981804049
 30
0.0
 10
105.0798442382919
 20
-192.838124720231
 30
0.0
 10
105.048289876635
 20
-192.9014014427481
 30
0.0
 10
104.9229648338146
 20
-193.0282543363477
 30
0.0
 10
104.829490923302
 20
-193.0915310588696
 30
0.0
 10
104.7065274344272
 20
-193.1549575987003
 30
0.0
  0
SPLINE
  5
240
330
6C
100
AcDbEntity
  8
Sichtbare Kanten(DIN)
100
AcDbSpline
210
0.0
220
0.0
230
1.0
 70
     8
 71
     3
 72
    34
 73
    30
 74
     0
 42
0.0000000001
 43
0.0000000001
 40
0.0
 40
0.0
 40
0.0
 40
0.0
 40
0.0648284199630507
 40
0.0648284199630507
 40
0.194281093543927
 40
0.194281093543927
 40
0.3430516683678367
 40
0.3430516683678367
 40
0.487236915768349
 40
0.487236915768349
 40
0.5787962133597591
 40
0.5787962133597591
 40
0.6371921602870279
 40
0.6371921602870279
 40
0.7224478469579699
 40
0.7224478469579699
 40
0.8157317392871522
 40
0.8157317392871522
 40
0.9176984735883575
 40
0.9176984735883575
 40
1.004879389756537
 40
1.004879389756537
 40
1.144721949440918
 40
1.144721949440918
 40
1.284676434272357
 40
1.284676434272357
 40
1.354240755200455
 40
1.354240755200455
 40
1.424112600809449
 40
1.424112600809449
 40
1.424112600809449
 40
1.424112600809449
 10
104.7065274344273
 20
-193.1549575987002
 30
0.0
 10
104.6260984712769
 20
-193.1961536975672
 30
0.0
 10
104.5330396129939
 20
-193.2243269329208
 30
0.0
 10
104.2126853423959
 20
-193.2691727985537
 30
0.0
 10
103.9504527866963
 20
-193.2470101882351
 30
0.0
 10
103.3106849412167
 20
-193.0848761528568
 30
0.0
 10
102.9412455645458
 20
-192.9324483438987
 30
0.0
 10
102.2408520228617
 20
-192.5124995380526
 30
0.0
 10
101.9158072237158
 20
-192.2520527830545
 30
0.0
 10
101.4775335603061
 20
-191.7440937683426
 30
0.0
 10
101.3296659322258
 20
-191.5256856811908
 30
0.0
 10
101.1430526013457
 20
-191.1347208802911
 30
0.0
 10
101.0851669118764
 20
-190.9761145066594
 30
0.0
 10
100.9847624494212
 20
-190.5720702165695
 30
0.0
 10
100.963223698468
 20
-190.3265091191264
 30
0.0
 10
101.0020524469673
 20
-189.8109099970758
 30
0.0
 10
101.0697016381813
 20
-189.5490909190788
 30
0.0
 10
101.2944602756001
 20
-189.0316331029195
 30
0.0
 10
101.4559590161705
 20
-188.7854161652899
 30
0.0
 10
101.8077019491616
 20
-188.3769169201609
 30
0.0
 10
101.9880876738966
 20
-188.2101077579769
 30
0.0
 10
102.4800381040111
 20
-187.8289529759865
 30
0.0
 10
102.8131152932401
 20
-187.640383821561
 30
0.0
 10
103.4765343099261
 20
-187.3652925328815
 30
0.0
 10
103.7873930032989
 20
-187.2860090494364
 30
0.0
 10
104.1887608532862
 20
-187.2481445535291
 30
0.0
 10
104.3105382618465
 20
-187.2492145840627
 30
0.0
 10
104.5291844232788
 20
-187.2785892554311
 30
0.0
 10
104.6244007673448
 20
-187.3070321435659
 30
0.0
 10
104.7065274344301
 20
-187.3490978144929
 30
0.0
  0
SPLINE
  5
241
330
6C
100
AcDbEntity
  8
Sichtbare Kanten(DIN)
100
AcDbSpline
210
0.0
220
0.0
230
1.0
 70
     8
 71
     3
 72
    10
 73
     6
 74
     0
 42
0.0000000001
 43
0.0000000001
 40
0.0
 40
0.0
 40
0.0
 40
0.0
 40
0.0991381451577607
 40
0.0991381451577607
 40
0.1982762903230118
 40
0.1982762903230118
 40
0.1982762903230118
 40
0.1982762903230118
 10
104.7065274344301
 20
-187.3490978144929
 30
0.0
 10
104.829490923295
 20
-187.4125243543188
 30
0.0
 10
104.9229648338021
 20
-187.4758010768359
 30
0.0
 10
105.0482898766306
 20
-187.6026539704352
 30
0.0
 10
105.079844238292
 20
-187.6659306929567
 30
0.0
 10
105.0798442382919
 20
-187.7293572327874
 30
0.0
  0
LINE
  5
242
330
6C
100
AcDbEntity
  8
Sichtbare Kanten(DIN)
100
AcDbLine
 10
103.8298499655086
 20
-192.7746981804049
 30
0.0
 11
105.0798442382919
 21
-192.7746981804049
 31
0.0
  0
LINE
  5
243
330
6C
100
AcDbEntity
  8
Sichtbare Kanten(DIN)
100
AcDbLine
 10
102.6809073787068
 20
-192.7746981804049
 30
0.0
 11
103.8298499655086
 21
-192.7746981804049
 31
0.0
  0
LINE
  5
244
330
6C
100
AcDbEntity
  8
Sichtbare Kanten(DIN)
100
AcDbLine
 10
103.8298499655108
 20
-187.7293572327874
 30
0.0
 11
102.6809073787132
 21
-187.7293572327874
 31
0.0
  0
LINE
  5
245
330
6C
100
AcDbEntity
  8
Sichtbare Kanten(DIN)
100
AcDbLine
 10
105.0798442382919
 20
-187.7293572327874
 30
0.0
 11
103.8298499655108
 21
-187.7293572327874
 31
0.0
  0
LINE
  5
246
330
6C
100
AcDbEntity
  8
Sichtbare Kanten(DIN)
100
AcDbLine
 10
105.0798442382919
 20
-187.7293572327874
 30
0.0
 11
105.0798442382919
 21
-188.9770277065981
 31
0.0
  0
LINE
  5
247
330
6C
100
AcDbEntity
  8
Sichtbare Kanten(DIN)
100
AcDbLine
 10
105.0798442382919
 20
-188.9770277065992
 30
0.0
 11
105.0798442382919
 21
-189.1520277065987
 31
0.0
  0
LINE
  5
248
330
6C
100
AcDbEntity
  8
Sichtbare Kanten(DIN)
100
AcDbLine
 10
105.0798442382919
 20
-191.6520277065974
 30
0.0
 11
105.0798442382919
 21
-192.7746981804049
 31
0.0
  0
LINE
  5
249
330
6C
100
AcDbEntity
  8
Sichtbare Kanten(DIN)
100
AcDbLine
 10
146.6893580128108
 20
-187.7883056805811
 30
0.0
 11
146.6893580128109
 21
-188.977027706598
 31
0.0
  0
LINE
  5
24A
330
6C
100
AcDbEntity
  8
Sichtbare Kanten(DIN)
100
AcDbLine
 10
146.6893580128108
 20
-188.9770277065992
 30
0.0
 11
146.6893580128108
 21
-189.1520277065987
 31
0.0
  0
LINE
  5
24B
330
6C
100
AcDbEntity
  8
Sichtbare Kanten(DIN)
100
AcDbLine
 10
146.6893580128109
 20
-191.6520277065974
 30
0.0
 11
146.6893580128108
 21
-192.7157497326122
 31
0.0
  0
LINE
  5
24C
330
6C
100
AcDbEntity
  8
Sichtbare Kanten(DIN)
100
AcDbLine
 10
102.579844238292
 20
-192.7157497326104
 30
0.0
 11
102.579844238292
 21
-191.6520277065974
 31
0.0
  0
LINE
  5
24D
330
6C
100
AcDbEntity
  8
Sichtbare Kanten(DIN)
100
AcDbLine
 10
144.1893580128109
 20
-188.977027706598
 30
0.0
 11
144.1893580128108
 21
-187.729357232789
 31
0.0
  0
LINE
  5
24E
330
6C
100
AcDbEntity
  8
Sichtbare Kanten(DIN)
100
AcDbLine
 10
146.6893580128109
 20
-188.977027706598
 30
0.0
 11
144.1893580128109
 21
-188.977027706598
 31
0.0
  0
LINE
  5
24F
330
6C
100
AcDbEntity
  8
Sichtbare Kanten(DIN)
100
AcDbLine
 10
144.1893580128109
 20
-189.1520277065987
 30
0.0
 11
144.1893580128109
 21
-188.9770277065992
 31
0.0
  0
LINE
  5
250
330
6C
100
AcDbEntity
  8
Sichtbare Kanten(DIN)
100
AcDbLine
 10
144.1893580128108
 20
-192.7746981804041
 30
0.0
 11
144.1893580128108
 21
-191.6520277065974
 31
0.0
  0
LINE
  5
251
330
6C
100
AcDbEntity
  8
Sichtbare Kanten(DIN)
100
AcDbLine
 10
102.5798442382919
 20
-188.9770277065981
 30
0.0
 11
102.5798442382919
 21
-187.7883056805858
 31
0.0
  0
LINE
  5
252
330
6C
100
AcDbEntity
  8
Sichtbare Kanten(DIN)
100
AcDbLine
 10
102.5798442382919
 20
-188.9770277065981
 30
0.0
 11
105.0798442382919
 21
-188.9770277065981
 31
0.0
  0
LINE
  5
253
330
6C
100
AcDbEntity
  8
Sichtbare Kanten(DIN)
100
AcDbLine
 10
102.5798442382919
 20
-189.1520277065987
 30
0.0
 11
102.5798442382919
 21
-188.9770277065992
 31
0.0
  0
SPLINE
  5
254
330
6C
100
AcDbEntity
  8
Sichtbare Kanten(DIN)
100
AcDbSpline
210
0.0
220
0.0
230
1.0
 70
     8
 71
     3
 72
    10
 73
     6
 74
     0
 42
0.0000000001
 43
0.0000000001
 40
0.0
 40
0.0
 40
0.0
 40
0.0
 40
0.0991381451582825
 40
0.0991381451582825
 40
0.1982762903239814
 40
0.1982762903239814
 40
0.1982762903239814
 40
0.1982762903239814
 10
144.5626748166769
 20
-193.1549575986999
 30
0.0
 10
144.4397113278108
 20
-193.0915310588737
 30
0.0
 10
144.3462374173025
 20
-193.0282543363564
 30
0.0
 10
144.2209123744726
 20
-192.901401442757
 30
0.0
 10
144.1893580128108
 20
-192.838124720235
 30
0.0
 10
144.1893580128108
 20
-192.7746981804041
 30
0.0
  0
LINE
  5
255
330
6C
100
AcDbEntity
  8
Sichtbare Kanten(DIN)
100
AcDbLine
 10
145.4393522856044
 20
-192.7746981804041
 30
0.0
 11
146.5882948724003
 21
-192.7746981804041
 31
0.0
  0
LINE
  5
256
330
6C
100
AcDbEntity
  8
Sichtbare Kanten(DIN)
100
AcDbLine
 10
144.1893580128108
 20
-192.7746981804041
 30
0.0
 11
145.4393522856044
 21
-192.7746981804041
 31
0.0
  0
SPLINE
  5
257
330
6C
100
AcDbEntity
  8
Sichtbare Kanten(DIN)
100
AcDbSpline
210
0.0
220
0.0
230
1.0
 70
     8
 71
     3
 72
    10
 73
     6
 74
     0
 42
0.0000000001
 43
0.0000000001
 40
0.0
 40
0.0
 40
0.0
 40
0.0
 40
0.0991381451581371
 40
0.0991381451581371
 40
0.1982762903235587
 40
0.1982762903235587
 40
0.1982762903235587
 40
0.1982762903235587
 10
144.1893580128109
 20
-187.729357232789
 30
0.0
 10
144.1893580128109
 20
-187.6659306929626
 30
0.0
 10
144.2209123744678
 20
-187.6026539704453
 30
0.0
 10
144.3462374172883
 20
-187.4758010768457
 30
0.0
 10
144.439711327801
 20
-187.4125243543237
 30
0.0
 10
144.562674816676
 20
-187.3490978144926
 30
0.0
  0
LINE
  5
258
330
6C
100
AcDbEntity
  8
Sichtbare Kanten(DIN)
100
AcDbLine
 10
145.4393522855936
 20
-187.729357232789
 30
0.0
 11
144.1893580128108
 21
-187.729357232789
 31
0.0
  0
LINE
  5
259
330
6C
100
AcDbEntity
  8
Sichtbare Kanten(DIN)
100
AcDbLine
 10
146.5882948724002
 20
-187.729357232789
 30
0.0
 11
145.4393522855936
 21
-187.729357232789
 31
0.0
  0
SPLINE
  5
25A
330
6C
100
AcDbEntity
  8
Sichtbare Kanten(DIN)
100
AcDbSpline
210
0.0
220
0.0
230
1.0
 70
     8
 71
     3
 72
    34
 73
    30
 74
     0
 42
0.0000000001
 43
0.0000000001
 40
0.0
 40
0.0
 40
0.0
 40
0.0
 40
0.0648284199628826
 40
0.0648284199628826
 40
0.1942810935433459
 40
0.1942810935433459
 40
0.3430516683635264
 40
0.3430516683635264
 40
0.4872369157525741
 40
0.4872369157525741
 40
0.5858729980768712
 40
0.5858729980768712
 40
0.6914866567640345
 40
0.6914866567640345
 40
0.752837422847996
 40
0.752837422847996
 40
0.7860472972056562
 40
0.7860472972056562
 40
0.8384580921125104
 40
0.8384580921125104
 40
0.9129525703037696
 40
0.9129525703037696
 40
1.00125070044688
 40
1.00125070044688
 40
1.072652154328696
 40
1.072652154328696
 40
1.108328241931133
 40
1.108328241931133
 40
1.144254699355634
 40
1.144254699355634
 40
1.144254699355634
 40
1.144254699355634
 10
144.562674816676
 20
-187.3490978144926
 30
0.0
 10
144.6431037798262
 20
-187.3079017156256
 30
0.0
 10
144.7361626381092
 20
-187.2797284802716
 30
0.0
 10
145.0565169087077
 20
-187.2348826146381
 30
0.0
 10
145.3187494644074
 20
-187.2570452249564
 30
0.0
 10
145.958517309879
 20
-187.4191792603318
 30
0.0
 10
146.3279566865486
 20
-187.5716070692863
 30
0.0
 10
147.0283502282252
 20
-187.9915558751254
 30
0.0
 10
147.3533950273748
 20
-188.252002630118
 30
0.0
 10
147.8048251707304
 20
-188.7752100002463
 30
0.0
 10
147.9619709677848
 20
-189.0119388915519
 30
0.0
 10
148.2035431450379
 20
-189.5491181088295
 30
0.0
 10
148.2781265103421
 20
-189.8455657678628
 30
0.0
 10
148.2994738335781
 20
-190.3274639264639
 30
0.0
 10
148.2906971103169
 20
-190.5774290788335
 30
0.0
 10
148.164007393958
 20
-191.0346766287559
 30
0.0
 10
148.1032782964391
 20
-191.1893705482033
 30
0.0
 10
147.9107276965819
 20
-191.5718424734808
 30
0.0
 10
147.7606729802974
 20
-191.7851369600683
 30
0.0
 10
147.3470608396585
 20
-192.2508393177137
 30
0.0
 10
147.0680575464203
 20
-192.4763545096014
 30
0.0
 10
146.4389486616116
 20
-192.8766809752782
 30
0.0
 10
146.0933322779098
 20
-193.0298884124707
 30
0.0
 10
145.5167030083702
 20
-193.2061378098008
 30
0.0
 10
145.2799460275806
 20
-193.2470498421323
 30
0.0
 10
144.9718503238619
 20
-193.253883323547
 30
0.0
 10
144.8775088775841
 20
-193.2469824396246
 30
0.0
 10
144.7060850228859
 20
-193.2148561142481
 30
0.0
 10
144.6298094283397
 20
-193.1893442672719
 30
0.0
 10
144.5626748166769
 20
-193.1549575986999
 30
0.0
  0
LINE
  5
25B
330
6C
100
AcDbEntity
  8
Sichtbare Kanten(DIN)
100
AcDbLine
 10
144.1893580128108
 20
-187.729357232789
 30
0.0
 11
144.1893580128109
 21
-181.6520277065933
 31
0.0
  0
LINE
  5
25C
330
6C
100
AcDbEntity
  8
Sichtbare Kanten(DIN)
100
AcDbLine
 10
144.1893580128108
 20
-226.6520277065938
 30
0.0
 11
144.1893580128108
 21
-192.7746981804041
 31
0.0
  0
LINE
  5
25D
330
6C
100
AcDbEntity
  8
Sichtbare Kanten(DIN)
100
AcDbLine
 10
149.1893580128109
 20
-226.6520277065919
 30
0.0
 11
144.1893580128108
 21
-226.6520277065936
 31
0.0
  0
LINE
  5
25E
330
6C
100
AcDbEntity
  8
Sichtbare Kanten(DIN)
100
AcDbLine
 10
124.7346011255487
 20
-232.206784593867
 30
0.0
 11
117.9346011255487
 21
-232.206784593867
 31
0.0
  0
LINE
  5
25F
330
6C
100
AcDbEntity
  8
Sichtbare Kanten(DIN)
100
AcDbLine
 10
117.9346011255487
 20
-229.706784593867
 30
0.0
 11
124.7346011255487
 21
-229.706784593867
 31
0.0
  0
LINE
  5
260
330
6C
100
AcDbEntity
  8
Sichtbare Kanten(DIN)
100
AcDbLine
 10
131.3346011255487
 20
-229.7067845938651
 30
0.0
 11
124.7346011255487
 21
-229.7067845938671
 31
0.0
  0
LINE
  5
261
330
6C
100
AcDbEntity
  8
Sichtbare Kanten(DIN)
100
AcDbLine
 10
124.7346011255487
 20
-232.206784593867
 30
0.0
 11
131.3346011255487
 21
-232.2067845938651
 31
0.0
  0
LINE
  5
262
330
6C
100
AcDbEntity
  8
Sichtbare Kanten(DIN)
100
AcDbLine
 10
131.3346011255488
 20
-229.7067845938549
 30
0.0
 11
135.3346011255488
 21
-229.7067845938537
 31
0.0
  0
LINE
  5
263
330
6C
100
AcDbEntity
  8
Sichtbare Kanten(DIN)
100
AcDbLine
 10
135.3346011255488
 20
-232.2067845938537
 30
0.0
 11
131.3346011255488
 21
-232.2067845938549
 31
0.0
  0
LINE
  5
264
330
6C
100
AcDbEntity
  8
Sichtbare Kanten(DIN)
100
AcDbLine
 10
131.3346011255488
 20
-229.7067845938549
 30
0.0
 11
131.3346011255488
 21
-232.2067845938548
 31
0.0
  0
LINE
  5
265
330
6C
100
AcDbEntity
  8
Sichtbare Kanten(DIN)
100
AcDbLine
 10
117.9346011255488
 20
-232.2067845938548
 30
0.0
 11
113.9346011255488
 21
-232.2067845938537
 31
0.0
  0
LINE
  5
266
330
6C
100
AcDbEntity
  8
Sichtbare Kanten(DIN)
100
AcDbLine
 10
113.9346011255488
 20
-229.7067845938537
 30
0.0
 11
117.9346011255488
 21
-229.7067845938548
 31
0.0
  0
LINE
  5
267
330
6C
100
AcDbEntity
  8
Sichtbare Kanten(DIN)
100
AcDbLine
 10
117.9346011255488
 20
-232.2067845938549
 30
0.0
 11
117.9346011255488
 21
-229.7067845938548
 31
0.0
  0
LINE
  5
268
330
6C
100
AcDbEntity
  8
Sichtbare Kanten(DIN)
100
AcDbLine
 10
143.8604799512705
 20
-228.4462318611221
 30
0.0
 11
146.0316018897301
 21
-229.6856791283906
 31
0.0
  0
ARC
  5
269
330
6C
100
AcDbEntity
  8
Sichtbare Kanten(DIN)
100
AcDbCircle
 10
141.6893580128109
 20
-227.206784593854
 30
0.0
 40
2.499999999999952
100
AcDbArc
 50
330.2788745368256
 51
0.0
  0
ARC
  5
26A
330
6C
100
AcDbEntity
  8
Sichtbare Kanten(DIN)
100
AcDbCircle
 10
141.6893580128108
 20
-227.2067845938536
 30
0.0
 40
2.500000000000016
100
AcDbArc
 50
270.0000000000004
 51
330.2788745368264
  0
ARC
  5
26B
330
6C
100
AcDbEntity
  8
Sichtbare Kanten(DIN)
100
AcDbCircle
 10
141.6893580128109
 20
-227.2067845938537
 30
0.0
 40
4.99999999999996
100
AcDbArc
 50
269.9999999999996
 51
330.2788745368263
  0
ARC
  5
26C
330
6C
100
AcDbEntity
  8
Sichtbare Kanten(DIN)
100
AcDbCircle
 10
141.6893580128107
 20
-227.206784593854
 30
0.0
 40
5.000000000000096
100
AcDbArc
 50
330.2788745368262
 51
0.0
  0
ARC
  5
26D
330
6C
100
AcDbEntity
  8
Sichtbare Kanten(DIN)
100
AcDbCircle
 10
107.579844238292
 20
-227.2067845938536
 30
0.0
 40
2.500000000000018
100
AcDbArc
 50
209.7211254630948
 51
270.0000000000004
  0
LINE
  5
26E
330
6C
100
AcDbEntity
  8
Sichtbare Kanten(DIN)
100
AcDbLine
 10
105.4087222998306
 20
-228.4462318611192
 30
0.0
 11
103.2376003613693
 21
-229.6856791283846
 31
0.0
  0
ARC
  5
26F
330
6C
100
AcDbEntity
  8
Sichtbare Kanten(DIN)
100
AcDbCircle
 10
107.579844238292
 20
-227.2067845938537
 30
0.0
 40
4.999999999999976
100
AcDbArc
 50
209.7211254630947
 51
270.0000000000006
  0
ARC
  5
270
330
6C
100
AcDbEntity
  8
Sichtbare Kanten(DIN)
100
AcDbCircle
 10
107.5798442382918
 20
-227.2067845938541
 30
0.0
 40
4.999999999999858
100
AcDbArc
 50
180.0
 51
209.7211254630951
  0
ARC
  5
271
330
6C
100
AcDbEntity
  8
Sichtbare Kanten(DIN)
100
AcDbCircle
 10
107.5798442382922
 20
-227.206784593854
 30
0.0
 40
2.500000000000303
100
AcDbArc
 50
180.0
 51
209.7211254630939
  0
LINE
  5
272
330
6C
100
AcDbEntity
  8
Sichtbare Kanten(DIN)
100
AcDbLine
 10
121.0798442382919
 20
-189.152027706596
 30
0.0
 11
101.2478648572805
 21
-189.152027706596
 31
0.0
  0
LINE
  5
273
330
6C
100
AcDbEntity
  8
Sichtbare Kanten(DIN)
100
AcDbLine
 10
148.0213373938291
 20
-189.152027706596
 30
0.0
 11
127.0798442382919
 21
-189.152027706596
 31
0.0
  0
LINE
  5
274
330
6C
100
AcDbEntity
  8
Sichtbare Kanten(DIN)
100
AcDbLine
 10
147.8435754499135
 20
-191.6520277065961
 30
0.0
 11
127.0798442382919
 21
-191.6520277065961
 31
0.0
  0
LINE
  5
275
330
6C
100
AcDbEntity
  8
Sichtbare Kanten(DIN)
100
AcDbLine
 10
121.0798442382919
 20
-191.6520277065961
 30
0.0
 11
101.425626801194
 21
-191.6520277065961
 31
0.0
  0
LINE
  5
276
330
6C
100
AcDbEntity
  8
Sichtbare Kanten(DIN)
100
AcDbLine
 10
121.0798442382919
 20
-189.152027706596
 30
0.0
 11
121.082058551328
 21
-189.1520277065961
 31
0.0
  0
LINE
  5
277
330
6C
100
AcDbEntity
  8
Sichtbare Kanten(DIN)
100
AcDbLine
 10
127.0776299252559
 20
-189.1520277065961
 30
0.0
 11
127.0798442382919
 21
-189.152027706596
 31
0.0
  0
LINE
  5
278
330
6C
100
AcDbEntity
  8
Sichtbare Kanten(DIN)
100
AcDbLine
 10
127.0798442382919
 20
-189.152027706596
 30
0.0
 11
127.0798442382919
 21
-191.6520277065961
 31
0.0
  0
LINE
  5
279
330
6C
100
AcDbEntity
  8
Sichtbare Kanten(DIN)
100
AcDbLine
 10
121.0798442382919
 20
-191.6520277065961
 30
0.0
 11
121.0798442382919
 21
-189.152027706596
 31
0.0
  0
LINE
  5
27A
330
6C
100
AcDbEntity
  8
Sichtbare Kanten(DIN)
100
AcDbLine
 10
127.0798442382919
 20
-191.6520277065961
 30
0.0
 11
121.0798442382919
 21
-191.6520277065961
 31
0.0
  0
ARC
  5
27B
330
6C
100
AcDbEntity
  8
Sichtbare Kanten(DIN)
100
AcDbCircle
 10
124.0798442382919
 20
-59.15202770659607
 30
0.0
 40
2.0
100
AcDbArc
 50
180.0
 51
0.0
  0
LINE
  5
27C
330
6C
100
AcDbEntity
  8
Sichtbare Kanten(DIN)
100
AcDbLine
 10
187.3027660573069
 20
-59.1520277065961
 30
0.0
 11
126.0798442382919
 21
-59.15202770659594
 31
0.0
  0
LINE
  5
27D
330
6C
100
AcDbEntity
  8
Sichtbare Kanten(DIN)
100
AcDbLine
 10
122.0798442382919
 20
-59.15202770659606
 30
0.0
 11
60.85692241927696
 21
-59.15202770659607
 31
0.0
  0
LINE
  5
27E
330
6C
100
AcDbEntity
  8
Sichtbare Kanten(DIN)
100
AcDbLine
 10
121.082058551328
 20
-189.152027706596
 30
0.0
 11
127.0776299252559
 21
-189.152027706596
 31
0.0
  0
LINE
  5
27F
330
6C
100
AcDbEntity
  8
Sichtbare Kanten(DIN)
100
AcDbLine
 10
60.85692241927695
 20
-59.15202770659607
 30
0.0
 11
61.50962824081289
 21
-60.83178533554886
 31
0.0
  0
LINE
  5
280
330
6C
100
AcDbEntity
  8
Sichtbare Kanten(DIN)
100
AcDbLine
 10
186.6500602357709
 20
-60.83178533554887
 30
0.0
 11
187.3027660573069
 21
-59.15202770659611
 31
0.0
  0
ARC
  5
281
330
6C
100
AcDbEntity
  8
Sichtbare Kanten(DIN)
100
AcDbCircle
 10
55.91700067864102
 20
-63.00492061685116
 30
0.0
 40
4.000000000000007
100
AcDbArc
 50
21.23470413425402
 51
101.2347041342537
  0
ARC
  5
282
330
6C
100
AcDbEntity
  8
Sichtbare Kanten(DIN)
100
AcDbCircle
 10
55.91700067864103
 20
-63.00492061685113
 30
0.0
 40
1.999999999999977
100
AcDbArc
 50
21.23470413425362
 51
101.234704134254
  0
ARC
  5
283
330
6C
100
AcDbEntity
  8
Sichtbare Kanten(DIN)
100
AcDbCircle
 10
192.2426877979427
 20
-63.00492061685111
 30
0.0
 40
3.99999999999998
100
AcDbArc
 50
78.76529586574602
 51
158.7652958657461
  0
ARC
  5
284
330
6C
100
AcDbEntity
  8
Sichtbare Kanten(DIN)
100
AcDbCircle
 10
192.2426877979427
 20
-63.00492061685109
 30
0.0
 40
1.999999999999992
100
AcDbArc
 50
78.76529586574655
 51
158.7652958657469
  0
LINE
  5
285
330
6C
100
AcDbEntity
  8
Sichtbare Kanten(DIN)
100
AcDbLine
 10
186.6500602357709
 20
-60.83178533554889
 30
0.0
 11
190.3784786105521
 21
-62.28054218975076
 31
0.0
  0
LINE
  5
286
330
6C
100
AcDbEntity
  8
Sichtbare Kanten(DIN)
100
AcDbLine
 10
57.78120986603164
 20
-62.28054218975078
 30
0.0
 11
61.50962824081289
 21
-60.83178533554889
 31
0.0
  0
LINE
  5
287
330
6C
100
AcDbEntity
  8
Sichtbare Kanten(DIN)
100
AcDbLine
 10
19.19627461567509
 20
-66.2207885383591
 30
0.0
 11
19.585931578618
 21
-68.18246319314519
 31
0.0
  0
LINE
  5
288
330
6C
100
AcDbEntity
  8
Sichtbare Kanten(DIN)
100
AcDbLine
 10
34.29849148951365
 20
-65.26003597106909
 30
0.0
 11
19.58593157861798
 21
-68.18246319314519
 31
0.0
  0
LINE
  5
289
330
6C
100
AcDbEntity
  8
Sichtbare Kanten(DIN)
100
AcDbLine
 10
19.1962746156751
 20
-66.2207885383591
 30
0.0
 11
33.90883452657077
 21
-63.29836131628298
 31
0.0
  0
LINE
  5
28A
330
6C
100
AcDbEntity
  8
Sichtbare Kanten(DIN)
100
AcDbLine
 10
228.5737568979658
 20
-68.18246319314505
 30
0.0
 11
213.8611969870701
 21
-65.26003597106896
 31
0.0
  0
LINE
  5
28B
330
6C
100
AcDbEntity
  8
Sichtbare Kanten(DIN)
100
AcDbLine
 10
214.250853950013
 20
-63.29836131628287
 30
0.0
 11
228.9634138609087
 21
-66.22078853835898
 31
0.0
  0
LINE
  5
28C
330
6C
100
AcDbEntity
  8
Sichtbare Kanten(DIN)
100
AcDbLine
 10
228.5737568979658
 20
-68.1824631931451
 30
0.0
 11
228.9634138609086
 21
-66.220788538359
 31
0.0
  0
LINE
  5
28D
330
6C
100
AcDbEntity
  8
Sichtbare Kanten(DIN)
100
AcDbLine
 10
34.29849148951364
 20
-65.26003597106907
 30
0.0
 11
55.52734371569812
 21
-61.04324596206506
 31
0.0
  0
LINE
  5
28E
330
6C
100
AcDbEntity
  8
Sichtbare Kanten(DIN)
100
AcDbLine
 10
55.13768675275525
 20
-59.08157130727897
 30
0.0
 11
33.90883452657077
 21
-63.29836131628297
 31
0.0
  0
LINE
  5
28F
330
6C
100
AcDbEntity
  8
Sichtbare Kanten(DIN)
100
AcDbLine
 10
213.8611969870701
 20
-65.26003597106899
 30
0.0
 11
192.6323447608856
 21
-61.04324596206502
 31
0.0
  0
LINE
  5
290
330
6C
100
AcDbEntity
  8
Sichtbare Kanten(DIN)
100
AcDbLine
 10
214.250853950013
 20
-63.29836131628289
 30
0.0
 11
193.0220017238285
 21
-59.08157130727892
 31
0.0
  0
LINE
  5
291
330
6C
100
AcDbEntity
  8
Sichtbare Kanten(DIN)
100
AcDbLine
 10
190.3784786105521
 20
-62.28054218975074
 30
0.0
 11
141.0798442382918
 21
-189.1520277065972
 31
0.0
  0
LINE
  5
292
330
6C
100
AcDbEntity
  8
Sichtbare Kanten(DIN)
100
AcDbLine
 10
107.0798442382919
 20
-189.1520277065972
 30
0.0
 11
105.0798442382919
 21
-184.0049688830678
 31
0.0
  0
LINE
  5
293
330
6C
100
AcDbEntity
  8
Sichtbare Kanten(DIN)
100
AcDbLine
 10
104.1655585240039
 20
-181.6520277065913
 30
0.0
 11
57.78120986603164
 21
-62.2805421897508
 31
0.0
  0
LINE
  5
294
330
6C
100
AcDbEntity
  8
Sichtbare Kanten(DIN)
100
AcDbLine
 10
141.473844238292
 20
-232.2067845938679
 30
0.0
 11
141.473844238292
 21
-232.3067845938679
 31
0.0
  0
LINE
  5
295
330
6C
100
AcDbEntity
  8
Sichtbare Kanten(DIN)
100
AcDbLine
 10
106.6858442382921
 20
-232.2067845938679
 30
0.0
 11
106.6858442382921
 21
-232.3067845938679
 31
0.0
  0
LINE
  5
296
330
6C
100
AcDbEntity
  8
Sichtbare Kanten(DIN)
100
AcDbLine
 10
106.685844238292
 20
-232.3067845938679
 30
0.0
 11
141.473844238292
 21
-232.3067845938679
 31
0.0
  0
LINE
  5
297
330
6C
100
AcDbEntity
  8
Sichtbare Kanten(DIN)
100
AcDbLine
 10
106.6858442382921
 20
-232.2067845938679
 30
0.0
 11
107.5798442382919
 21
-232.2067845938679
 31
0.0
  0
LINE
  5
298
330
6C
100
AcDbEntity
  8
Sichtbare Kanten(DIN)
100
AcDbLine
 10
105.4478442382907
 20
-184.952027706652
 30
0.0
 11
105.0798442382917
 21
-184.952027706652
 31
0.0
  0
LINE
  5
299
330
6C
100
AcDbEntity
  8
Sichtbare Kanten(DIN)
100
AcDbLine
 10
144.1893580128107
 20
-184.952027706652
 30
0.0
 11
142.7118442382933
 21
-184.952027706652
 31
0.0
  0
LINE
  5
29A
330
6C
100
AcDbEntity
  8
Sichtbare Kanten(DIN)
100
AcDbLine
 10
143.4362226653936
 20
-183.0878185192613
 30
0.0
 11
144.1893580128103
 21
-184.1884598566536
 31
0.0
  0
LINE
  5
29B
330
6C
100
AcDbEntity
  8
Sichtbare Kanten(DIN)
100
AcDbLine
 10
143.9941299525786
 20
-181.6520277065945
 30
0.0
 11
144.718508379679
 21
-179.7878185192039
 31
0.0
  0
LINE
  5
29C
330
6C
100
AcDbEntity
  8
Sichtbare Kanten(DIN)
100
AcDbLine
 10
144.1893580128108
 20
-181.6520277065945
 30
0.0
 11
143.9941299525786
 21
-181.6520277065945
 31
0.0
  0
LINE
  5
29D
330
6C
100
AcDbEntity
  8
Sichtbare Kanten(DIN)
100
AcDbLine
 10
145.9941299525786
 20
-181.6520277065945
 30
0.0
 11
144.718508379679
 21
-179.7878185192039
 31
0.0
  0
ENDSEC
  0
SECTION
  2
OBJECTS
  0
DICTIONARY
  5
C
330
0
100
AcDbDictionary
281
     1
  3
ACAD_COLOR
350
63
  3
ACAD_GROUP
350
D
  3
ACAD_LAYOUT
350
62
  3
ACAD_MATERIAL
350
10
  3
ACAD_MLEADERSTYLE
350
66
  3
ACAD_MLINESTYLE
350
5F
  3
ACAD_PLOTSETTINGS
350
61
  3
ACAD_PLOTSTYLENAME
350
E
  3
ACAD_SCALELIST
350
42
  3
ACAD_TABLESTYLE
350
64
  3
ACAD_VISUALSTYLE
350
29
  3
ACDB_RECOMPOSE_DATA
350
2AD
  3
AcDbVariableDictionary
350
29E
  3
DWGPROPS
350
2AE
  0
DICTIONARY
  5
63
102
{ACAD_REACTORS
330
C
102
}
330
C
100
AcDbDictionary
281
     1
  0
DICTIONARY
  5
D
102
{ACAD_REACTORS
330
C
102
}
330
C
100
AcDbDictionary
281
     1
  0
DICTIONARY
  5
62
102
{ACAD_REACTORS
330
C
102
}
330
C
100
AcDbDictionary
281
     1
  3
Layout1
350
6B
  3
Layout2
350
73
  3
Model
350
6F
  0
DICTIONARY
  5
10
102
{ACAD_REACTORS
330
C
102
}
330
C
100
AcDbDictionary
281
     1
  3
ByBlock
350
19
  3
ByLayer
350
11
  3
Global
350
21
  0
DICTIONARY
  5
66
102
{ACAD_REACTORS
330
C
102
}
330
C
100
AcDbDictionary
281
     1
  3
Standard
350
67
  0
DICTIONARY
  5
5F
102
{ACAD_REACTORS
330
C
102
}
330
C
100
AcDbDictionary
281
     1
  3
Standard
350
60
  0
DICTIONARY
  5
61
102
{ACAD_REACTORS
330
C
102
}
330
C
100
AcDbDictionary
281
     1
  0
ACDBDICTIONARYWDFLT
  5
E
102
{ACAD_REACTORS
330
C
102
}
330
C
100
AcDbDictionary
281
     1
  3
Normal
350
F
100
AcDbDictionaryWithDefault
340
F
  0
DICTIONARY
  5
42
102
{ACAD_REACTORS
330
C
102
}
330
C
100
AcDbDictionary
281
     1
  3
A0
350
43
  3
A1
350
44
  3
A2
350
45
  3
A3
350
46
  3
A4
350
47
  3
A5
350
48
  3
A6
350
49
  3
A7
350
4A
  3
A8
350
4B
  3
A9
350
4C
  3
B0
350
4D
  3
B1
350
4E
  3
B2
350
4F
  3
B3
350
50
  3
B4
350
51
  3
B5
350
52
  3
B6
350
53
  0
DICTIONARY
  5
64
102
{ACAD_REACTORS
330
C
102
}
330
C
100
AcDbDictionary
281
     1
  3
Standard
350
65
  0
DICTIONARY
  5
29
102
{ACAD_REACTORS
330
C
102
}
330
C
100
AcDbDictionary
281
     1
  3
2dWireframe
350
2F
  3
Basic
350
2E
  3
Brighten
350
35
  3
ColorChange
350
39
  3
Conceptual
350
32
  3
Dim
350
34
  3
EdgeColorOff
350
41
  3
Facepattern
350
38
  3
Flat
350
2A
  3
FlatWithEdges
350
2B
  3
Gouraud
350
2C
  3
GouraudWithEdges
350
2D
  3
Hidden
350
31
  3
JitterOff
350
3F
  3
Linepattern
350
37
  3
OverhangOff
350
40
  3
Realistic
350
33
  3
Shaded
350
3E
  3
Shaded with edges
350
3D
  3
Shades of Gray
350
3A
  3
Sketchy
350
3B
  3
Thicken
350
36
  3
Wireframe
350
30
  3
X-Ray
350
3C
  0
XRECORD
  5
2AD
102
{ACAD_REACTORS
330
C
102
}
330
C
100
AcDbXrecord
280
     1
 90
        1
330
65
  0
DICTIONARY
  5
29E
102
{ACAD_REACTORS
330
C
102
}
330
C
100
AcDbDictionary
281
     1
  3
CANNOSCALE
350
2A2
  3
CMLEADERSTYLE
350
2A0
  3
CTABLESTYLE
350
29F
  3
DIMASSOC
350
2A9
  3
HIDETEXT
350
2A8
  3
INDEXCTL
350
2A7
  3
LAYEREVAL
350
2A4
  3
LAYERNOTIFY
350
2A5
  3
LIGHTINGUNITS
350
2A3
  3
MSLTSCALE
350
2A1
  3
SORTENTS
350
2A6
  3
XCLIPFRAME
350
2AA
  0
XRECORD
  5
2AE
102
{ACAD_REACTORS
330
C
102
}
330
C
100
AcDbXrecord
280
     1
  1
DWGPROPS COOKIE
  2

  3

  4
S.Rübsamen
  6

  7

  8

  9

300
Manager=
301
Firma=
302
Kategorie=
303
Bauteilnummer=
304
Bezeichnung=
305
Projekt=
306
Konstrukteur=S.Rübsamen
307
Ingenieur=
308
Bevollmächtigter=
309
Kostenstelle=
 40
0.0000161689814815
 41
2455798.506993843
 42
2455798.506993843
  1

 90
       34
300
Zulieferer=
300
Benutzerstatus=
300
Konstruktionsstatus=InBearbeitung
300
Kontrolliert von=
300
Konstruktion genehmigt von=
300
Fertigung genehmigt von=
300
Gewicht=
300
Oberfläche=
300
Oberfläche_2=roh
300
Werkstoff=Edelstahl V2A
300
Zeichnungs_Nr.=
300
Benennung2=
300
Benennung3=
300
Werkstoff_DIN=1.4301 / ASTM 304
300
Oberfläche_3=
300
ZeichnungsNr Index=
300
Änderung_a=
300
Änderung_b=
300
Datum_a=
300
Datum_b=
300
Status_a=
300
Status_b=
300
Name_a=
300
Name_b=
  0
LAYOUT
  5
6B
102
{ACAD_XDICTIONARY
360
2E4
102
}
102
{ACAD_REACTORS
330
62
102
}
330
62
100
AcDbPlotSettings
  1

  2

  4

  6

 40
0.0
 41
0.0
 42
0.0
 43
0.0
 44
0.0
 45
0.0
 46
0.0
 47
0.0
 48
0.0
 49
0.0
140
0.0
141
0.0
142
1.0
143
1.0
 70
   688
 72
     0
 73
     0
 74
     5
  7

 75
    16
147
1.0
148
0.0
149
0.0
100
AcDbLayout
  1
Layout1
 70
     1
 71
     1
 10
0.0
 20
0.0
 11
12.0
 21
9.0
 12
0.0
 22
0.0
 32
0.0
 14
0.0
 24
0.0
 34
0.0
 15
0.0
 25
0.0
 35
0.0
146
0.0
 13
0.0
 23
0.0
 33
0.0
 16
1.0
 26
0.0
 36
0.0
 17
0.0
 27
1.0
 37
0.0
 76
     0
330
68
  0
LAYOUT
  5
73
102
{ACAD_XDICTIONARY
360
2E8
102
}
102
{ACAD_REACTORS
330
62
102
}
330
62
100
AcDbPlotSettings
  1

  2

  4

  6

 40
0.0
 41
0.0
 42
0.0
 43
0.0
 44
0.0
 45
0.0
 46
0.0
 47
0.0
 48
0.0
 49
0.0
140
0.0
141
0.0
142
1.0
143
1.0
 70
   688
 72
     0
 73
     0
 74
     5
  7

 75
    16
147
1.0
148
0.0
149
0.0
100
AcDbLayout
  1
Layout2
 70
     1
 71
     2
 10
0.0
 20
0.0
 11
12.0
 21
9.0
 12
0.0
 22
0.0
 32
0.0
 14
0.0
 24
0.0
 34
0.0
 15
0.0
 25
0.0
 35
0.0
146
0.0
 13
0.0
 23
0.0
 33
0.0
 16
1.0
 26
0.0
 36
0.0
 17
0.0
 27
1.0
 37
0.0
 76
     0
330
70
  0
LAYOUT
  5
6F
102
{ACAD_XDICTIONARY
360
2E6
102
}
102
{ACAD_REACTORS
330
62
102
}
330
62
100
AcDbPlotSettings
  1

  2

  4

  6

 40
0.0
 41
0.0
 42
0.0
 43
0.0
 44
0.0
 45
0.0
 46
0.0
 47
0.0
 48
0.0
 49
0.0
140
0.0
141
0.0
142
1.0
143
1.0
 70
  1712
 72
     0
 73
     0
 74
     0
  7

 75
     0
147
1.0
148
0.0
149
0.0
100
AcDbLayout
  1
Model
 70
     1
 71
     0
 10
0.0
 20
0.0
 11
12.0
 21
9.0
 12
0.0
 22
0.0
 32
0.0
 14
0.0
 24
0.0
 34
0.0
 15
0.0
 25
0.0
 35
0.0
146
0.0
 13
0.0
 23
0.0
 33
0.0
 16
1.0
 26
0.0
 36
0.0
 17
0.0
 27
1.0
 37
0.0
 76
     0
330
6C
  0
MATERIAL
  5
19
102
{ACAD_XDICTIONARY
360
1A
102
}
102
{ACAD_REACTORS
330
10
102
}
330
10
100
AcDbMaterial
  1
ByBlock
 72
     0
 43
0.0208333333333333
 43
0.0
 43
0.0
 43
0.0
 43
0.0
 43
0.0208333333333333
 43
0.0
 43
0.0
 43
0.0
 43
0.0
 43
1.0
 43
0.0
 43
0.0
 43
0.0
 43
0.0
 43
1.0
 77
     0
 47
0.0208333333333333
 47
0.0
 47
0.0
 47
0.0
 47
0.0
 47
0.0208333333333333
 47
0.0
 47
0.0
 47
0.0
 47
0.0
 47
1.0
 47
0.0
 47
0.0
 47
0.0
 47
0.0
 47
1.0
171
     0
 49
0.0208333333333333
 49
0.0
 49
0.0
 49
0.0
 49
0.0
 49
0.0208333333333333
 49
0.0
 49
0.0
 49
0.0
 49
0.0
 49
1.0
 49
0.0
 49
0.0
 49
0.0
 49
0.0
 49
1.0
175
     0
142
0.0208333333333333
142
0.0
142
0.0
142
0.0
142
0.0
142
0.0208333333333333
142
0.0
142
0.0
142
0.0
142
0.0
142
1.0
142
0.0
142
0.0
142
0.0
142
0.0
142
1.0
179
     0
144
0.0208333333333333
144
0.0
144
0.0
144
0.0
144
0.0
144
0.0208333333333333
144
0.0
144
0.0
144
0.0
144
0.0
144
1.0
144
0.0
144
0.0
144
0.0
144
0.0
144
1.0
147
0.0208333333333333
147
0.0
147
0.0
147
0.0
147
0.0
147
0.0208333333333333
147
0.0
147
0.0
147
0.0
147
0.0
147
1.0
147
0.0
147
0.0
147
0.0
147
0.0
147
1.0
  0
MATERIAL
  5
11
102
{ACAD_XDICTIONARY
360
12
102
}
102
{ACAD_REACTORS
330
10
102
}
330
10
100
AcDbMaterial
  1
ByLayer
 72
     0
 43
0.0208333333333333
 43
0.0
 43
0.0
 43
0.0
 43
0.0
 43
0.0208333333333333
 43
0.0
 43
0.0
 43
0.0
 43
0.0
 43
1.0
 43
0.0
 43
0.0
 43
0.0
 43
0.0
 43
1.0
 77
     0
 47
0.0208333333333333
 47
0.0
 47
0.0
 47
0.0
 47
0.0
 47
0.0208333333333333
 47
0.0
 47
0.0
 47
0.0
 47
0.0
 47
1.0
 47
0.0
 47
0.0
 47
0.0
 47
0.0
 47
1.0
171
     0
 49
0.0208333333333333
 49
0.0
 49
0.0
 49
0.0
 49
0.0
 49
0.0208333333333333
 49
0.0
 49
0.0
 49
0.0
 49
0.0
 49
1.0
 49
0.0
 49
0.0
 49
0.0
 49
0.0
 49
1.0
175
     0
142
0.0208333333333333
142
0.0
142
0.0
142
0.0
142
0.0
142
0.0208333333333333
142
0.0
142
0.0
142
0.0
142
0.0
142
1.0
142
0.0
142
0.0
142
0.0
142
0.0
142
1.0
179
     0
144
0.0208333333333333
144
0.0
144
0.0
144
0.0
144
0.0
144
0.0208333333333333
144
0.0
144
0.0
144
0.0
144
0.0
144
1.0
144
0.0
144
0.0
144
0.0
144
0.0
144
1.0
147
0.0208333333333333
147
0.0
147
0.0
147
0.0
147
0.0
147
0.0208333333333333
147
0.0
147
0.0
147
0.0
147
0.0
147
1.0
147
0.0
147
0.0
147
0.0
147
0.0
147
1.0
  0
MATERIAL
  5
21
102
{ACAD_XDICTIONARY
360
22
102
}
102
{ACAD_REACTORS
330
10
102
}
330
10
100
AcDbMaterial
  1
Global
 72
     0
 43
0.0208333333333333
 43
0.0
 43
0.0
 43
0.0
 43
0.0
 43
0.0208333333333333
 43
0.0
 43
0.0
 43
0.0
 43
0.0
 43
1.0
 43
0.0
 43
0.0
 43
0.0
 43
0.0
 43
1.0
 77
     0
 47
0.0208333333333333
 47
0.0
 47
0.0
 47
0.0
 47
0.0
 47
0.0208333333333333
 47
0.0
 47
0.0
 47
0.0
 47
0.0
 47
1.0
 47
0.0
 47
0.0
 47
0.0
 47
0.0
 47
1.0
171
     0
 49
0.0208333333333333
 49
0.0
 49
0.0
 49
0.0
 49
0.0
 49
0.0208333333333333
 49
0.0
 49
0.0
 49
0.0
 49
0.0
 49
1.0
 49
0.0
 49
0.0
 49
0.0
 49
0.0
 49
1.0
175
     0
142
0.0208333333333333
142
0.0
142
0.0
142
0.0
142
0.0
142
0.0208333333333333
142
0.0
142
0.0
142
0.0
142
0.0
142
1.0
142
0.0
142
0.0
142
0.0
142
0.0
142
1.0
179
     0
144
0.0208333333333333
144
0.0
144
0.0
144
0.0
144
0.0
144
0.0208333333333333
144
0.0
144
0.0
144
0.0
144
0.0
144
1.0
144
0.0
144
0.0
144
0.0
144
0.0
144
1.0
147
0.0208333333333333
147
0.0
147
0.0
147
0.0
147
0.0
147
0.0208333333333333
147
0.0
147
0.0
147
0.0
147
0.0
147
1.0
147
0.0
147
0.0
147
0.0
147
0.0
147
1.0
  0
MLEADERSTYLE
  5
67
102
{ACAD_REACTORS
330
66
102
}
330
66
100
AcDbMLeaderStyle
170
     2
171
     1
172
     0
 90
        2
 40
0.0
 41
0.0
173
     1
 91
-1056964608
340
5B
 92
       -2
290
     1
 42
0.09
291
     1
 43
0.36
  3
Standard
 44
0.18
300

342
55
174
     1
178
     6
175
     1
176
     0
 93
-1056964608
 45
0.18
292
     0
297
     0
 46
0.18
 94
-1056964608
 47
1.0
 49
1.0
140
1.0
293
     1
141
0.0
294
     1
177
     0
142
1.0
295
     0
296
     0
143
0.125
1001
ACAD_MLEADERVER
1070
     2
  0
MLINESTYLE
  5
60
102
{ACAD_REACTORS
330
5F
102
}
330
5F
100
AcDbMlineStyle
  2
STANDARD
 70
     0
  3

 62
   256
 51
90.0
 52
90.0
 71
     2
 49
0.5
 62
   256
  6
BYLAYER
 49
-0.5
 62
   256
  6
BYLAYER
  0
ACDBPLACEHOLDER
  5
F
102
{ACAD_REACTORS
330
E
102
}
330
E
  0
SCALE
  5
43
102
{ACAD_REACTORS
330
42
102
}
330
42
100
AcDbScale
 70
     0
300
1:1
140
1.0
141
1.0
290
     1
  0
SCALE
  5
44
102
{ACAD_REACTORS
330
42
102
}
330
42
100
AcDbScale
 70
     0
300
1/128" = 1'-0"
140
0.0078125
141
12.0
290
     0
  0
SCALE
  5
45
102
{ACAD_REACTORS
330
42
102
}
330
42
100
AcDbScale
 70
     0
300
1/64" = 1'-0"
140
0.015625
141
12.0
290
     0
  0
SCALE
  5
46
102
{ACAD_REACTORS
330
42
102
}
330
42
100
AcDbScale
 70
     0
300
1/32" = 1'-0"
140
0.03125
141
12.0
290
     0
  0
SCALE
  5
47
102
{ACAD_REACTORS
330
42
102
}
330
42
100
AcDbScale
 70
     0
300
1/16" = 1'-0"
140
0.0625
141
12.0
290
     0
  0
SCALE
  5
48
102
{ACAD_REACTORS
330
42
102
}
330
42
100
AcDbScale
 70
     0
300
3/32" = 1'-0"
140
0.09375
141
12.0
290
     0
  0
SCALE
  5
49
102
{ACAD_REACTORS
330
42
102
}
330
42
100
AcDbScale
 70
     0
300
1/8" = 1'-0"
140
0.125
141
12.0
290
     0
  0
SCALE
  5
4A
102
{ACAD_REACTORS
330
42
102
}
330
42
100
AcDbScale
 70
     0
300
3/16" = 1'-0"
140
0.1875
141
12.0
290
     0
  0
SCALE
  5
4B
102
{ACAD_REACTORS
330
42
102
}
330
42
100
AcDbScale
 70
     0
300
1/4" = 1'-0"
140
0.25
141
12.0
290
     0
  0
SCALE
  5
4C
102
{ACAD_REACTORS
330
42
102
}
330
42
100
AcDbScale
 70
     0
300
3/8" = 1'-0"
140
0.375
141
12.0
290
     0
  0
SCALE
  5
4D
102
{ACAD_REACTORS
330
42
102
}
330
42
100
AcDbScale
 70
     0
300
1/2" = 1'-0"
140
0.5
141
12.0
290
     0
  0
SCALE
  5
4E
102
{ACAD_REACTORS
330
42
102
}
330
42
100
AcDbScale
 70
     0
300
3/4" = 1'-0"
140
0.75
141
12.0
290
     0
  0
SCALE
  5
4F
102
{ACAD_REACTORS
330
42
102
}
330
42
100
AcDbScale
 70
     0
300
1" = 1'-0"
140
1.0
141
12.0
290
     0
  0
SCALE
  5
50
102
{ACAD_REACTORS
330
42
102
}
330
42
100
AcDbScale
 70
     0
300
1-1/2" = 1'-0"
140
1.5
141
12.0
290
     0
  0
SCALE
  5
51
102
{ACAD_REACTORS
330
42
102
}
330
42
100
AcDbScale
 70
     0
300
3" = 1'-0"
140
3.0
141
12.0
290
     0
  0
SCALE
  5
52
102
{ACAD_REACTORS
330
42
102
}
330
42
100
AcDbScale
 70
     0
300
6" = 1'-0"
140
6.0
141
12.0
290
     0
  0
SCALE
  5
53
102
{ACAD_REACTORS
330
42
102
}
330
42
100
AcDbScale
 70
     0
300
1'-0" = 1'-0"
140
12.0
141
12.0
290
     0
  0
TABLESTYLE
  5
65
102
{ACAD_XDICTIONARY
360
2AB
102
}
102
{ACAD_REACTORS
330
64
102
}
330
64
100
AcDbTableStyle
  3
Standard
 70
     0
 71
     0
 40
0.06
 41
0.06
280
     0
281
     0
  7
Standard
140
0.18
170
     2
 62
     0
 63
     7
283
     0
274
    -2
284
     1
 64
     0
275
    -2
285
     1
 65
     0
276
    -2
286
     1
 66
     0
277
    -2
287
     1
 67
     0
278
    -2
288
     1
 68
     0
279
    -2
289
     1
 69
     0
  7
Standard
140
0.25
170
     5
 62
     0
 63
     7
283
     0
274
    -2
284
     1
 64
     0
275
    -2
285
     1
 65
     0
276
    -2
286
     1
 66
     0
277
    -2
287
     1
 67
     0
278
    -2
288
     1
 68
     0
279
    -2
289
     1
 69
     0
  7
Standard
140
0.18
170
     5
 62
     0
 63
     7
283
     0
274
    -2
284
     1
 64
     0
275
    -2
285
     1
 65
     0
276
    -2
286
     1
 66
     0
277
    -2
287
     1
 67
     0
278
    -2
288
     1
 68
     0
279
    -2
289
     1
 69
     0
  0
VISUALSTYLE
  5
2F
102
{ACAD_XDICTIONARY
360
2BC
102
}
102
{ACAD_REACTORS
330
29
102
}
330
29
100
AcDbVisualStyle
  2
2dWireframe
 70
     4
 71
     0
 72
     2
 73
     0
 90
        0
 40
-0.6
 41
-30.0
 62
     5
 63
     7
 74
     1
 91
        4
 64
     7
 65
   257
 75
     1
175
     1
 42
1.0
 92
        0
 66
   257
 43
1.0
 76
     1
 77
     6
 78
     2
 67
     7
 79
     5
170
     0
171
     0
290
     0
174
     0
 93
        1
 44
0.0
173
     0
291
     0
 45
0.0
1001
ACAD
1000
AcDbSavedByObjectVersion
1070
     0
  0
VISUALSTYLE
  5
2E
102
{ACAD_XDICTIONARY
360
2BA
102
}
102
{ACAD_REACTORS
330
29
102
}
330
29
100
AcDbVisualStyle
  2
Basic
 70
     7
 71
     1
 72
     0
 73
     1
 90
        0
 40
-0.6
 41
-30.0
 62
     5
 63
     7
 74
     0
 91
        4
 64
     7
 65
   257
 75
     1
175
     1
 42
1.0
 92
        8
 66
     7
 43
1.0
 76
     1
 77
     6
 78
     2
 67
     7
 79
     5
170
     0
171
     0
290
     0
174
     0
 93
        1
 44
0.0
173
     0
291
     1
 45
0.0
1001
ACAD
1000
AcDbSavedByObjectVersion
1070
     0
  0
VISUALSTYLE
  5
35
102
{ACAD_XDICTIONARY
360
2C8
102
}
102
{ACAD_REACTORS
330
29
102
}
330
29
100
AcDbVisualStyle
  2
Brighten
 70
    12
 71
     2
 72
     2
 73
     0
 90
        0
 40
-0.6
 41
-30.0
 62
     5
 63
     7
 74
     1
 91
        4
 64
     7
 65
   257
 75
     1
175
     1
 42
1.0
 92
        8
 66
     7
 43
1.0
 76
     1
 77
     6
 78
     2
 67
     7
 79
     5
170
     0
171
     0
290
     0
174
     0
 93
        1
 44
50.0
173
     0
291
     1
 45
0.0
1001
ACAD
1000
AcDbSavedByObjectVersion
1070
     0
  0
VISUALSTYLE
  5
39
102
{ACAD_XDICTIONARY
360
2D0
102
}
102
{ACAD_REACTORS
330
29
102
}
330
29
100
AcDbVisualStyle
  2
ColorChange
 70
    16
 71
     2
 72
     2
 73
     3
 90
        0
 40
-0.6
 41
-30.0
 62
     5
 63
     8
 74
     1
 91
        4
 64
     7
 65
   257
 75
     1
175
     1
 42
1.0
 92
        8
 66
     8
 43
1.0
 76
     1
 77
     6
 78
     2
 67
     7
 79
     5
170
     0
171
     0
290
     0
174
     0
 93
        1
 44
0.0
173
     0
291
     1
 45
0.0
1001
ACAD
1000
AcDbSavedByObjectVersion
1070
     0
  0
VISUALSTYLE
  5
32
102
{ACAD_XDICTIONARY
360
2C2
102
}
102
{ACAD_REACTORS
330
29
102
}
330
29
100
AcDbVisualStyle
  2
Conceptual
 70
     9
 71
     3
 72
     2
 73
     0
 90
        0
 40
-0.6
 41
-30.0
 62
     5
 63
     7
 74
     2
 91
        2
 64
     7
 65
   257
 75
     1
175
     1
 42
179.0
 92
        8
 66
     7
 43
1.0
 76
     1
 77
     6
 78
     2
 67
     7
 79
     3
170
     0
171
     0
290
     0
174
     0
 93
        1
 44
0.0
173
     0
291
     0
 45
0.0
1001
ACAD
1000
AcDbSavedByObjectVersion
1070
     0
  0
VISUALSTYLE
  5
34
102
{ACAD_XDICTIONARY
360
2C6
102
}
102
{ACAD_REACTORS
330
29
102
}
330
29
100
AcDbVisualStyle
  2
Dim
 70
    11
 71
     2
 72
     2
 73
     0
 90
        0
 40
-0.6
 41
-30.0
 62
     5
 63
     7
 74
     1
 91
        4
 64
     7
 65
   257
 75
     1
175
     1
 42
1.0
 92
        8
 66
     7
 43
1.0
 76
     1
 77
     6
 78
     2
 67
     7
 79
     5
170
     0
171
     0
290
     0
174
     0
 93
        1
 44
-50.0
173
     0
291
     1
 45
0.0
1001
ACAD
1000
AcDbSavedByObjectVersion
1070
     0
  0
VISUALSTYLE
  5
41
102
{ACAD_XDICTIONARY
360
2E0
102
}
102
{ACAD_REACTORS
330
29
102
}
330
29
100
AcDbVisualStyle
  2
EdgeColorOff
 70
    22
 71
     2
 72
     2
 73
     0
 90
        0
 40
-0.6
 41
-30.0
 62
     5
 63
     7
 74
     1
 91
        4
 64
     7
 65
   257
 75
     1
175
     1
 42
1.0
 92
        8
 66
     7
 43
1.0
 76
     1
 77
     6
 78
     2
 67
     7
 79
     5
170
     0
171
     0
290
     0
174
     0
 93
        1
 44
0.0
173
     0
291
     1
 45
0.0
1001
ACAD
1000
AcDbSavedByObjectVersion
1070
     0
  0
VISUALSTYLE
  5
38
102
{ACAD_XDICTIONARY
360
2CE
102
}
102
{ACAD_REACTORS
330
29
102
}
330
29
100
AcDbVisualStyle
  2
Facepattern
 70
    15
 71
     2
 72
     2
 73
     0
 90
        0
 40
-0.6
 41
-30.0
 62
     5
 63
     7
 74
     1
 91
        4
 64
     7
 65
   257
 75
     1
175
     1
 42
1.0
 92
        8
 66
     7
 43
1.0
 76
     1
 77
     6
 78
     2
 67
     7
 79
     5
170
     0
171
     0
290
     0
174
     0
 93
        1
 44
0.0
173
     0
291
     1
 45
0.0
1001
ACAD
1000
AcDbSavedByObjectVersion
1070
     0
  0
VISUALSTYLE
  5
2A
102
{ACAD_XDICTIONARY
360
2B2
102
}
102
{ACAD_REACTORS
330
29
102
}
330
29
100
AcDbVisualStyle
  2
Flat
 70
     0
 71
     2
 72
     1
 73
     1
 90
        2
 40
-0.6
 41
30.0
 62
     5
 63
     7
 74
     0
 91
        0
 64
     7
 65
   257
 75
     1
175
     1
 42
1.0
 92
        8
 66
     7
 43
1.0
 76
     1
 77
     6
 78
     2
 67
     7
 79
     5
170
     0
171
     0
290
     0
174
     0
 93
       13
 44
0.0
173
     0
291
     1
 45
0.0
1001
ACAD
1000
AcDbSavedByObjectVersion
1070
     0
  0
VISUALSTYLE
  5
2B
102
{ACAD_XDICTIONARY
360
2B4
102
}
102
{ACAD_REACTORS
330
29
102
}
330
29
100
AcDbVisualStyle
  2
FlatWithEdges
 70
     1
 71
     2
 72
     1
 73
     1
 90
        2
 40
-0.6
 41
30.0
 62
     5
 63
     7
 74
     1
 91
        0
 64
     7
 65
   257
 75
     1
175
     1
 42
1.0
 92
        0
 66
   257
 43
1.0
 76
     1
 77
     6
 78
     2
 67
     7
 79
     5
170
     0
171
     0
290
     0
174
     0
 93
       13
 44
0.0
173
     0
291
     1
 45
0.0
1001
ACAD
1000
AcDbSavedByObjectVersion
1070
     0
  0
VISUALSTYLE
  5
2C
102
{ACAD_XDICTIONARY
360
2B6
102
}
102
{ACAD_REACTORS
330
29
102
}
330
29
100
AcDbVisualStyle
  2
Gouraud
 70
     2
 71
     2
 72
     2
 73
     1
 90
        2
 40
-0.6
 41
30.0
 62
     5
 63
     7
 74
     0
 91
        0
 64
     7
 65
   257
 75
     1
175
     1
 42
1.0
 92
        0
 66
     7
 43
1.0
 76
     1
 77
     6
 78
     2
 67
     7
 79
     5
170
     0
171
     0
290
     0
174
     0
 93
       13
 44
0.0
173
     0
291
     1
 45
0.0
1001
ACAD
1000
AcDbSavedByObjectVersion
1070
     0
  0
VISUALSTYLE
  5
2D
102
{ACAD_XDICTIONARY
360
2B8
102
}
102
{ACAD_REACTORS
330
29
102
}
330
29
100
AcDbVisualStyle
  2
GouraudWithEdges
 70
     3
 71
     2
 72
     2
 73
     1
 90
        2
 40
-0.6
 41
30.0
 62
     5
 63
     7
 74
     1
 91
        0
 64
     7
 65
   257
 75
     1
175
     1
 42
1.0
 92
        0
 66
   257
 43
1.0
 76
     1
 77
     6
 78
     2
 67
     7
 79
     5
170
     0
171
     0
290
     0
174
     0
 93
       13
 44
0.0
173
     0
291
     1
 45
0.0
1001
ACAD
1000
AcDbSavedByObjectVersion
1070
     0
  0
VISUALSTYLE
  5
31
102
{ACAD_XDICTIONARY
360
2C0
102
}
102
{ACAD_REACTORS
330
29
102
}
330
29
100
AcDbVisualStyle
  2
Hidden
 70
     6
 71
     1
 72
     2
 73
     2
 90
        0
 40
-0.6
 41
-30.0
 62
     5
 63
     7
 74
     2
 91
        2
 64
     7
 65
   257
 75
     2
175
     1
 42
40.0
 92
        0
 66
   257
 43
1.0
 76
     1
 77
     6
 78
     2
 67
     7
 79
     3
170
     0
171
     0
290
     0
174
     0
 93
        1
 44
0.0
173
     0
291
     0
 45
0.0
1001
ACAD
1000
AcDbSavedByObjectVersion
1070
     0
  0
VISUALSTYLE
  5
3F
102
{ACAD_XDICTIONARY
360
2DC
102
}
102
{ACAD_REACTORS
330
29
102
}
330
29
100
AcDbVisualStyle
  2
JitterOff
 70
    20
 71
     2
 72
     2
 73
     0
 90
        0
 40
-0.6
 41
-30.0
 62
     5
 63
     7
 74
     1
 91
        4
 64
     7
 65
   257
 75
     1
175
     1
 42
1.0
 92
       10
 66
     7
 43
1.0
 76
     1
 77
     6
 78
     2
 67
     7
 79
     5
170
     0
171
     0
290
     0
174
     0
 93
        1
 44
0.0
173
     0
291
     1
 45
0.0
1001
ACAD
1000
AcDbSavedByObjectVersion
1070
     0
  0
VISUALSTYLE
  5
37
102
{ACAD_XDICTIONARY
360
2CC
102
}
102
{ACAD_REACTORS
330
29
102
}
330
29
100
AcDbVisualStyle
  2
Linepattern
 70
    14
 71
     2
 72
     2
 73
     0
 90
        0
 40
-0.6
 41
-30.0
 62
     5
 63
     7
 74
     1
 91
        4
 64
     7
 65
   257
 75
     7
175
     7
 42
1.0
 92
        8
 66
     7
 43
1.0
 76
     1
 77
     6
 78
     2
 67
     7
 79
     5
170
     0
171
     0
290
     0
174
     0
 93
        1
 44
0.0
173
     0
291
     1
 45
0.0
1001
ACAD
1000
AcDbSavedByObjectVersion
1070
     0
  0
VISUALSTYLE
  5
40
102
{ACAD_XDICTIONARY
360
2DE
102
}
102
{ACAD_REACTORS
330
29
102
}
330
29
100
AcDbVisualStyle
  2
OverhangOff
 70
    21
 71
     2
 72
     2
 73
     0
 90
        0
 40
-0.6
 41
-30.0
 62
     5
 63
     7
 74
     1
 91
        4
 64
     7
 65
   257
 75
     1
175
     1
 42
1.0
 92
        9
 66
     7
 43
1.0
 76
     1
 77
     6
 78
     2
 67
     7
 79
     5
170
     0
171
     0
290
     0
174
     0
 93
        1
 44
0.0
173
     0
291
     1
 45
0.0
1001
ACAD
1000
AcDbSavedByObjectVersion
1070
     0
  0
VISUALSTYLE
  5
33
102
{ACAD_XDICTIONARY
360
2C4
102
}
102
{ACAD_REACTORS
330
29
102
}
330
29
100
AcDbVisualStyle
  2
Realistic
 70
     8
 71
     2
 72
     3
 73
     0
 90
        2
 40
-0.6
 41
30.0
 62
     5
 63
     7
 74
     0
 91
        0
 64
     7
 65
   257
 75
     1
175
     1
 42
1.0
 92
        8
 66
   257
 43
1.0
 76
     1
 77
     6
 78
     2
 67
     7
 79
     3
170
     0
171
     0
290
     0
174
     0
 93
       13
 44
0.0
173
     0
291
     0
 45
0.0
1001
ACAD
1000
AcDbSavedByObjectVersion
1070
     0
  0
VISUALSTYLE
  5
3E
102
{ACAD_XDICTIONARY
360
2DA
102
}
102
{ACAD_REACTORS
330
29
102
}
330
29
100
AcDbVisualStyle
  2
Shaded
 70
    27
 71
     2
 72
     2
 73
     1
 90
        2
 40
-0.6
 41
30.0
 62
     5
 63
     7
 74
     0
 91
        4
 64
     7
 65
   257
 75
     1
175
     1
 42
1.0
 92
        8
 66
   257
 43
1.0
 76
     1
 77
     6
 78
     2
 67
     8
 79
     3
170
     0
171
     0
290
     0
174
     0
 93
        5
 44
0.0
173
     0
291
     0
 45
0.0
1001
ACAD
1000
AcDbSavedByObjectVersion
1070
     0
  0
VISUALSTYLE
  5
3D
102
{ACAD_XDICTIONARY
360
2D8
102
}
102
{ACAD_REACTORS
330
29
102
}
330
29
100
AcDbVisualStyle
  2
Shaded with edges
 70
    26
 71
     2
 72
     2
 73
     1
 90
        2
 40
-0.6
 41
30.0
 62
     5
 63
     7
 74
     1
 91
       10
 64
     7
 65
   257
 75
     2
175
     1
 42
1.0
 92
        8
 66
   257
 43
1.0
 76
     1
 77
     6
 78
     2
 67
     7
 79
     3
170
     0
171
     0
290
     0
174
     0
 93
        5
 44
0.0
173
     0
291
     0
 45
0.0
1001
ACAD
1000
AcDbSavedByObjectVersion
1070
     0
  0
VISUALSTYLE
  5
3A
102
{ACAD_XDICTIONARY
360
2D2
102
}
102
{ACAD_REACTORS
330
29
102
}
330
29
100
AcDbVisualStyle
  2
Shades of Gray
 70
    23
 71
     2
 72
     2
 73
     3
 90
        0
 40
-0.6
 41
-30.0
 62
     5
 63
     7
 74
     2
 91
        2
 64
     7
 65
     7
 75
     1
175
     1
 42
40.0
 92
        8
 66
     7
 43
1.0
 76
     1
 77
     6
 78
     2
 67
     7
 79
     3
170
     0
171
     0
290
     0
174
     0
 93
        1
 44
0.0
173
     0
291
     0
 45
0.0
1001
ACAD
1000
AcDbSavedByObjectVersion
1070
     0
  0
VISUALSTYLE
  5
3B
102
{ACAD_XDICTIONARY
360
2D4
102
}
102
{ACAD_REACTORS
330
29
102
}
330
29
100
AcDbVisualStyle
  2
Sketchy
 70
    24
 71
     1
 72
     2
 73
     2
 90
        0
 40
-0.6
 41
-30.0
 62
     5
 63
     7
 74
     2
 91
        2
 64
     7
 65
     7
 75
     1
175
     1
 42
40.0
 92
       11
 66
     7
 43
1.0
 76
     1
 77
     6
 78
     2
 67
     7
 79
     6
170
     0
171
     0
290
     0
174
     0
 93
        1
 44
0.0
173
     0
291
     0
 45
0.0
1001
ACAD
1000
AcDbSavedByObjectVersion
1070
     0
  0
VISUALSTYLE
  5
36
102
{ACAD_XDICTIONARY
360
2CA
102
}
102
{ACAD_REACTORS
330
29
102
}
330
29
100
AcDbVisualStyle
  2
Thicken
 70
    13
 71
     2
 72
     2
 73
     0
 90
        0
 40
-0.6
 41
-30.0
 62
     5
 63
     7
 74
     1
 91
        4
 64
     7
 65
   257
 75
     1
175
     1
 42
1.0
 92
       12
 66
     7
 43
1.0
 76
     1
 77
     6
 78
     2
 67
     7
 79
     5
170
     0
171
     0
290
     0
174
     0
 93
        1
 44
0.0
173
     0
291
     1
 45
0.0
1001
ACAD
1000
AcDbSavedByObjectVersion
1070
     0
  0
VISUALSTYLE
  5
30
102
{ACAD_XDICTIONARY
360
2BE
102
}
102
{ACAD_REACTORS
330
29
102
}
330
29
100
AcDbVisualStyle
  2
Wireframe
 70
     5
 71
     0
 72
     2
 73
     0
 90
        0
 40
-0.6
 41
-30.0
 62
     5
 63
     7
 74
     1
 91
        4
 64
     7
 65
   257
 75
     1
175
     1
 42
1.0
 92
        0
 66
   257
 43
1.0
 76
     1
 77
     6
 78
     2
 67
     7
 79
     3
170
     0
171
     0
290
     0
174
     0
 93
        1
 44
0.0
173
     0
291
     0
 45
0.0
1001
ACAD
1000
AcDbSavedByObjectVersion
1070
     0
  0
VISUALSTYLE
  5
3C
102
{ACAD_XDICTIONARY
360
2D6
102
}
102
{ACAD_REACTORS
330
29
102
}
330
29
100
AcDbVisualStyle
  2
X-Ray
 70
    25
 71
     2
 72
     2
 73
     1
 90
        1
 40
0.5
 41
-30.0
 62
     5
 63
     7
 74
     1
 91
        0
 64
     7
 65
   257
 75
     1
175
     1
 42
1.0
 92
        8
 66
     7
 43
1.0
 76
     1
 77
     6
 78
     2
 67
     7
 79
     3
170
     0
171
     0
290
     0
174
     0
 93
       13
 44
0.0
173
     0
291
     0
 45
0.0
1001
ACAD
1000
AcDbSavedByObjectVersion
1070
     0
  0
DICTIONARYVAR
  5
2A2
102
{ACAD_REACTORS
330
29E
102
}
330
29E
100
DictionaryVariables
280
     0
  1
1:1
  0
DICTIONARYVAR
  5
2A0
102
{ACAD_REACTORS
330
29E
102
}
330
29E
100
DictionaryVariables
280
     0
  1
STANDARD
  0
DICTIONARYVAR
  5
29F
102
{ACAD_REACTORS
330
29E
102
}
330
29E
100
DictionaryVariables
280
     0
  1
STANDARD
  0
DICTIONARYVAR
  5
2A9
102
{ACAD_REACTORS
330
29E
102
}
330
29E
100
DictionaryVariables
280
     0
  1
1
  0
DICTIONARYVAR
  5
2A8
102
{ACAD_REACTORS
330
29E
102
}
330
29E
100
DictionaryVariables
280
     0
  1
1
  0
DICTIONARYVAR
  5
2A7
102
{ACAD_REACTORS
330
29E
102
}
330
29E
100
DictionaryVariables
280
     0
  1
0
  0
DICTIONARYVAR
  5
2A4
102
{ACAD_REACTORS
330
29E
102
}
330
29E
100
DictionaryVariables
280
     0
  1
0
  0
DICTIONARYVAR
  5
2A5
102
{ACAD_REACTORS
330
29E
102
}
330
29E
100
DictionaryVariables
280
     0
  1
0
  0
DICTIONARYVAR
  5
2A3
102
{ACAD_REACTORS
330
29E
102
}
330
29E
100
DictionaryVariables
280
     0
  1
2
  0
DICTIONARYVAR
  5
2A1
102
{ACAD_REACTORS
330
29E
102
}
330
29E
100
DictionaryVariables
280
     0
  1
1
  0
DICTIONARYVAR
  5
2A6
102
{ACAD_REACTORS
330
29E
102
}
330
29E
100
DictionaryVariables
280
     0
  1
127
  0
DICTIONARYVAR
  5
2AA
102
{ACAD_REACTORS
330
29E
102
}
330
29E
100
DictionaryVariables
280
     0
  1
2
  0
DICTIONARY
  5
2E4
330
6B
100
AcDbDictionary
280
     1
281
     1
  3
ACAD_XREC_ROUNDTRIP
360
2E5
  0
DICTIONARY
  5
2E8
330
73
100
AcDbDictionary
280
     1
281
     1
  3
ACAD_XREC_ROUNDTRIP
360
2E9
  0
DICTIONARY
  5
2E6
330
6F
100
AcDbDictionary
280
     1
281
     1
  3
ACAD_XREC_ROUNDTRIP
360
2E7
  0
DICTIONARY
  5
1A
330
19
100
AcDbDictionary
280
     1
281
     1
  3
ACAD_XREC_ROUNDTRIP
360
2B0
  3
BUMPTILE
360
1C
  3
DIFFUSETILE
360
1B
  3
OPACITYTILE
360
1F
  3
REFLECTIONTILE
360
1E
  3
REFRACTIONTILE
360
20
  3
SPECULARTILE
360
1D
  0
DICTIONARY
  5
12
330
11
100
AcDbDictionary
280
     1
281
     1
  3
ACAD_XREC_ROUNDTRIP
360
2AF
  3
BUMPTILE
360
14
  3
DIFFUSETILE
360
13
  3
OPACITYTILE
360
17
  3
REFLECTIONTILE
360
16
  3
REFRACTIONTILE
360
18
  3
SPECULARTILE
360
15
  0
DICTIONARY
  5
22
330
21
100
AcDbDictionary
280
     1
281
     1
  3
ACAD_XREC_ROUNDTRIP
360
2B1
  3
BUMPTILE
360
24
  3
DIFFUSETILE
360
23
  3
OPACITYTILE
360
27
  3
REFLECTIONTILE
360
26
  3
REFRACTIONTILE
360
28
  3
SPECULARTILE
360
25
  0
DICTIONARY
  5
2AB
330
65
100
AcDbDictionary
280
     1
281
     1
  3
ACAD_ROUNDTRIP_2008_TABLESTYLE_CELLSTYLEMAP
360
2AC
  3
ACAD_XREC_ROUNDTRIP
360
2E2
  0
DICTIONARY
  5
2BC
330
2F
100
AcDbDictionary
280
     1
281
     1
  3
ACAD_XREC_ROUNDTRIP
360
2BD
  0
DICTIONARY
  5
2BA
330
2E
100
AcDbDictionary
280
     1
281
     1
  3
ACAD_XREC_ROUNDTRIP
360
2BB
  0
DICTIONARY
  5
2C8
330
35
100
AcDbDictionary
280
     1
281
     1
  3
ACAD_XREC_ROUNDTRIP
360
2C9
  0
DICTIONARY
  5
2D0
330
39
100
AcDbDictionary
280
     1
281
     1
  3
ACAD_XREC_ROUNDTRIP
360
2D1
  0
DICTIONARY
  5
2C2
330
32
100
AcDbDictionary
280
     1
281
     1
  3
ACAD_XREC_ROUNDTRIP
360
2C3
  0
DICTIONARY
  5
2C6
330
34
100
AcDbDictionary
280
     1
281
     1
  3
ACAD_XREC_ROUNDTRIP
360
2C7
  0
DICTIONARY
  5
2E0
330
41
100
AcDbDictionary
280
     1
281
     1
  3
ACAD_XREC_ROUNDTRIP
360
2E1
  0
DICTIONARY
  5
2CE
330
38
100
AcDbDictionary
280
     1
281
     1
  3
ACAD_XREC_ROUNDTRIP
360
2CF
  0
DICTIONARY
  5
2B2
330
2A
100
AcDbDictionary
280
     1
281
     1
  3
ACAD_XREC_ROUNDTRIP
360
2B3
  0
DICTIONARY
  5
2B4
330
2B
100
AcDbDictionary
280
     1
281
     1
  3
ACAD_XREC_ROUNDTRIP
360
2B5
  0
DICTIONARY
  5
2B6
330
2C
100
AcDbDictionary
280
     1
281
     1
  3
ACAD_XREC_ROUNDTRIP
360
2B7
  0
DICTIONARY
  5
2B8
330
2D
100
AcDbDictionary
280
     1
281
     1
  3
ACAD_XREC_ROUNDTRIP
360
2B9
  0
DICTIONARY
  5
2C0
330
31
100
AcDbDictionary
280
     1
281
     1
  3
ACAD_XREC_ROUNDTRIP
360
2C1
  0
DICTIONARY
  5
2DC
330
3F
100
AcDbDictionary
280
     1
281
     1
  3
ACAD_XREC_ROUNDTRIP
360
2DD
  0
DICTIONARY
  5
2CC
330
37
100
AcDbDictionary
280
     1
281
     1
  3
ACAD_XREC_ROUNDTRIP
360
2CD
  0
DICTIONARY
  5
2DE
330
40
100
AcDbDictionary
280
     1
281
     1
  3
ACAD_XREC_ROUNDTRIP
360
2DF
  0
DICTIONARY
  5
2C4
330
33
100
AcDbDictionary
280
     1
281
     1
  3
ACAD_XREC_ROUNDTRIP
360
2C5
  0
DICTIONARY
  5
2DA
330
3E
100
AcDbDictionary
280
     1
281
     1
  3
ACAD_XREC_ROUNDTRIP
360
2DB
  0
DICTIONARY
  5
2D8
330
3D
100
AcDbDictionary
280
     1
281
     1
  3
ACAD_XREC_ROUNDTRIP
360
2D9
  0
DICTIONARY
  5
2D2
330
3A
100
AcDbDictionary
280
     1
281
     1
  3
ACAD_XREC_ROUNDTRIP
360
2D3
  0
DICTIONARY
  5
2D4
330
3B
100
AcDbDictionary
280
     1
281
     1
  3
ACAD_XREC_ROUNDTRIP
360
2D5
  0
DICTIONARY
  5
2CA
330
36
100
AcDbDictionary
280
     1
281
     1
  3
ACAD_XREC_ROUNDTRIP
360
2CB
  0
DICTIONARY
  5
2BE
330
30
100
AcDbDictionary
280
     1
281
     1
  3
ACAD_XREC_ROUNDTRIP
360
2BF
  0
DICTIONARY
  5
2D6
330
3C
100
AcDbDictionary
280
     1
281
     1
  3
ACAD_XREC_ROUNDTRIP
360
2D7
  0
XRECORD
  5
2E5
102
{ACAD_REACTORS
330
2E4
102
}
330
2E4
100
AcDbXrecord
280
     1
102
SHADEPLOT
 70
     0
102
SHADEPLOTRESLEVEL
 70
     2
102
SHADEPLOTCUSTOMDPI
 70
   300
  0
XRECORD
  5
2E9
102
{ACAD_REACTORS
330
2E8
102
}
330
2E8
100
AcDbXrecord
280
     1
102
SHADEPLOT
 70
     0
102
SHADEPLOTRESLEVEL
 70
     2
102
SHADEPLOTCUSTOMDPI
 70
   300
  0
XRECORD
  5
2E7
102
{ACAD_REACTORS
330
2E6
102
}
330
2E6
100
AcDbXrecord
280
     1
102
SHADEPLOT
 70
     0
102
SHADEPLOTRESLEVEL
 70
     2
102
SHADEPLOTCUSTOMDPI
 70
   300
  0
XRECORD
  5
2B0
102
{ACAD_REACTORS
330
1A
102
}
330
1A
100
AcDbXrecord
280
     1
102
MATERIAL
148
0.0
149
0.0
149
0.0
 93
        0
 94
      127
282
     0
 72
     0
 77
     0
171
     0
175
     0
179
     0
273
     0
  0
XRECORD
  5
1C
102
{ACAD_REACTORS
330
1A
102
}
330
1A
100
AcDbXrecord
280
     1
270
     1
271
     1
  0
XRECORD
  5
1B
102
{ACAD_REACTORS
330
1A
102
}
330
1A
100
AcDbXrecord
280
     1
270
     1
271
     1
  0
XRECORD
  5
1F
102
{ACAD_REACTORS
330
1A
102
}
330
1A
100
AcDbXrecord
280
     1
270
     1
271
     1
  0
XRECORD
  5
1E
102
{ACAD_REACTORS
330
1A
102
}
330
1A
100
AcDbXrecord
280
     1
270
     1
271
     1
  0
XRECORD
  5
20
102
{ACAD_REACTORS
330
1A
102
}
330
1A
100
AcDbXrecord
280
     1
270
     1
271
     1
  0
XRECORD
  5
1D
102
{ACAD_REACTORS
330
1A
102
}
330
1A
100
AcDbXrecord
280
     1
270
     1
271
     1
  0
XRECORD
  5
2AF
102
{ACAD_REACTORS
330
12
102
}
330
12
100
AcDbXrecord
280
     1
102
MATERIAL
148
0.0
149
0.0
149
0.0
 93
        0
 94
      127
282
     0
 72
     0
 77
     0
171
     0
175
     0
179
     0
273
     0
  0
XRECORD
  5
14
102
{ACAD_REACTORS
330
12
102
}
330
12
100
AcDbXrecord
280
     1
270
     1
271
     1
  0
XRECORD
  5
13
102
{ACAD_REACTORS
330
12
102
}
330
12
100
AcDbXrecord
280
     1
270
     1
271
     1
  0
XRECORD
  5
17
102
{ACAD_REACTORS
330
12
102
}
330
12
100
AcDbXrecord
280
     1
270
     1
271
     1
  0
XRECORD
  5
16
102
{ACAD_REACTORS
330
12
102
}
330
12
100
AcDbXrecord
280
     1
270
     1
271
     1
  0
XRECORD
  5
18
102
{ACAD_REACTORS
330
12
102
}
330
12
100
AcDbXrecord
280
     1
270
     1
271
     1
  0
XRECORD
  5
15
102
{ACAD_REACTORS
330
12
102
}
330
12
100
AcDbXrecord
280
     1
270
     1
271
     1
  0
XRECORD
  5
2B1
102
{ACAD_REACTORS
330
22
102
}
330
22
100
AcDbXrecord
280
     1
102
MATERIAL
148
0.0
149
0.0
149
0.0
 93
        0
 94
      127
282
     0
 72
     0
 77
     0
171
     0
175
     0
179
     0
273
     0
  0
XRECORD
  5
24
102
{ACAD_REACTORS
330
22
102
}
330
22
100
AcDbXrecord
280
     1
270
     1
271
     1
  0
XRECORD
  5
23
102
{ACAD_REACTORS
330
22
102
}
330
22
100
AcDbXrecord
280
     1
270
     1
271
     1
  0
XRECORD
  5
27
102
{ACAD_REACTORS
330
22
102
}
330
22
100
AcDbXrecord
280
     1
270
     1
271
     1
  0
XRECORD
  5
26
102
{ACAD_REACTORS
330
22
102
}
330
22
100
AcDbXrecord
280
     1
270
     1
271
     1
  0
XRECORD
  5
28
102
{ACAD_REACTORS
330
22
102
}
330
22
100
AcDbXrecord
280
     1
270
     1
271
     1
  0
XRECORD
  5
25
102
{ACAD_REACTORS
330
22
102
}
330
22
100
AcDbXrecord
280
     1
270
     1
271
     1
  0
CELLSTYLEMAP
  5
2AC
102
{ACAD_REACTORS
330
2AB
102
}
330
2AB
100
AcDbCellStyleMap
 90
        3
300
CELLSTYLE
  1
TABLEFORMAT_BEGIN
 90
        5
170
     1
 91
        0
 92
    32768
 62
   257
 93
        1
300
CONTENTFORMAT
  1
CONTENTFORMAT_BEGIN
 90
        0
 91
        0
 92
      512
 93
        0
300

 40
0.0
140
1.0
 94
        5
 62
     0
340
55
144
0.25
309
CONTENTFORMAT_END
171
     0
 94
        0
309
TABLEFORMAT_END
  1
CELLSTYLE_BEGIN
 90
        1
 91
        1
300
_TITLE
309
CELLSTYLE_END
300
CELLSTYLE
  1
TABLEFORMAT_BEGIN
 90
        5
170
     1
 91
        0
 92
        0
 62
   257
 93
        1
300
CONTENTFORMAT
  1
CONTENTFORMAT_BEGIN
 90
        0
 91
        0
 92
      512
 93
        0
300

 40
0.0
140
1.0
 94
        5
 62
     0
340
55
144
0.18
309
CONTENTFORMAT_END
171
     0
 94
        0
309
TABLEFORMAT_END
  1
CELLSTYLE_BEGIN
 90
        2
 91
        1
300
_HEADER
309
CELLSTYLE_END
300
CELLSTYLE
  1
TABLEFORMAT_BEGIN
 90
        5
170
     1
 91
        0
 92
        0
 62
   257
 93
        1
300
CONTENTFORMAT
  1
CONTENTFORMAT_BEGIN
 90
        0
 91
        0
 92
      512
 93
        0
300

 40
0.0
140
1.0
 94
        2
 62
     0
340
55
144
0.18
309
CONTENTFORMAT_END
171
     0
 94
        0
309
TABLEFORMAT_END
  1
CELLSTYLE_BEGIN
 90
        3
 91
        2
300
_DATA
309
CELLSTYLE_END
  0
XRECORD
  5
2E2
102
{ACAD_REACTORS
330
2AB
102
}
330
2AB
100
AcDbXrecord
280
     1
102
ACAD_ROUNDTRIP_PRE2007_TABLESTYLE
 90
      512
 91
        0
  1

 92
      512
 93
        0
  2

 94
      512
 95
        0
  3

  0
XRECORD
  5
2BD
102
{ACAD_REACTORS
330
2BC
102
}
330
2BC
100
AcDbXrecord
280
     1
102
RTVSPropertyOp0
 70
     1
102
RTVSPropertyOp1
 70
     1
102
RTVSPropertyOp2
 70
     1
102
RTVSPropertyOp3
 70
     1
102
RTVSPropertyOp4
 70
     1
102
RTVSPropertyOp5
 70
     1
102
RTVSPropertyOp6
 70
     1
102
RTVSPropertyOp7
 70
     1
102
RTVSPropertyOp8
 70
     1
102
RTVSPropertyOp9
 70
     1
102
RTVSPropertyOp10
 70
     1
102
RTVSPropertyOp11
 70
     1
102
RTVSPropertyOp12
 70
     1
102
RTVSPropertyOp13
 70
     1
102
RTVSPropertyOp14
 70
     1
102
RTVSPropertyOp15
 70
     1
102
RTVSPropertyOp16
 70
     1
102
RTVSPropertyOp17
 70
     1
102
RTVSPropertyOp18
 70
     1
102
RTVSPropertyOp19
 70
     1
102
RTVSPropertyOp20
 70
     1
102
RTVSPropertyOp21
 70
     1
102
RTVSPropertyOp22
 70
     1
102
RTVSPropertyOp23
 70
     1
102
RTVSPropertyOp24
 70
     1
102
RTVSPropertyOp25
 70
     1
102
RTVSPropertyOp26
 70
     1
102
RTVSPropertyOp27
 70
     1
102
RTVSPropertyOp28
 70
     1
102
RTVSPropertyOp29
 70
     1
102
RTVSPropertyOp30
 70
     1
102
RTVSPropertyOp31
 70
     1
102
RTVSPropertyOp32
 70
     1
  0
XRECORD
  5
2BB
102
{ACAD_REACTORS
330
2BA
102
}
330
2BA
100
AcDbXrecord
280
     1
102
RTVSPropertyOp0
 70
     1
102
RTVSPropertyOp1
 70
     1
102
RTVSPropertyOp2
 70
     1
102
RTVSPropertyOp3
 70
     1
102
RTVSPropertyOp4
 70
     1
102
RTVSPropertyOp5
 70
     1
102
RTVSPropertyOp6
 70
     1
102
RTVSPropertyOp7
 70
     1
102
RTVSPropertyOp8
 70
     1
102
RTVSPropertyOp9
 70
     1
102
RTVSPropertyOp10
 70
     1
102
RTVSPropertyOp11
 70
     1
102
RTVSPropertyOp12
 70
     1
102
RTVSPropertyOp13
 70
     1
102
RTVSPropertyOp14
 70
     1
102
RTVSPropertyOp15
 70
     1
102
RTVSPropertyOp16
 70
     1
102
RTVSPropertyOp17
 70
     1
102
RTVSPropertyOp18
 70
     1
102
RTVSPropertyOp19
 70
     1
102
RTVSPropertyOp20
 70
     1
102
RTVSPropertyOp21
 70
     1
102
RTVSPropertyOp22
 70
     1
102
RTVSPropertyOp23
 70
     1
102
RTVSPropertyOp24
 70
     1
102
RTVSPropertyOp25
 70
     1
102
RTVSPropertyOp26
 70
     1
102
RTVSPropertyOp27
 70
     1
102
RTVSPropertyOp28
 70
     1
102
RTVSPropertyOp29
 70
     1
102
RTVSPropertyOp30
 70
     1
102
RTVSPropertyOp31
 70
     1
102
RTVSPropertyOp32
 70
     1
  0
XRECORD
  5
2C9
102
{ACAD_REACTORS
330
2C8
102
}
330
2C8
100
AcDbXrecord
280
     1
102
RTVSPropertyOp0
 70
     1
102
RTVSPropertyOp1
 70
     1
102
RTVSPropertyOp2
 70
     1
102
RTVSPropertyOp3
 70
     1
102
RTVSPropertyOp4
 70
     1
102
RTVSPropertyOp5
 70
     1
102
RTVSPropertyOp6
 70
     1
102
RTVSPropertyOp7
 70
     1
102
RTVSPropertyOp8
 70
     1
102
RTVSPropertyOp9
 70
     1
102
RTVSPropertyOp10
 70
     1
102
RTVSPropertyOp11
 70
     1
102
RTVSPropertyOp12
 70
     1
102
RTVSPropertyOp13
 70
     1
102
RTVSPropertyOp14
 70
     1
102
RTVSPropertyOp15
 70
     1
102
RTVSPropertyOp16
 70
     1
102
RTVSPropertyOp17
 70
     1
102
RTVSPropertyOp18
 70
     1
102
RTVSPropertyOp19
 70
     1
102
RTVSPropertyOp20
 70
     1
102
RTVSPropertyOp21
 70
     1
102
RTVSPropertyOp22
 70
     1
102
RTVSPropertyOp23
 70
     1
102
RTVSPropertyOp24
 70
     1
102
RTVSPropertyOp25
 70
     1
102
RTVSPropertyOp26
 70
     1
102
RTVSPropertyOp27
 70
     1
102
RTVSPropertyOp28
 70
     1
102
RTVSPropertyOp29
 70
     1
102
RTVSPropertyOp30
 70
     1
102
RTVSPropertyOp31
 70
     1
102
RTVSPropertyOp32
 70
     1
  0
XRECORD
  5
2D1
102
{ACAD_REACTORS
330
2D0
102
}
330
2D0
100
AcDbXrecord
280
     1
102
RTVSPropertyOp0
 70
     1
102
RTVSPropertyOp1
 70
     1
102
RTVSPropertyOp2
 70
     1
102
RTVSPropertyOp3
 70
     1
102
RTVSPropertyOp4
 70
     1
102
RTVSPropertyOp5
 70
     1
102
RTVSPropertyOp6
 70
     1
102
RTVSPropertyOp7
 70
     1
102
RTVSPropertyOp8
 70
     1
102
RTVSPropertyOp9
 70
     1
102
RTVSPropertyOp10
 70
     1
102
RTVSPropertyOp11
 70
     1
102
RTVSPropertyOp12
 70
     1
102
RTVSPropertyOp13
 70
     1
102
RTVSPropertyOp14
 70
     1
102
RTVSPropertyOp15
 70
     1
102
RTVSPropertyOp16
 70
     1
102
RTVSPropertyOp17
 70
     1
102
RTVSPropertyOp18
 70
     1
102
RTVSPropertyOp19
 70
     1
102
RTVSPropertyOp20
 70
     1
102
RTVSPropertyOp21
 70
     1
102
RTVSPropertyOp22
 70
     1
102
RTVSPropertyOp23
 70
     1
102
RTVSPropertyOp24
 70
     1
102
RTVSPropertyOp25
 70
     1
102
RTVSPropertyOp26
 70
     1
102
RTVSPropertyOp27
 70
     1
102
RTVSPropertyOp28
 70
     1
102
RTVSPropertyOp29
 70
     1
102
RTVSPropertyOp30
 70
     1
102
RTVSPropertyOp31
 70
     1
102
RTVSPropertyOp32
 70
     1
  0
XRECORD
  5
2C3
102
{ACAD_REACTORS
330
2C2
102
}
330
2C2
100
AcDbXrecord
280
     1
102
RTVSPropertyOp0
 70
     1
102
RTVSPropertyOp1
 70
     1
102
RTVSPropertyOp2
 70
     1
102
RTVSPropertyOp3
 70
     1
102
RTVSPropertyOp4
 70
     1
102
RTVSPropertyOp5
 70
     1
102
RTVSPropertyOp6
 70
     1
102
RTVSPropertyOp7
 70
     1
102
RTVSPropertyOp8
 70
     1
102
RTVSPropertyOp9
 70
     1
102
RTVSPropertyOp10
 70
     1
102
RTVSPropertyOp11
 70
     1
102
RTVSPropertyOp12
 70
     1
102
RTVSPropertyOp13
 70
     1
102
RTVSPropertyOp14
 70
     1
102
RTVSPropertyOp15
 70
     1
102
RTVSPropertyOp16
 70
     1
102
RTVSPropertyOp17
 70
     1
102
RTVSPropertyOp18
 70
     1
102
RTVSPropertyOp19
 70
     1
102
RTVSPropertyOp20
 70
     1
102
RTVSPropertyOp21
 70
     1
102
RTVSPropertyOp22
 70
     1
102
RTVSPropertyOp23
 70
     1
102
RTVSPropertyOp24
 70
     1
102
RTVSPropertyOp25
 70
     1
102
RTVSPropertyOp26
 70
     1
102
RTVSPropertyOp27
 70
     1
102
RTVSPropertyOp28
 70
     1
102
RTVSPropertyOp29
 70
     1
102
RTVSPropertyOp30
 70
     1
102
RTVSPropertyOp31
 70
     1
102
RTVSPropertyOp32
 70
     1
  0
XRECORD
  5
2C7
102
{ACAD_REACTORS
330
2C6
102
}
330
2C6
100
AcDbXrecord
280
     1
102
RTVSPropertyOp0
 70
     1
102
RTVSPropertyOp1
 70
     1
102
RTVSPropertyOp2
 70
     1
102
RTVSPropertyOp3
 70
     1
102
RTVSPropertyOp4
 70
     1
102
RTVSPropertyOp5
 70
     1
102
RTVSPropertyOp6
 70
     1
102
RTVSPropertyOp7
 70
     1
102
RTVSPropertyOp8
 70
     1
102
RTVSPropertyOp9
 70
     1
102
RTVSPropertyOp10
 70
     1
102
RTVSPropertyOp11
 70
     1
102
RTVSPropertyOp12
 70
     1
102
RTVSPropertyOp13
 70
     1
102
RTVSPropertyOp14
 70
     1
102
RTVSPropertyOp15
 70
     1
102
RTVSPropertyOp16
 70
     1
102
RTVSPropertyOp17
 70
     1
102
RTVSPropertyOp18
 70
     1
102
RTVSPropertyOp19
 70
     1
102
RTVSPropertyOp20
 70
     1
102
RTVSPropertyOp21
 70
     1
102
RTVSPropertyOp22
 70
     1
102
RTVSPropertyOp23
 70
     1
102
RTVSPropertyOp24
 70
     1
102
RTVSPropertyOp25
 70
     1
102
RTVSPropertyOp26
 70
     1
102
RTVSPropertyOp27
 70
     1
102
RTVSPropertyOp28
 70
     1
102
RTVSPropertyOp29
 70
     1
102
RTVSPropertyOp30
 70
     1
102
RTVSPropertyOp31
 70
     1
102
RTVSPropertyOp32
 70
     1
  0
XRECORD
  5
2E1
102
{ACAD_REACTORS
330
2E0
102
}
330
2E0
100
AcDbXrecord
280
     1
102
RTVSPropertyOp0
 70
     0
102
RTVSPropertyOp1
 70
     0
102
RTVSPropertyOp2
 70
     0
102
RTVSPropertyOp3
 70
     0
102
RTVSPropertyOp4
 70
     0
102
RTVSPropertyOp5
 70
     0
102
RTVSPropertyOp6
 70
     0
102
RTVSPropertyOp7
 70
     0
102
RTVSPropertyOp8
 70
     0
102
RTVSPropertyOp9
 70
     0
102
RTVSPropertyOp10
 70
     0
102
RTVSPropertyOp11
 70
     0
102
RTVSPropertyOp12
 70
     0
102
RTVSPropertyOp13
 70
     0
102
RTVSPropertyOp14
 70
     2
102
RTVSPropertyOp15
 70
     0
102
RTVSPropertyOp16
 70
     0
102
RTVSPropertyOp17
 70
     0
102
RTVSPropertyOp18
 70
     0
102
RTVSPropertyOp19
 70
     0
102
RTVSPropertyOp20
 70
     0
102
RTVSPropertyOp21
 70
     0
102
RTVSPropertyOp22
 70
     0
102
RTVSPropertyOp23
 70
     0
102
RTVSPropertyOp24
 70
     0
102
RTVSPropertyOp25
 70
     0
102
RTVSPropertyOp26
 70
     0
102
RTVSPropertyOp27
 70
     0
102
RTVSPropertyOp28
 70
     0
102
RTVSPropertyOp29
 70
     0
102
RTVSPropertyOp30
 70
     0
102
RTVSPropertyOp31
 70
     0
102
RTVSPropertyOp32
 70
     0
  0
XRECORD
  5
2CF
102
{ACAD_REACTORS
330
2CE
102
}
330
2CE
100
AcDbXrecord
280
     1
102
RTVSPropertyOp0
 70
     1
102
RTVSPropertyOp1
 70
     1
102
RTVSPropertyOp2
 70
     1
102
RTVSPropertyOp3
 70
     1
102
RTVSPropertyOp4
 70
     1
102
RTVSPropertyOp5
 70
     1
102
RTVSPropertyOp6
 70
     1
102
RTVSPropertyOp7
 70
     1
102
RTVSPropertyOp8
 70
     1
102
RTVSPropertyOp9
 70
     1
102
RTVSPropertyOp10
 70
     1
102
RTVSPropertyOp11
 70
     1
102
RTVSPropertyOp12
 70
     1
102
RTVSPropertyOp13
 70
     1
102
RTVSPropertyOp14
 70
     1
102
RTVSPropertyOp15
 70
     1
102
RTVSPropertyOp16
 70
     1
102
RTVSPropertyOp17
 70
     1
102
RTVSPropertyOp18
 70
     1
102
RTVSPropertyOp19
 70
     1
102
RTVSPropertyOp20
 70
     1
102
RTVSPropertyOp21
 70
     1
102
RTVSPropertyOp22
 70
     1
102
RTVSPropertyOp23
 70
     1
102
RTVSPropertyOp24
 70
     1
102
RTVSPropertyOp25
 70
     1
102
RTVSPropertyOp26
 70
     1
102
RTVSPropertyOp27
 70
     1
102
RTVSPropertyOp28
 70
     1
102
RTVSPropertyOp29
 70
     1
102
RTVSPropertyOp30
 70
     1
102
RTVSPropertyOp31
 70
     1
102
RTVSPropertyOp32
 70
     1
  0
XRECORD
  5
2B3
102
{ACAD_REACTORS
330
2B2
102
}
330
2B2
100
AcDbXrecord
280
     1
102
RTVSPropertyOp0
 70
     1
102
RTVSPropertyOp1
 70
     1
102
RTVSPropertyOp2
 70
     1
102
RTVSPropertyOp3
 70
     1
102
RTVSPropertyOp4
 70
     1
102
RTVSPropertyOp5
 70
     1
102
RTVSPropertyOp6
 70
     1
102
RTVSPropertyOp7
 70
     1
102
RTVSPropertyOp8
 70
     1
102
RTVSPropertyOp9
 70
     1
102
RTVSPropertyOp10
 70
     1
102
RTVSPropertyOp11
 70
     1
102
RTVSPropertyOp12
 70
     1
102
RTVSPropertyOp13
 70
     1
102
RTVSPropertyOp14
 70
     1
102
RTVSPropertyOp15
 70
     1
102
RTVSPropertyOp16
 70
     1
102
RTVSPropertyOp17
 70
     1
102
RTVSPropertyOp18
 70
     1
102
RTVSPropertyOp19
 70
     1
102
RTVSPropertyOp20
 70
     1
102
RTVSPropertyOp21
 70
     1
102
RTVSPropertyOp22
 70
     1
102
RTVSPropertyOp23
 70
     1
102
RTVSPropertyOp24
 70
     1
102
RTVSPropertyOp25
 70
     1
102
RTVSPropertyOp26
 70
     1
102
RTVSPropertyOp27
 70
     1
102
RTVSPropertyOp28
 70
     1
102
RTVSPropertyOp29
 70
     1
102
RTVSPropertyOp30
 70
     1
102
RTVSPropertyOp31
 70
     1
102
RTVSPropertyOp32
 70
     1
  0
XRECORD
  5
2B5
102
{ACAD_REACTORS
330
2B4
102
}
330
2B4
100
AcDbXrecord
280
     1
102
RTVSPropertyOp0
 70
     1
102
RTVSPropertyOp1
 70
     1
102
RTVSPropertyOp2
 70
     1
102
RTVSPropertyOp3
 70
     1
102
RTVSPropertyOp4
 70
     1
102
RTVSPropertyOp5
 70
     1
102
RTVSPropertyOp6
 70
     1
102
RTVSPropertyOp7
 70
     1
102
RTVSPropertyOp8
 70
     1
102
RTVSPropertyOp9
 70
     1
102
RTVSPropertyOp10
 70
     1
102
RTVSPropertyOp11
 70
     1
102
RTVSPropertyOp12
 70
     1
102
RTVSPropertyOp13
 70
     1
102
RTVSPropertyOp14
 70
     1
102
RTVSPropertyOp15
 70
     1
102
RTVSPropertyOp16
 70
     1
102
RTVSPropertyOp17
 70
     1
102
RTVSPropertyOp18
 70
     1
102
RTVSPropertyOp19
 70
     1
102
RTVSPropertyOp20
 70
     1
102
RTVSPropertyOp21
 70
     1
102
RTVSPropertyOp22
 70
     1
102
RTVSPropertyOp23
 70
     1
102
RTVSPropertyOp24
 70
     1
102
RTVSPropertyOp25
 70
     1
102
RTVSPropertyOp26
 70
     1
102
RTVSPropertyOp27
 70
     1
102
RTVSPropertyOp28
 70
     1
102
RTVSPropertyOp29
 70
     1
102
RTVSPropertyOp30
 70
     1
102
RTVSPropertyOp31
 70
     1
102
RTVSPropertyOp32
 70
     1
  0
XRECORD
  5
2B7
102
{ACAD_REACTORS
330
2B6
102
}
330
2B6
100
AcDbXrecord
280
     1
102
RTVSPropertyOp0
 70
     1
102
RTVSPropertyOp1
 70
     1
102
RTVSPropertyOp2
 70
     1
102
RTVSPropertyOp3
 70
     1
102
RTVSPropertyOp4
 70
     1
102
RTVSPropertyOp5
 70
     1
102
RTVSPropertyOp6
 70
     1
102
RTVSPropertyOp7
 70
     1
102
RTVSPropertyOp8
 70
     1
102
RTVSPropertyOp9
 70
     1
102
RTVSPropertyOp10
 70
     1
102
RTVSPropertyOp11
 70
     1
102
RTVSPropertyOp12
 70
     1
102
RTVSPropertyOp13
 70
     1
102
RTVSPropertyOp14
 70
     1
102
RTVSPropertyOp15
 70
     1
102
RTVSPropertyOp16
 70
     1
102
RTVSPropertyOp17
 70
     1
102
RTVSPropertyOp18
 70
     1
102
RTVSPropertyOp19
 70
     1
102
RTVSPropertyOp20
 70
     1
102
RTVSPropertyOp21
 70
     1
102
RTVSPropertyOp22
 70
     1
102
RTVSPropertyOp23
 70
     1
102
RTVSPropertyOp24
 70
     1
102
RTVSPropertyOp25
 70
     1
102
RTVSPropertyOp26
 70
     1
102
RTVSPropertyOp27
 70
     1
102
RTVSPropertyOp28
 70
     1
102
RTVSPropertyOp29
 70
     1
102
RTVSPropertyOp30
 70
     1
102
RTVSPropertyOp31
 70
     1
102
RTVSPropertyOp32
 70
     1
  0
XRECORD
  5
2B9
102
{ACAD_REACTORS
330
2B8
102
}
330
2B8
100
AcDbXrecord
280
     1
102
RTVSPropertyOp0
 70
     1
102
RTVSPropertyOp1
 70
     1
102
RTVSPropertyOp2
 70
     1
102
RTVSPropertyOp3
 70
     1
102
RTVSPropertyOp4
 70
     1
102
RTVSPropertyOp5
 70
     1
102
RTVSPropertyOp6
 70
     1
102
RTVSPropertyOp7
 70
     1
102
RTVSPropertyOp8
 70
     1
102
RTVSPropertyOp9
 70
     1
102
RTVSPropertyOp10
 70
     1
102
RTVSPropertyOp11
 70
     1
102
RTVSPropertyOp12
 70
     1
102
RTVSPropertyOp13
 70
     1
102
RTVSPropertyOp14
 70
     1
102
RTVSPropertyOp15
 70
     1
102
RTVSPropertyOp16
 70
     1
102
RTVSPropertyOp17
 70
     1
102
RTVSPropertyOp18
 70
     1
102
RTVSPropertyOp19
 70
     1
102
RTVSPropertyOp20
 70
     1
102
RTVSPropertyOp21
 70
     1
102
RTVSPropertyOp22
 70
     1
102
RTVSPropertyOp23
 70
     1
102
RTVSPropertyOp24
 70
     1
102
RTVSPropertyOp25
 70
     1
102
RTVSPropertyOp26
 70
     1
102
RTVSPropertyOp27
 70
     1
102
RTVSPropertyOp28
 70
     1
102
RTVSPropertyOp29
 70
     1
102
RTVSPropertyOp30
 70
     1
102
RTVSPropertyOp31
 70
     1
102
RTVSPropertyOp32
 70
     1
  0
XRECORD
  5
2C1
102
{ACAD_REACTORS
330
2C0
102
}
330
2C0
100
AcDbXrecord
280
     1
102
RTVSPropertyOp0
 70
     1
102
RTVSPropertyOp1
 70
     1
102
RTVSPropertyOp2
 70
     1
102
RTVSPropertyOp3
 70
     1
102
RTVSPropertyOp4
 70
     1
102
RTVSPropertyOp5
 70
     1
102
RTVSPropertyOp6
 70
     1
102
RTVSPropertyOp7
 70
     1
102
RTVSPropertyOp8
 70
     1
102
RTVSPropertyOp9
 70
     1
102
RTVSPropertyOp10
 70
     1
102
RTVSPropertyOp11
 70
     1
102
RTVSPropertyOp12
 70
     1
102
RTVSPropertyOp13
 70
     1
102
RTVSPropertyOp14
 70
     1
102
RTVSPropertyOp15
 70
     1
102
RTVSPropertyOp16
 70
     1
102
RTVSPropertyOp17
 70
     1
102
RTVSPropertyOp18
 70
     1
102
RTVSPropertyOp19
 70
     1
102
RTVSPropertyOp20
 70
     1
102
RTVSPropertyOp21
 70
     1
102
RTVSPropertyOp22
 70
     1
102
RTVSPropertyOp23
 70
     1
102
RTVSPropertyOp24
 70
     1
102
RTVSPropertyOp25
 70
     1
102
RTVSPropertyOp26
 70
     1
102
RTVSPropertyOp27
 70
     1
102
RTVSPropertyOp28
 70
     1
102
RTVSPropertyOp29
 70
     1
102
RTVSPropertyOp30
 70
     1
102
RTVSPropertyOp31
 70
     1
102
RTVSPropertyOp32
 70
     1
  0
XRECORD
  5
2DD
102
{ACAD_REACTORS
330
2DC
102
}
330
2DC
100
AcDbXrecord
280
     1
102
RTVSPropertyOp0
 70
     0
102
RTVSPropertyOp1
 70
     0
102
RTVSPropertyOp2
 70
     0
102
RTVSPropertyOp3
 70
     0
102
RTVSPropertyOp4
 70
     0
102
RTVSPropertyOp5
 70
     0
102
RTVSPropertyOp6
 70
     0
102
RTVSPropertyOp7
 70
     0
102
RTVSPropertyOp8
 70
     0
102
RTVSPropertyOp9
 70
     0
102
RTVSPropertyOp10
 70
     0
102
RTVSPropertyOp11
 70
     0
102
RTVSPropertyOp12
 70
     0
102
RTVSPropertyOp13
 70
     0
102
RTVSPropertyOp14
 70
     2
102
RTVSPropertyOp15
 70
     0
102
RTVSPropertyOp16
 70
     0
102
RTVSPropertyOp17
 70
     0
102
RTVSPropertyOp18
 70
     0
102
RTVSPropertyOp19
 70
     0
102
RTVSPropertyOp20
 70
     0
102
RTVSPropertyOp21
 70
     0
102
RTVSPropertyOp22
 70
     0
102
RTVSPropertyOp23
 70
     0
102
RTVSPropertyOp24
 70
     0
102
RTVSPropertyOp25
 70
     0
102
RTVSPropertyOp26
 70
     0
102
RTVSPropertyOp27
 70
     0
102
RTVSPropertyOp28
 70
     0
102
RTVSPropertyOp29
 70
     0
102
RTVSPropertyOp30
 70
     0
102
RTVSPropertyOp31
 70
     0
102
RTVSPropertyOp32
 70
     0
  0
XRECORD
  5
2CD
102
{ACAD_REACTORS
330
2CC
102
}
330
2CC
100
AcDbXrecord
280
     1
102
RTVSPropertyOp0
 70
     1
102
RTVSPropertyOp1
 70
     1
102
RTVSPropertyOp2
 70
     1
102
RTVSPropertyOp3
 70
     1
102
RTVSPropertyOp4
 70
     1
102
RTVSPropertyOp5
 70
     1
102
RTVSPropertyOp6
 70
     1
102
RTVSPropertyOp7
 70
     1
102
RTVSPropertyOp8
 70
     1
102
RTVSPropertyOp9
 70
     1
102
RTVSPropertyOp10
 70
     1
102
RTVSPropertyOp11
 70
     1
102
RTVSPropertyOp12
 70
     1
102
RTVSPropertyOp13
 70
     1
102
RTVSPropertyOp14
 70
     1
102
RTVSPropertyOp15
 70
     1
102
RTVSPropertyOp16
 70
     1
102
RTVSPropertyOp17
 70
     1
102
RTVSPropertyOp18
 70
     1
102
RTVSPropertyOp19
 70
     1
102
RTVSPropertyOp20
 70
     1
102
RTVSPropertyOp21
 70
     1
102
RTVSPropertyOp22
 70
     1
102
RTVSPropertyOp23
 70
     1
102
RTVSPropertyOp24
 70
     1
102
RTVSPropertyOp25
 70
     1
102
RTVSPropertyOp26
 70
     1
102
RTVSPropertyOp27
 70
     1
102
RTVSPropertyOp28
 70
     1
102
RTVSPropertyOp29
 70
     1
102
RTVSPropertyOp30
 70
     1
102
RTVSPropertyOp31
 70
     1
102
RTVSPropertyOp32
 70
     1
  0
XRECORD
  5
2DF
102
{ACAD_REACTORS
330
2DE
102
}
330
2DE
100
AcDbXrecord
280
     1
102
RTVSPropertyOp0
 70
     0
102
RTVSPropertyOp1
 70
     0
102
RTVSPropertyOp2
 70
     0
102
RTVSPropertyOp3
 70
     0
102
RTVSPropertyOp4
 70
     0
102
RTVSPropertyOp5
 70
     0
102
RTVSPropertyOp6
 70
     0
102
RTVSPropertyOp7
 70
     0
102
RTVSPropertyOp8
 70
     0
102
RTVSPropertyOp9
 70
     0
102
RTVSPropertyOp10
 70
     0
102
RTVSPropertyOp11
 70
     0
102
RTVSPropertyOp12
 70
     0
102
RTVSPropertyOp13
 70
     0
102
RTVSPropertyOp14
 70
     2
102
RTVSPropertyOp15
 70
     0
102
RTVSPropertyOp16
 70
     0
102
RTVSPropertyOp17
 70
     0
102
RTVSPropertyOp18
 70
     0
102
RTVSPropertyOp19
 70
     0
102
RTVSPropertyOp20
 70
     0
102
RTVSPropertyOp21
 70
     0
102
RTVSPropertyOp22
 70
     0
102
RTVSPropertyOp23
 70
     0
102
RTVSPropertyOp24
 70
     0
102
RTVSPropertyOp25
 70
     0
102
RTVSPropertyOp26
 70
     0
102
RTVSPropertyOp27
 70
     0
102
RTVSPropertyOp28
 70
     0
102
RTVSPropertyOp29
 70
     0
102
RTVSPropertyOp30
 70
     0
102
RTVSPropertyOp31
 70
     0
102
RTVSPropertyOp32
 70
     0
  0
XRECORD
  5
2C5
102
{ACAD_REACTORS
330
2C4
102
}
330
2C4
100
AcDbXrecord
280
     1
102
RTVSPropertyOp0
 70
     1
102
RTVSPropertyOp1
 70
     1
102
RTVSPropertyOp2
 70
     1
102
RTVSPropertyOp3
 70
     1
102
RTVSPropertyOp4
 70
     1
102
RTVSPropertyOp5
 70
     1
102
RTVSPropertyOp6
 70
     1
102
RTVSPropertyOp7
 70
     1
102
RTVSPropertyOp8
 70
     1
102
RTVSPropertyOp9
 70
     1
102
RTVSPropertyOp10
 70
     1
102
RTVSPropertyOp11
 70
     1
102
RTVSPropertyOp12
 70
     1
102
RTVSPropertyOp13
 70
     1
102
RTVSPropertyOp14
 70
     1
102
RTVSPropertyOp15
 70
     1
102
RTVSPropertyOp16
 70
     1
102
RTVSPropertyOp17
 70
     1
102
RTVSPropertyOp18
 70
     1
102
RTVSPropertyOp19
 70
     1
102
RTVSPropertyOp20
 70
     1
102
RTVSPropertyOp21
 70
     1
102
RTVSPropertyOp22
 70
     1
102
RTVSPropertyOp23
 70
     1
102
RTVSPropertyOp24
 70
     1
102
RTVSPropertyOp25
 70
     1
102
RTVSPropertyOp26
 70
     1
102
RTVSPropertyOp27
 70
     1
102
RTVSPropertyOp28
 70
     1
102
RTVSPropertyOp29
 70
     1
102
RTVSPropertyOp30
 70
     1
102
RTVSPropertyOp31
 70
     1
102
RTVSPropertyOp32
 70
     1
  0
XRECORD
  5
2DB
102
{ACAD_REACTORS
330
2DA
102
}
330
2DA
100
AcDbXrecord
280
     1
102
RTVSPropertyOp0
 70
     1
102
RTVSPropertyOp1
 70
     1
102
RTVSPropertyOp2
 70
     1
102
RTVSPropertyOp3
 70
     1
102
RTVSPropertyOp4
 70
     1
102
RTVSPropertyOp5
 70
     1
102
RTVSPropertyOp6
 70
     1
102
RTVSPropertyOp7
 70
     1
102
RTVSPropertyOp8
 70
     1
102
RTVSPropertyOp9
 70
     1
102
RTVSPropertyOp10
 70
     1
102
RTVSPropertyOp11
 70
     1
102
RTVSPropertyOp12
 70
     1
102
RTVSPropertyOp13
 70
     1
102
RTVSPropertyOp14
 70
     1
102
RTVSPropertyOp15
 70
     1
102
RTVSPropertyOp16
 70
     1
102
RTVSPropertyOp17
 70
     1
102
RTVSPropertyOp18
 70
     1
102
RTVSPropertyOp19
 70
     1
102
RTVSPropertyOp20
 70
     1
102
RTVSPropertyOp21
 70
     1
102
RTVSPropertyOp22
 70
     1
102
RTVSPropertyOp23
 70
     1
102
RTVSPropertyOp24
 70
     1
102
RTVSPropertyOp25
 70
     1
102
RTVSPropertyOp26
 70
     1
102
RTVSPropertyOp27
 70
     1
102
RTVSPropertyOp28
 70
     1
102
RTVSPropertyOp29
 70
     1
102
RTVSPropertyOp30
 70
     1
102
RTVSPropertyOp31
 70
     1
102
RTVSPropertyOp32
 70
     1
  0
XRECORD
  5
2D9
102
{ACAD_REACTORS
330
2D8
102
}
330
2D8
100
AcDbXrecord
280
     1
102
RTVSPropertyOp0
 70
     1
102
RTVSPropertyOp1
 70
     1
102
RTVSPropertyOp2
 70
     1
102
RTVSPropertyOp3
 70
     1
102
RTVSPropertyOp4
 70
     1
102
RTVSPropertyOp5
 70
     1
102
RTVSPropertyOp6
 70
     1
102
RTVSPropertyOp7
 70
     1
102
RTVSPropertyOp8
 70
     1
102
RTVSPropertyOp9
 70
     1
102
RTVSPropertyOp10
 70
     1
102
RTVSPropertyOp11
 70
     1
102
RTVSPropertyOp12
 70
     1
102
RTVSPropertyOp13
 70
     1
102
RTVSPropertyOp14
 70
     1
102
RTVSPropertyOp15
 70
     1
102
RTVSPropertyOp16
 70
     1
102
RTVSPropertyOp17
 70
     1
102
RTVSPropertyOp18
 70
     1
102
RTVSPropertyOp19
 70
     1
102
RTVSPropertyOp20
 70
     1
102
RTVSPropertyOp21
 70
     1
102
RTVSPropertyOp22
 70
     1
102
RTVSPropertyOp23
 70
     1
102
RTVSPropertyOp24
 70
     1
102
RTVSPropertyOp25
 70
     1
102
RTVSPropertyOp26
 70
     1
102
RTVSPropertyOp27
 70
     1
102
RTVSPropertyOp28
 70
     1
102
RTVSPropertyOp29
 70
     1
102
RTVSPropertyOp30
 70
     1
102
RTVSPropertyOp31
 70
     1
102
RTVSPropertyOp32
 70
     1
  0
XRECORD
  5
2D3
102
{ACAD_REACTORS
330
2D2
102
}
330
2D2
100
AcDbXrecord
280
     1
102
RTVSPropertyOp0
 70
     1
102
RTVSPropertyOp1
 70
     1
102
RTVSPropertyOp2
 70
     1
102
RTVSPropertyOp3
 70
     1
102
RTVSPropertyOp4
 70
     1
102
RTVSPropertyOp5
 70
     1
102
RTVSPropertyOp6
 70
     1
102
RTVSPropertyOp7
 70
     1
102
RTVSPropertyOp8
 70
     1
102
RTVSPropertyOp9
 70
     1
102
RTVSPropertyOp10
 70
     1
102
RTVSPropertyOp11
 70
     1
102
RTVSPropertyOp12
 70
     1
102
RTVSPropertyOp13
 70
     1
102
RTVSPropertyOp14
 70
     1
102
RTVSPropertyOp15
 70
     1
102
RTVSPropertyOp16
 70
     1
102
RTVSPropertyOp17
 70
     1
102
RTVSPropertyOp18
 70
     1
102
RTVSPropertyOp19
 70
     1
102
RTVSPropertyOp20
 70
     1
102
RTVSPropertyOp21
 70
     1
102
RTVSPropertyOp22
 70
     1
102
RTVSPropertyOp23
 70
     1
102
RTVSPropertyOp24
 70
     1
102
RTVSPropertyOp25
 70
     1
102
RTVSPropertyOp26
 70
     1
102
RTVSPropertyOp27
 70
     1
102
RTVSPropertyOp28
 70
     1
102
RTVSPropertyOp29
 70
     1
102
RTVSPropertyOp30
 70
     1
102
RTVSPropertyOp31
 70
     1
102
RTVSPropertyOp32
 70
     1
  0
XRECORD
  5
2D5
102
{ACAD_REACTORS
330
2D4
102
}
330
2D4
100
AcDbXrecord
280
     1
102
RTVSPropertyOp0
 70
     1
102
RTVSPropertyOp1
 70
     1
102
RTVSPropertyOp2
 70
     1
102
RTVSPropertyOp3
 70
     1
102
RTVSPropertyOp4
 70
     1
102
RTVSPropertyOp5
 70
     1
102
RTVSPropertyOp6
 70
     1
102
RTVSPropertyOp7
 70
     1
102
RTVSPropertyOp8
 70
     1
102
RTVSPropertyOp9
 70
     1
102
RTVSPropertyOp10
 70
     1
102
RTVSPropertyOp11
 70
     1
102
RTVSPropertyOp12
 70
     1
102
RTVSPropertyOp13
 70
     1
102
RTVSPropertyOp14
 70
     1
102
RTVSPropertyOp15
 70
     1
102
RTVSPropertyOp16
 70
     1
102
RTVSPropertyOp17
 70
     1
102
RTVSPropertyOp18
 70
     1
102
RTVSPropertyOp19
 70
     1
102
RTVSPropertyOp20
 70
     1
102
RTVSPropertyOp21
 70
     1
102
RTVSPropertyOp22
 70
     1
102
RTVSPropertyOp23
 70
     1
102
RTVSPropertyOp24
 70
     1
102
RTVSPropertyOp25
 70
     1
102
RTVSPropertyOp26
 70
     1
102
RTVSPropertyOp27
 70
     1
102
RTVSPropertyOp28
 70
     1
102
RTVSPropertyOp29
 70
     1
102
RTVSPropertyOp30
 70
     1
102
RTVSPropertyOp31
 70
     1
102
RTVSPropertyOp32
 70
     1
  0
XRECORD
  5
2CB
102
{ACAD_REACTORS
330
2CA
102
}
330
2CA
100
AcDbXrecord
280
     1
102
RTVSPropertyOp0
 70
     1
102
RTVSPropertyOp1
 70
     1
102
RTVSPropertyOp2
 70
     1
102
RTVSPropertyOp3
 70
     1
102
RTVSPropertyOp4
 70
     1
102
RTVSPropertyOp5
 70
     1
102
RTVSPropertyOp6
 70
     1
102
RTVSPropertyOp7
 70
     1
102
RTVSPropertyOp8
 70
     1
102
RTVSPropertyOp9
 70
     1
102
RTVSPropertyOp10
 70
     1
102
RTVSPropertyOp11
 70
     1
102
RTVSPropertyOp12
 70
     1
102
RTVSPropertyOp13
 70
     1
102
RTVSPropertyOp14
 70
     1
102
RTVSPropertyOp15
 70
     1
102
RTVSPropertyOp16
 70
     1
102
RTVSPropertyOp17
 70
     1
102
RTVSPropertyOp18
 70
     1
102
RTVSPropertyOp19
 70
     1
102
RTVSPropertyOp20
 70
     1
102
RTVSPropertyOp21
 70
     1
102
RTVSPropertyOp22
 70
     1
102
RTVSPropertyOp23
 70
     1
102
RTVSPropertyOp24
 70
     1
102
RTVSPropertyOp25
 70
     1
102
RTVSPropertyOp26
 70
     1
102
RTVSPropertyOp27
 70
     1
102
RTVSPropertyOp28
 70
     1
102
RTVSPropertyOp29
 70
     1
102
RTVSPropertyOp30
 70
     1
102
RTVSPropertyOp31
 70
     1
102
RTVSPropertyOp32
 70
     1
  0
XRECORD
  5
2BF
102
{ACAD_REACTORS
330
2BE
102
}
330
2BE
100
AcDbXrecord
280
     1
102
RTVSPropertyOp0
 70
     1
102
RTVSPropertyOp1
 70
     1
102
RTVSPropertyOp2
 70
     1
102
RTVSPropertyOp3
 70
     1
102
RTVSPropertyOp4
 70
     1
102
RTVSPropertyOp5
 70
     1
102
RTVSPropertyOp6
 70
     1
102
RTVSPropertyOp7
 70
     1
102
RTVSPropertyOp8
 70
     1
102
RTVSPropertyOp9
 70
     1
102
RTVSPropertyOp10
 70
     1
102
RTVSPropertyOp11
 70
     1
102
RTVSPropertyOp12
 70
     1
102
RTVSPropertyOp13
 70
     1
102
RTVSPropertyOp14
 70
     1
102
RTVSPropertyOp15
 70
     1
102
RTVSPropertyOp16
 70
     1
102
RTVSPropertyOp17
 70
     1
102
RTVSPropertyOp18
 70
     1
102
RTVSPropertyOp19
 70
     1
102
RTVSPropertyOp20
 70
     1
102
RTVSPropertyOp21
 70
     1
102
RTVSPropertyOp22
 70
     1
102
RTVSPropertyOp23
 70
     1
102
RTVSPropertyOp24
 70
     1
102
RTVSPropertyOp25
 70
     1
102
RTVSPropertyOp26
 70
     1
102
RTVSPropertyOp27
 70
     1
102
RTVSPropertyOp28
 70
     1
102
RTVSPropertyOp29
 70
     1
102
RTVSPropertyOp30
 70
     1
102
RTVSPropertyOp31
 70
     1
102
RTVSPropertyOp32
 70
     1
  0
XRECORD
  5
2D7
102
{ACAD_REACTORS
330
2D6
102
}
330
2D6
100
AcDbXrecord
280
     1
102
RTVSPropertyOp0
 70
     1
102
RTVSPropertyOp1
 70
     1
102
RTVSPropertyOp2
 70
     1
102
RTVSPropertyOp3
 70
     1
102
RTVSPropertyOp4
 70
     1
102
RTVSPropertyOp5
 70
     1
102
RTVSPropertyOp6
 70
     1
102
RTVSPropertyOp7
 70
     1
102
RTVSPropertyOp8
 70
     1
102
RTVSPropertyOp9
 70
     1
102
RTVSPropertyOp10
 70
     1
102
RTVSPropertyOp11
 70
     1
102
RTVSPropertyOp12
 70
     1
102
RTVSPropertyOp13
 70
     1
102
RTVSPropertyOp14
 70
     1
102
RTVSPropertyOp15
 70
     1
102
RTVSPropertyOp16
 70
     1
102
RTVSPropertyOp17
 70
     1
102
RTVSPropertyOp18
 70
     1
102
RTVSPropertyOp19
 70
     1
102
RTVSPropertyOp20
 70
     1
102
RTVSPropertyOp21
 70
     1
102
RTVSPropertyOp22
 70
     1
102
RTVSPropertyOp23
 70
     1
102
RTVSPropertyOp24
 70
     1
102
RTVSPropertyOp25
 70
     1
102
RTVSPropertyOp26
 70
     1
102
RTVSPropertyOp27
 70
     1
102
RTVSPropertyOp28
 70
     1
102
RTVSPropertyOp29
 70
     1
102
RTVSPropertyOp30
 70
     1
102
RTVSPropertyOp31
 70
     1
102
RTVSPropertyOp32
 70
     1
  0
ENDSEC
  0
EOF
