  0
SECTION
  2
HEADER
  9
$ACADVER
  1
AC1015
  9
$ACADMAINTVER
 70
    18
  9
$DWGCODEPAGE
  3
ANSI_1252
  9
$INSBASE
 10
0.0
 20
0.0
 30
0.0
  9
$EXTMIN
 10
0.0
 20
0.0
 30
0.0
  9
$EXTMAX
 10
420.0
 20
297.0
 30
0.0
  9
$LIMMIN
 10
0.0
 20
0.0
  9
$LIMMAX
 10
420.0
 20
297.0
  9
$ORTHOMODE
 70
     0
  9
$REGENMODE
 70
     1
  9
$FILLMODE
 70
     1
  9
$QTEXTMODE
 70
     0
  9
$MIRRTEXT
 70
     0
  9
$LTSCALE
 40
1.0
  9
$ATTMODE
 70
     1
  9
$TEXTSIZE
 40
0.2
  9
$TRACEWID
 40
0.05
  9
$TEXTSTYLE
  7
Standard
  9
$CLAYER
  8
0
  9
$CELTYPE
  6
ByLayer
  9
$CECOLOR
 62
   256
  9
$CELTSCALE
 40
1.0
  9
$DISPSILH
 70
     0
  9
$DIMSCALE
 40
1.0
  9
$DIMASZ
 40
1.799999999999999
  9
$DIMEXO
 40
0.0625
  9
$DIMDLI
 40
0.38
  9
$DIMRND
 40
0.0
  9
$DIMDLE
 40
0.0
  9
$DIMEXE
 40
0.18
  9
$DIMTP
 40
0.0
  9
$DIMTM
 40
0.0
  9
$DIMTXT
 40
0.25
  9
$DIMCEN
 40
0.09
  9
$DIMTSZ
 40
0.0
  9
$DIMTOL
 70
     0
  9
$DIMLIM
 70
     0
  9
$DIMTIH
 70
     1
  9
$DIMTOH
 70
     1
  9
$DIMSE1
 70
     0
  9
$DIMSE2
 70
     0
  9
$DIMTAD
 70
     0
  9
$DIMZIN
 70
     0
  9
$DIMBLK
  1

  9
$DIMASO
 70
     1
  9
$DIMSHO
 70
     1
  9
$DIMPOST
  1

  9
$DIMAPOST
  1

  9
$DIMALT
 70
     0
  9
$DIMALTD
 70
     2
  9
$DIMALTF
 40
25.4
  9
$DIMLFAC
 40
1.0
  9
$DIMTOFL
 70
     0
  9
$DIMTVP
 40
0.0
  9
$DIMTIX
 70
     0
  9
$DIMSOXD
 70
     0
  9
$DIMSAH
 70
     0
  9
$DIMBLK1
  1

  9
$DIMBLK2
  1

  9
$DIMSTYLE
  2
Standard
  9
$DIMCLRD
 70
     0
  9
$DIMCLRE
 70
     0
  9
$DIMCLRT
 70
     0
  9
$DIMTFAC
 40
1.0
  9
$DIMGAP
 40
0.09
  9
$DIMJUST
 70
     0
  9
$DIMSD1
 70
     0
  9
$DIMSD2
 70
     0
  9
$DIMTOLJ
 70
     1
  9
$DIMTZIN
 70
     0
  9
$DIMALTZ
 70
     0
  9
$DIMALTTZ
 70
     0
  9
$DIMUPT
 70
     0
  9
$DIMDEC
 70
     4
  9
$DIMTDEC
 70
     4
  9
$DIMALTU
 70
     2
  9
$DIMALTTD
 70
     2
  9
$DIMTXSTY
  7
Standard
  9
$DIMAUNIT
 70
     0
  9
$DIMADEC
 70
     0
  9
$DIMALTRND
 40
0.0
  9
$DIMAZIN
 70
     0
  9
$DIMDSEP
 70
    46
  9
$DIMATFIT
 70
     3
  9
$DIMFRAC
 70
     0
  9
$DIMLDRBLK
  1

  9
$DIMLUNIT
 70
     2
  9
$DIMLWD
 70
    -2
  9
$DIMLWE
 70
    -2
  9
$DIMTMOVE
 70
     0
  9
$LUNITS
 70
     2
  9
$LUPREC
 70
     4
  9
$SKETCHINC
 40
0.1
  9
$FILLETRAD
 40
0.0
  9
$AUNITS
 70
     0
  9
$AUPREC
 70
     0
  9
$MENU
  1
.
  9
$ELEVATION
 40
0.0
  9
$PELEVATION
 40
0.0
  9
$THICKNESS
 40
0.0
  9
$LIMCHECK
 70
     0
  9
$CHAMFERA
 40
0.0
  9
$CHAMFERB
 40
0.0
  9
$CHAMFERC
 40
0.0
  9
$CHAMFERD
 40
0.0
  9
$SKPOLY
 70
     0
  9
$TDCREATE
 40
2455798.504866204
  9
$TDUCREATE
 40
2455798.421532870
  9
$TDUPDATE
 40
2455798.504866204
  9
$TDUUPDATE
 40
2455798.421532870
  9
$TDINDWG
 40
0.0000149884
  9
$TDUSRTIMER
 40
0.0000149884
  9
$USRTIMER
 70
     1
  9
$ANGBASE
 50
0.0
  9
$ANGDIR
 70
     0
  9
$PDMODE
 70
     0
  9
$PDSIZE
 40
0.0
  9
$PLINEWID
 40
0.0
  9
$SPLFRAME
 70
     0
  9
$SPLINETYPE
 70
     6
  9
$SPLINESEGS
 70
     8
  9
$HANDSEED
  5
2A9
  9
$SURFTAB1
 70
     6
  9
$SURFTAB2
 70
     6
  9
$SURFTYPE
 70
     6
  9
$SURFU
 70
     6
  9
$SURFV
 70
     6
  9
$UCSBASE
  2

  9
$UCSNAME
  2

  9
$UCSORG
 10
0.0
 20
0.0
 30
0.0
  9
$UCSXDIR
 10
1.0
 20
0.0
 30
0.0
  9
$UCSYDIR
 10
0.0
 20
1.0
 30
0.0
  9
$UCSORTHOREF
  2

  9
$UCSORTHOVIEW
 70
     0
  9
$UCSORGTOP
 10
0.0
 20
0.0
 30
0.0
  9
$UCSORGBOTTOM
 10
0.0
 20
0.0
 30
0.0
  9
$UCSORGLEFT
 10
0.0
 20
0.0
 30
0.0
  9
$UCSORGRIGHT
 10
0.0
 20
0.0
 30
0.0
  9
$UCSORGFRONT
 10
0.0
 20
0.0
 30
0.0
  9
$UCSORGBACK
 10
0.0
 20
0.0
 30
0.0
  9
$PUCSBASE
  2

  9
$PUCSNAME
  2

  9
$PUCSORG
 10
0.0
 20
0.0
 30
0.0
  9
$PUCSXDIR
 10
1.0
 20
0.0
 30
0.0
  9
$PUCSYDIR
 10
0.0
 20
1.0
 30
0.0
  9
$PUCSORTHOREF
  2

  9
$PUCSORTHOVIEW
 70
     0
  9
$PUCSORGTOP
 10
0.0
 20
0.0
 30
0.0
  9
$PUCSORGBOTTOM
 10
0.0
 20
0.0
 30
0.0
  9
$PUCSORGLEFT
 10
0.0
 20
0.0
 30
0.0
  9
$PUCSORGRIGHT
 10
0.0
 20
0.0
 30
0.0
  9
$PUCSORGFRONT
 10
0.0
 20
0.0
 30
0.0
  9
$PUCSORGBACK
 10
0.0
 20
0.0
 30
0.0
  9
$USERI1
 70
     0
  9
$USERI2
 70
     0
  9
$USERI3
 70
     0
  9
$USERI4
 70
     0
  9
$USERI5
 70
     0
  9
$USERR1
 40
0.0
  9
$USERR2
 40
0.0
  9
$USERR3
 40
0.0
  9
$USERR4
 40
0.0
  9
$USERR5
 40
0.0
  9
$WORLDVIEW
 70
     1
  9
$SHADEDGE
 70
     3
  9
$SHADEDIF
 70
    70
  9
$TILEMODE
 70
     1
  9
$MAXACTVP
 70
    64
  9
$PINSBASE
 10
0.0
 20
0.0
 30
0.0
  9
$PLIMCHECK
 70
     0
  9
$PEXTMIN
 10
0.0
 20
0.0
 30
0.0
  9
$PEXTMAX
 10
420.0
 20
297.0
 30
0.0
  9
$PLIMMIN
 10
0.0
 20
0.0
  9
$PLIMMAX
 10
420.0
 20
297.0
  9
$UNITMODE
 70
     0
  9
$VISRETAIN
 70
     1
  9
$PLINEGEN
 70
     0
  9
$PSLTSCALE
 70
     1
  9
$TREEDEPTH
 70
  3020
  9
$CMLSTYLE
  2
Standard
  9
$CMLJUST
 70
     0
  9
$CMLSCALE
 40
1.0
  9
$PROXYGRAPHICS
 70
     1
  9
$MEASUREMENT
 70
     1
  9
$CELWEIGHT
370
    -1
  9
$ENDCAPS
280
     0
  9
$JOINSTYLE
280
     0
  9
$LWDISPLAY
290
     0
  9
$INSUNITS
 70
     4
  9
$HYPERLINKBASE
  1

  9
$STYLESHEET
  1

  9
$XEDIT
290
     1
  9
$CEPSNTYPE
380
     0
  9
$PSTYLEMODE
290
     1
  9
$FINGERPRINTGUID
  2
{6E4FB277-00D5-46CB-8F98-5CC9A450A6FA}
  9
$VERSIONGUID
  2
{180FE99A-E5FD-4FD3-977F-59E406F15D2B}
  9
$EXTNAMES
290
     1
  9
$PSVPSCALE
 40
0.0
  9
$OLESTARTUP
290
     0
  0
ENDSEC
  0
SECTION
  2
CLASSES
  0
CLASS
  1
ACDBDICTIONARYWDFLT
  2
AcDbDictionaryWithDefault
  3
ObjectDBX Classes
 90
        0
280
     0
281
     0
  0
CLASS
  1
MATERIAL
  2
AcDbMaterial
  3
ObjectDBX Classes
 90
     1153
280
     0
281
     0
  0
CLASS
  1
VISUALSTYLE
  2
AcDbVisualStyle
  3
ObjectDBX Classes
 90
     4095
280
     0
281
     0
  0
CLASS
  1
SCALE
  2
AcDbScale
  3
ObjectDBX Classes
 90
     1153
280
     0
281
     0
  0
CLASS
  1
TABLESTYLE
  2
AcDbTableStyle
  3
ObjectDBX Classes
 90
     4095
280
     0
281
     0
  0
CLASS
  1
MLEADERSTYLE
  2
AcDbMLeaderStyle
  3
ACDB_MLEADERSTYLE_CLASS
 90
     4095
280
     0
281
     0
  0
CLASS
  1
DICTIONARYVAR
  2
AcDbDictionaryVar
  3
ObjectDBX Classes
 90
        0
280
     0
281
     0
  0
CLASS
  1
CELLSTYLEMAP
  2
AcDbCellStyleMap
  3
ObjectDBX Classes
 90
     1152
280
     0
281
     0
  0
CLASS
  1
ACDBPLACEHOLDER
  2
AcDbPlaceHolder
  3
ObjectDBX Classes
 90
        0
280
     0
281
     0
  0
CLASS
  1
LAYOUT
  2
AcDbLayout
  3
ObjectDBX Classes
 90
        0
280
     0
281
     0
  0
ENDSEC
  0
SECTION
  2
TABLES
  0
TABLE
  2
VPORT
  5
8
330
0
100
AcDbSymbolTable
 70
     1
  0
VPORT
  5
57
330
8
100
AcDbSymbolTableRecord
100
AcDbViewportTableRecord
  2
*Active
 70
     0
 10
0.0
 20
0.0
 11
1.0
 21
1.0
 12
210.0
 22
148.5
 13
0.0
 23
0.0
 14
1.0
 24
1.0
 15
0.0
 25
0.0
 16
0.0
 26
0.0
 36
1.0
 17
0.0
 27
0.0
 37
0.0
 40
297.0
 41
1.414141414141414
 42
50.0
 43
0.0
 44
0.0
 50
0.0
 51
0.0
 71
     0
 72
   100
 73
     1
 74
     1
 75
     0
 76
     0
 77
     0
 78
     0
281
     0
 65
     1
110
0.0
120
0.0
130
0.0
111
1.0
121
0.0
131
0.0
112
0.0
122
1.0
132
0.0
 79
     0
146
0.0
  0
ENDTAB
  0
TABLE
  2
LTYPE
  5
5
330
0
100
AcDbSymbolTable
 70
     1
  0
LTYPE
  5
5B
330
5
100
AcDbSymbolTableRecord
100
AcDbLinetypeTableRecord
  2
ByBlock
 70
     0
  3

 72
    65
 73
     0
 40
0.0
  0
LTYPE
  5
5C
330
5
100
AcDbSymbolTableRecord
100
AcDbLinetypeTableRecord
  2
ByLayer
 70
     0
  3

 72
    65
 73
     0
 40
0.0
  0
LTYPE
  5
5D
330
5
100
AcDbSymbolTableRecord
100
AcDbLinetypeTableRecord
  2
Continuous
 70
     0
  3
Solid line
 72
    65
 73
     0
 40
0.0
  0
ENDTAB
  0
TABLE
  2
LAYER
  5
2
330
0
100
AcDbSymbolTable
 70
    33
  0
LAYER
  5
54
330
2
100
AcDbSymbolTableRecord
100
AcDbLayerTableRecord
  2
0
 70
     0
 62
     7
  6
Continuous
370
    -3
390
F
  0
LAYER
  5
88
330
2
100
AcDbSymbolTableRecord
100
AcDbLayerTableRecord
  2
Sichtbare Kanten(DIN)
 70
     0
 62
     7
  6
Continuous
370
    50
390
F
  0
ENDTAB
  0
TABLE
  2
STYLE
  5
3
330
0
100
AcDbSymbolTable
 70
     9
  0
STYLE
  5
55
330
3
100
AcDbSymbolTableRecord
100
AcDbTextStyleTableRecord
  2
Standard
 70
     0
 40
0.0
 41
1.0
 50
0.0
 71
     0
 42
0.2
  3
arial.ttf
  4

1001
ACAD
1000
Arial
1071
      256
  0
STYLE
  5
5A
330
3
100
AcDbSymbolTableRecord
100
AcDbTextStyleTableRecord
  2
Annotative
 70
     0
 40
0.0
 41
1.0
 50
0.0
 71
     0
 42
0.2
  3
txt
  4

1001
AcadAnnotative
1000
AnnotativeData
1002
{
1070
     1
1070
     1
1002
}
  0
STYLE
  5
94
330
3
100
AcDbSymbolTableRecord
100
AcDbTextStyleTableRecord
  2
Aktuell-BSI
 70
     0
 40
0.0
 41
1.0
 50
0.0
 71
     0
 42
0.2
  3
arial.ttf
  4

1001
ACAD
1000
Arial
1071
      256
  0
STYLE
  5
95
330
3
100
AcDbSymbolTableRecord
100
AcDbTextStyleTableRecord
  2
Aktuell-DIN
 70
     0
 40
0.0
 41
0.899999976158142
 50
0.0
 71
     0
 42
0.2
  3
arial.ttf
  4

1001
ACAD
1000
Arial
1071
      256
  0
STYLE
  5
96
330
3
100
AcDbSymbolTableRecord
100
AcDbTextStyleTableRecord
  2
STANDARD-DIN
 70
     0
 40
0.0
 41
1.0
 50
0.0
 71
     0
 42
0.2
  3
arial.ttf
  4

1001
ACAD
1000
Arial
1071
      256
  0
STYLE
  5
97
330
3
100
AcDbSymbolTableRecord
100
AcDbTextStyleTableRecord
  2
STANDARD-DINNach Layer
 70
     0
 40
0.0
 41
1.0
 50
0.0
 71
     0
 42
0.2
  3
arial.ttf
  4

1001
ACAD
1000
Arial
1071
      256
  0
STYLE
  5
98
330
3
100
AcDbSymbolTableRecord
100
AcDbTextStyleTableRecord
  2
STANDARDGroßer Text
 70
     0
 40
0.0
 41
1.0
 50
0.0
 71
     0
 42
0.2
  3
arial.ttf
  4

1001
ACAD
1000
Arial
1071
      256
  0
STYLE
  5
99
330
3
100
AcDbSymbolTableRecord
100
AcDbTextStyleTableRecord
  2
STANDARDNach Layer
 70
     0
 40
0.0
 41
1.0
 50
0.0
 71
     0
 42
0.2
  3
arial.ttf
  4

1001
ACAD
1000
Arial
1071
      256
  0
STYLE
  5
9A
330
3
100
AcDbSymbolTableRecord
100
AcDbTextStyleTableRecord
  2
StüLiDaten
 70
     0
 40
0.0
 41
1.0
 50
0.0
 71
     0
 42
0.2
  3
arial.ttf
  4

1001
ACAD
1000
Arial
1071
      256
  0
ENDTAB
  0
TABLE
  2
VIEW
  5
6
330
0
100
AcDbSymbolTable
 70
     0
  0
ENDTAB
  0
TABLE
  2
UCS
  5
7
330
0
100
AcDbSymbolTable
 70
     0
  0
ENDTAB
  0
TABLE
  2
APPID
  5
9
330
0
100
AcDbSymbolTable
 70
     3
  0
APPID
  5
56
330
9
100
AcDbSymbolTableRecord
100
AcDbRegAppTableRecord
  2
ACAD
 70
     0
  0
APPID
  5
5E
330
9
100
AcDbSymbolTableRecord
100
AcDbRegAppTableRecord
  2
AcadAnnotative
 70
     0
  0
APPID
  5
2A2
330
9
100
AcDbSymbolTableRecord
100
AcDbRegAppTableRecord
  2
ACAD_MLEADERVER
 70
     0
  0
ENDTAB
  0
TABLE
  2
DIMSTYLE
  5
A
330
0
100
AcDbSymbolTable
 70
    10
100
AcDbDimStyleTable
 71
     0
  0
DIMSTYLE
105
58
330
A
100
AcDbSymbolTableRecord
100
AcDbDimStyleTableRecord
  2
Standard
 70
     0
340
55
  0
DIMSTYLE
105
59
330
A
100
AcDbSymbolTableRecord
100
AcDbDimStyleTableRecord
  2
Annotative
 70
     0
340
55
1001
AcadAnnotative
1000
AnnotativeData
1002
{
1070
     1
1070
     1
1002
}
  0
DIMSTYLE
105
9B
330
A
100
AcDbSymbolTableRecord
100
AcDbDimStyleTableRecord
  2
DIN - Andere
 70
     0
 41
2.5
 42
0.0
 43
5.999999999999999
 44
3.174999999999999
 45
0.00000001
 46
10.0
 73
     0
 74
     0
 77
     1
 78
     8
 79
     2
140
3.5
143
0.03937
147
0.8
171
     3
172
     1
176
     7
177
     7
178
     7
271
     2
272
     2
274
     3
278
    44
284
     8
286
     8
340
94
371
    25
372
    25
  0
DIMSTYLE
105
9C
330
A
100
AcDbSymbolTableRecord
100
AcDbDimStyleTableRecord
  2
DIN - Andere$7
 70
     0
 41
2.5
 42
0.0
 43
5.999999999999999
 44
3.174999999999999
 45
0.00000001
 46
10.0
 73
     0
 74
     0
 77
     1
 78
     8
 79
     2
140
3.5
143
0.03937
147
0.8
171
     3
172
     1
176
     7
177
     7
178
     7
271
     2
272
     2
274
     3
278
    44
284
     8
286
     8
340
94
371
    25
372
    25
  0
DIMSTYLE
105
9D
330
A
100
AcDbSymbolTableRecord
100
AcDbDimStyleTableRecord
  2
DIN - AndereGroßer Text
 70
     0
 41
5.0
 42
0.0
 43
5.999999999999999
 44
3.174999999999999
 45
0.00000001
 46
10.0
 73
     0
 74
     0
 77
     1
 78
     8
 79
     2
140
3.75
143
0.03937
146
0.9333333373069763
147
0.8
171
     3
172
     1
176
     7
177
     7
178
     7
271
     2
272
     2
274
     3
278
    44
284
     8
286
     8
340
98
371
    25
372
    25
  0
DIMSTYLE
105
9E
330
A
100
AcDbSymbolTableRecord
100
AcDbDimStyleTableRecord
  2
DIN - AndereGroßer Text$7
 70
     0
 41
5.0
 42
0.0
 43
5.999999999999999
 44
3.174999999999999
 45
0.00000001
 46
10.0
 73
     0
 74
     0
 77
     1
 78
     8
 79
     2
140
3.75
143
0.03937
146
0.9333333373069763
147
0.8
171
     3
172
     1
176
     7
177
     7
178
     7
271
     2
272
     2
274
     3
278
    44
284
     8
286
     8
340
98
371
    25
372
    25
  0
DIMSTYLE
105
9F
330
A
100
AcDbSymbolTableRecord
100
AcDbDimStyleTableRecord
  2
Führungslinie-Ursprungsindikator(DIN)
 70
     0
 41
2.5
340
55
342
A0
  0
DIMSTYLE
105
B1
330
A
100
AcDbSymbolTableRecord
100
AcDbDimStyleTableRecord
  2
Führungslinie - Bezugsstelle(DIN)
 70
     0
 41
2.5
340
55
342
A0
  0
DIMSTYLE
105
B2
330
A
100
AcDbSymbolTableRecord
100
AcDbDimStyleTableRecord
  2
Führungslinie - Punkt(DIN)
 70
     0
 41
2.5
340
55
342
A0
  0
DIMSTYLE
105
B3
330
A
100
AcDbSymbolTableRecord
100
AcDbDimStyleTableRecord
  2
Führungslinie(DIN)
 70
     0
 41
2.5
340
55
342
A0
  0
ENDTAB
  0
TABLE
  2
BLOCK_RECORD
  5
1
330
0
100
AcDbSymbolTable
 70
     3
  0
BLOCK_RECORD
  5
6C
330
1
100
AcDbSymbolTableRecord
100
AcDbBlockTableRecord
  2
*Model_Space
340
6F
  0
BLOCK_RECORD
  5
68
330
1
100
AcDbSymbolTableRecord
100
AcDbBlockTableRecord
  2
*Paper_Space
340
6B
  0
BLOCK_RECORD
  5
70
330
1
100
AcDbSymbolTableRecord
100
AcDbBlockTableRecord
  2
*Paper_Space0
340
73
  0
BLOCK_RECORD
  5
A0
330
1
100
AcDbSymbolTableRecord
100
AcDbBlockTableRecord
  2
_Closed
340
0
  0
BLOCK_RECORD
  5
A7
330
1
100
AcDbSymbolTableRecord
100
AcDbBlockTableRecord
  2
DatumFilled45
340
0
  0
ENDTAB
  0
ENDSEC
  0
SECTION
  2
BLOCKS
  0
BLOCK
  5
6D
330
6C
100
AcDbEntity
  8
0
100
AcDbBlockBegin
  2
*Model_Space
 70
     0
 10
0.0
 20
0.0
 30
0.0
  3
*Model_Space
  1

  0
ENDBLK
  5
6E
330
6C
100
AcDbEntity
  8
0
100
AcDbBlockEnd
  0
BLOCK
  5
69
330
68
100
AcDbEntity
 67
     1
  8
0
100
AcDbBlockBegin
  2
*Paper_Space
 70
     0
 10
0.0
 20
0.0
 30
0.0
  3
*Paper_Space
  1

  0
ENDBLK
  5
6A
330
68
100
AcDbEntity
 67
     1
  8
0
100
AcDbBlockEnd
  0
BLOCK
  5
71
330
70
100
AcDbEntity
 67
     1
  8
0
100
AcDbBlockBegin
  2
*Paper_Space0
 70
     0
 10
0.0
 20
0.0
 30
0.0
  3
*Paper_Space0
  1

  0
ENDBLK
  5
72
330
70
100
AcDbEntity
 67
     1
  8
0
100
AcDbBlockEnd
  0
BLOCK
  5
A5
330
A0
100
AcDbEntity
  8
0
100
AcDbBlockBegin
  2
_Closed
 70
     0
 10
0.0
 20
0.0
 30
0.0
  3
_Closed
  1

  0
LINE
  5
A1
330
A0
100
AcDbEntity
  8
0
  6
ByBlock
 62
     0
370
    -2
100
AcDbLine
 10
-1.0
 20
0.1666666666666666
 30
0.0
 11
0.0
 21
0.0
 31
0.0
  0
LINE
  5
A2
330
A0
100
AcDbEntity
  8
0
  6
ByBlock
 62
     0
370
    -2
100
AcDbLine
 10
0.0
 20
0.0
 30
0.0
 11
-1.0
 21
-0.1666666666666666
 31
0.0
  0
LINE
  5
A3
330
A0
100
AcDbEntity
  8
0
  6
ByBlock
 62
     0
370
    -2
100
AcDbLine
 10
-1.0
 20
0.1666666666666666
 30
0.0
 11
-1.0
 21
-0.1666666666666666
 31
0.0
  0
LINE
  5
A4
330
A0
100
AcDbEntity
  8
0
  6
ByBlock
 62
     0
370
    -2
100
AcDbLine
 10
0.0
 20
0.0
 30
0.0
 11
-1.0
 21
0.0
 31
0.0
  0
ENDBLK
  5
A6
330
A0
100
AcDbEntity
  8
0
100
AcDbBlockEnd
  0
BLOCK
  5
A8
330
A7
100
AcDbEntity
  8
0
100
AcDbBlockBegin
  2
DatumFilled45
 70
     0
 10
0.0
 20
0.0
 30
0.0
  3
DatumFilled45
  1

  0
POLYLINE
  5
AA
330
A7
100
AcDbEntity
  8
0
 62
     0
100
AcDb2dPolyline
 66
     1
 10
0.0
 20
0.0
 30
0.0
 70
   128
  0
VERTEX
  5
AB
330
AA
100
AcDbEntity
  8
0
 62
     0
100
AcDbVertex
100
AcDb2dVertex
 10
0.0
 20
1.0
 30
0.0
  0
VERTEX
  5
AC
330
AA
100
AcDbEntity
  8
0
 62
     0
100
AcDbVertex
100
AcDb2dVertex
 10
0.0
 20
-1.0
 30
0.0
  0
VERTEX
  5
AE
330
AA
100
AcDbEntity
  8
0
 62
     0
100
AcDbVertex
100
AcDb2dVertex
 10
-1.0
 20
0.0
 30
0.0
  0
VERTEX
  5
AF
330
AA
100
AcDbEntity
  8
0
 62
     0
100
AcDbVertex
100
AcDb2dVertex
 10
0.0
 20
1.0
 30
0.0
  0
SEQEND
  5
AD
330
AA
100
AcDbEntity
  8
0
 62
     0
  0
SOLID
  5
B0
330
A7
100
AcDbEntity
  8
0
 62
     0
100
AcDbTrace
 10
0.0
 20
1.0
 30
0.0
 11
0.0
 21
-1.0
 31
0.0
 12
-1.0
 22
0.0
 32
0.0
 13
0.0
 23
1.0
 33
0.0
  0
ENDBLK
  5
A9
330
A7
100
AcDbEntity
  8
0
100
AcDbBlockEnd
  0
ENDSEC
  0
SECTION
  2
ENTITIES
  0
ARC
  5
B4
330
6C
100
AcDbEntity
  8
Sichtbare Kanten(DIN)
100
AcDbCircle
 10
106.9314304777582
 20
280.6468447735336
 30
0.0
 40
2.0
100
AcDbArc
 50
180.0
 51
0.0
  0
LINE
  5
B5
330
6C
100
AcDbEntity
  8
Sichtbare Kanten(DIN)
100
AcDbLine
 10
79.43143047775823
 20
280.6468447735336
 30
0.0
 11
81.93143047775837
 21
280.6468447735336
 31
0.0
  0
LINE
  5
B6
330
6C
100
AcDbEntity
  8
Sichtbare Kanten(DIN)
100
AcDbLine
 10
100.1814304777583
 20
280.6468447735336
 30
0.0
 11
104.9314304777582
 21
280.6468447735336
 31
0.0
  0
LINE
  5
B7
330
6C
100
AcDbEntity
  8
Sichtbare Kanten(DIN)
100
AcDbLine
 10
79.43143047775823
 20
266.6468447735336
 30
0.0
 11
79.43143047775823
 21
280.6468447735336
 31
0.0
  0
LINE
  5
B8
330
6C
100
AcDbEntity
  8
Sichtbare Kanten(DIN)
100
AcDbLine
 10
79.43143047775823
 20
220.6468447735336
 30
0.0
 11
79.43143047775823
 21
230.7468447735336
 31
0.0
  0
LINE
  5
B9
330
6C
100
AcDbEntity
  8
Sichtbare Kanten(DIN)
100
AcDbLine
 10
79.43143047775823
 20
159.6468447735336
 30
0.0
 11
79.43143047775823
 21
169.7468447735336
 31
0.0
  0
LINE
  5
BA
330
6C
100
AcDbEntity
  8
Sichtbare Kanten(DIN)
100
AcDbLine
 10
79.43143047775823
 20
100.6468447735336
 30
0.0
 11
79.43143047775823
 21
110.7468447735336
 31
0.0
  0
LINE
  5
BB
330
6C
100
AcDbEntity
  8
Sichtbare Kanten(DIN)
100
AcDbLine
 10
79.43143047775823
 20
40.64684477353359
 30
0.0
 11
79.43143047775823
 21
50.74684477353359
 31
0.0
  0
LINE
  5
BC
330
6C
100
AcDbEntity
  8
Sichtbare Kanten(DIN)
100
AcDbLine
 10
79.43143047775823
 20
5.646844773533583
 30
0.0
 11
79.43143047775823
 21
15.7468447735336
 31
0.0
  0
LINE
  5
BD
330
6C
100
AcDbEntity
  8
Sichtbare Kanten(DIN)
100
AcDbLine
 10
113.6814304777583
 20
-9.353155226466416
 30
0.0
 11
100.1814304777583
 21
-9.353155226466416
 31
0.0
  0
LINE
  5
BE
330
6C
100
AcDbEntity
  8
Sichtbare Kanten(DIN)
100
AcDbLine
 10
134.4314304777582
 20
15.74684477353363
 30
0.0
 11
134.4314304777582
 21
5.646844773533583
 31
0.0
  0
LINE
  5
BF
330
6C
100
AcDbEntity
  8
Sichtbare Kanten(DIN)
100
AcDbLine
 10
134.4314304777582
 20
50.74684477353364
 30
0.0
 11
134.4314304777582
 21
40.64684477353359
 31
0.0
  0
LINE
  5
C0
330
6C
100
AcDbEntity
  8
Sichtbare Kanten(DIN)
100
AcDbLine
 10
134.4314304777582
 20
110.7468447735336
 30
0.0
 11
134.4314304777582
 21
100.6468447735336
 31
0.0
  0
LINE
  5
C1
330
6C
100
AcDbEntity
  8
Sichtbare Kanten(DIN)
100
AcDbLine
 10
134.4314304777582
 20
169.7468447735335
 30
0.0
 11
134.4314304777582
 21
159.6468447735335
 31
0.0
  0
LINE
  5
C2
330
6C
100
AcDbEntity
  8
Sichtbare Kanten(DIN)
100
AcDbLine
 10
134.4314304777582
 20
230.7468447735336
 30
0.0
 11
134.4314304777582
 21
220.6468447735336
 31
0.0
  0
LINE
  5
C3
330
6C
100
AcDbEntity
  8
Sichtbare Kanten(DIN)
100
AcDbLine
 10
134.4314304777582
 20
280.6468447735336
 30
0.0
 11
134.4314304777582
 21
266.6468447735336
 31
0.0
  0
LINE
  5
C4
330
6C
100
AcDbEntity
  8
Sichtbare Kanten(DIN)
100
AcDbLine
 10
108.9314304777582
 20
280.6468447735336
 30
0.0
 11
113.6814304777583
 21
280.6468447735336
 31
0.0
  0
LINE
  5
C5
330
6C
100
AcDbEntity
  8
Sichtbare Kanten(DIN)
100
AcDbLine
 10
131.9314304777583
 20
280.6468447735336
 30
0.0
 11
134.4314304777582
 21
280.6468447735336
 31
0.0
  0
LINE
  5
C6
330
6C
100
AcDbEntity
  8
Sichtbare Kanten(DIN)
100
AcDbLine
 10
79.43143047775823
 20
266.6468447735336
 30
0.0
 11
81.83143047775823
 21
266.6468447735336
 31
0.0
  0
LINE
  5
C7
330
6C
100
AcDbEntity
  8
Sichtbare Kanten(DIN)
100
AcDbLine
 10
81.83143047775823
 20
266.6468447735336
 30
0.0
 11
81.83143047775823
 21
270.6468447735336
 31
0.0
  0
LINE
  5
C8
330
6C
100
AcDbEntity
  8
Sichtbare Kanten(DIN)
100
AcDbLine
 10
81.83143047775823
 20
270.6468447735336
 30
0.0
 11
81.93143047775837
 21
270.6468447735336
 31
0.0
  0
LINE
  5
C9
330
6C
100
AcDbEntity
  8
Sichtbare Kanten(DIN)
100
AcDbLine
 10
81.93143047775837
 20
230.7468447735336
 30
0.0
 11
79.43143047775823
 21
230.7468447735336
 31
0.0
  0
LINE
  5
CA
330
6C
100
AcDbEntity
  8
Sichtbare Kanten(DIN)
100
AcDbLine
 10
79.43143047775823
 20
220.6468447735336
 30
0.0
 11
81.83143047775827
 21
220.6468447735336
 31
0.0
  0
LINE
  5
CB
330
6C
100
AcDbEntity
  8
Sichtbare Kanten(DIN)
100
AcDbLine
 10
81.83143047775827
 20
220.6468447735336
 30
0.0
 11
81.83143047775827
 21
225.6468447735336
 31
0.0
  0
LINE
  5
CC
330
6C
100
AcDbEntity
  8
Sichtbare Kanten(DIN)
100
AcDbLine
 10
81.83143047775827
 20
225.6468447735336
 30
0.0
 11
81.93143047775837
 21
225.6468447735336
 31
0.0
  0
LINE
  5
CD
330
6C
100
AcDbEntity
  8
Sichtbare Kanten(DIN)
100
AcDbLine
 10
81.93143047775835
 20
169.7468447735336
 30
0.0
 11
79.43143047775823
 21
169.7468447735336
 31
0.0
  0
LINE
  5
CE
330
6C
100
AcDbEntity
  8
Sichtbare Kanten(DIN)
100
AcDbLine
 10
79.43143047775823
 20
159.6468447735336
 30
0.0
 11
81.83143047775823
 21
159.6468447735336
 31
0.0
  0
LINE
  5
CF
330
6C
100
AcDbEntity
  8
Sichtbare Kanten(DIN)
100
AcDbLine
 10
81.83143047775823
 20
159.6468447735336
 30
0.0
 11
81.83143047775823
 21
164.6468447735336
 31
0.0
  0
LINE
  5
D0
330
6C
100
AcDbEntity
  8
Sichtbare Kanten(DIN)
100
AcDbLine
 10
81.83143047775823
 20
164.6468447735336
 30
0.0
 11
81.93143047775835
 21
164.6468447735336
 31
0.0
  0
LINE
  5
D1
330
6C
100
AcDbEntity
  8
Sichtbare Kanten(DIN)
100
AcDbLine
 10
81.93143047775835
 20
110.7468447735336
 30
0.0
 11
79.43143047775823
 21
110.7468447735336
 31
0.0
  0
LINE
  5
D2
330
6C
100
AcDbEntity
  8
Sichtbare Kanten(DIN)
100
AcDbLine
 10
79.43143047775823
 20
100.6468447735336
 30
0.0
 11
81.83143047775823
 21
100.6468447735336
 31
0.0
  0
LINE
  5
D3
330
6C
100
AcDbEntity
  8
Sichtbare Kanten(DIN)
100
AcDbLine
 10
81.83143047775823
 20
100.6468447735336
 30
0.0
 11
81.83143047775823
 21
105.6468447735336
 31
0.0
  0
LINE
  5
D4
330
6C
100
AcDbEntity
  8
Sichtbare Kanten(DIN)
100
AcDbLine
 10
81.83143047775823
 20
105.6468447735336
 30
0.0
 11
81.93143047775835
 21
105.6468447735336
 31
0.0
  0
LINE
  5
D5
330
6C
100
AcDbEntity
  8
Sichtbare Kanten(DIN)
100
AcDbLine
 10
81.93143047775834
 20
50.74684477353359
 30
0.0
 11
79.43143047775823
 21
50.74684477353359
 31
0.0
  0
LINE
  5
D6
330
6C
100
AcDbEntity
  8
Sichtbare Kanten(DIN)
100
AcDbLine
 10
79.43143047775823
 20
40.64684477353359
 30
0.0
 11
81.83143047775823
 21
40.64684477353359
 31
0.0
  0
LINE
  5
D7
330
6C
100
AcDbEntity
  8
Sichtbare Kanten(DIN)
100
AcDbLine
 10
81.83143047775823
 20
40.64684477353359
 30
0.0
 11
81.83143047775823
 21
45.64684477353359
 31
0.0
  0
LINE
  5
D8
330
6C
100
AcDbEntity
  8
Sichtbare Kanten(DIN)
100
AcDbLine
 10
81.83143047775823
 20
45.64684477353359
 30
0.0
 11
81.93143047775835
 21
45.64684477353359
 31
0.0
  0
LINE
  5
D9
330
6C
100
AcDbEntity
  8
Sichtbare Kanten(DIN)
100
AcDbLine
 10
81.93143047775834
 20
15.7468447735336
 30
0.0
 11
79.43143047775823
 21
15.7468447735336
 31
0.0
  0
LINE
  5
DA
330
6C
100
AcDbEntity
  8
Sichtbare Kanten(DIN)
100
AcDbLine
 10
79.43143047775823
 20
5.646844773533583
 30
0.0
 11
81.83143047775823
 21
5.646844773533583
 31
0.0
  0
LINE
  5
DB
330
6C
100
AcDbEntity
  8
Sichtbare Kanten(DIN)
100
AcDbLine
 10
81.83143047775823
 20
5.646844773533583
 30
0.0
 11
81.83143047775823
 21
10.64684477353358
 31
0.0
  0
LINE
  5
DC
330
6C
100
AcDbEntity
  8
Sichtbare Kanten(DIN)
100
AcDbLine
 10
81.83143047775823
 20
10.64684477353358
 30
0.0
 11
81.93143047775834
 21
10.64684477353358
 31
0.0
  0
LINE
  5
DD
330
6C
100
AcDbEntity
  8
Sichtbare Kanten(DIN)
100
AcDbLine
 10
131.9314304777583
 20
10.64684477353358
 30
0.0
 11
132.0314304777582
 21
10.64684477353358
 31
0.0
  0
LINE
  5
DE
330
6C
100
AcDbEntity
  8
Sichtbare Kanten(DIN)
100
AcDbLine
 10
132.0314304777582
 20
10.64684477353358
 30
0.0
 11
132.0314304777582
 21
5.646844773533583
 31
0.0
  0
LINE
  5
DF
330
6C
100
AcDbEntity
  8
Sichtbare Kanten(DIN)
100
AcDbLine
 10
132.0314304777582
 20
5.646844773533583
 30
0.0
 11
134.4314304777582
 21
5.646844773533583
 31
0.0
  0
LINE
  5
E0
330
6C
100
AcDbEntity
  8
Sichtbare Kanten(DIN)
100
AcDbLine
 10
134.4314304777582
 20
15.74684477353363
 30
0.0
 11
131.9314304777583
 21
15.7468447735336
 31
0.0
  0
LINE
  5
E1
330
6C
100
AcDbEntity
  8
Sichtbare Kanten(DIN)
100
AcDbLine
 10
131.9314304777583
 20
45.64684477353359
 30
0.0
 11
132.0314304777582
 21
45.64684477353359
 31
0.0
  0
LINE
  5
E2
330
6C
100
AcDbEntity
  8
Sichtbare Kanten(DIN)
100
AcDbLine
 10
132.0314304777582
 20
45.64684477353359
 30
0.0
 11
132.0314304777582
 21
40.64684477353359
 31
0.0
  0
LINE
  5
E3
330
6C
100
AcDbEntity
  8
Sichtbare Kanten(DIN)
100
AcDbLine
 10
132.0314304777582
 20
40.64684477353359
 30
0.0
 11
134.4314304777582
 21
40.64684477353359
 31
0.0
  0
LINE
  5
E4
330
6C
100
AcDbEntity
  8
Sichtbare Kanten(DIN)
100
AcDbLine
 10
134.4314304777582
 20
50.74684477353364
 30
0.0
 11
131.9314304777583
 21
50.74684477353359
 31
0.0
  0
LINE
  5
E5
330
6C
100
AcDbEntity
  8
Sichtbare Kanten(DIN)
100
AcDbLine
 10
131.9314304777583
 20
105.6468447735336
 30
0.0
 11
132.0314304777582
 21
105.6468447735336
 31
0.0
  0
LINE
  5
E6
330
6C
100
AcDbEntity
  8
Sichtbare Kanten(DIN)
100
AcDbLine
 10
132.0314304777582
 20
105.6468447735336
 30
0.0
 11
132.0314304777582
 21
100.6468447735336
 31
0.0
  0
LINE
  5
E7
330
6C
100
AcDbEntity
  8
Sichtbare Kanten(DIN)
100
AcDbLine
 10
132.0314304777582
 20
100.6468447735336
 30
0.0
 11
134.4314304777582
 21
100.6468447735336
 31
0.0
  0
LINE
  5
E8
330
6C
100
AcDbEntity
  8
Sichtbare Kanten(DIN)
100
AcDbLine
 10
134.4314304777582
 20
110.7468447735336
 30
0.0
 11
131.9314304777583
 21
110.7468447735336
 31
0.0
  0
LINE
  5
E9
330
6C
100
AcDbEntity
  8
Sichtbare Kanten(DIN)
100
AcDbLine
 10
131.9314304777583
 20
164.6468447735336
 30
0.0
 11
132.0314304777582
 21
164.6468447735336
 31
0.0
  0
LINE
  5
EA
330
6C
100
AcDbEntity
  8
Sichtbare Kanten(DIN)
100
AcDbLine
 10
132.0314304777582
 20
164.6468447735336
 30
0.0
 11
132.0314304777582
 21
159.6468447735335
 31
0.0
  0
LINE
  5
EB
330
6C
100
AcDbEntity
  8
Sichtbare Kanten(DIN)
100
AcDbLine
 10
132.0314304777582
 20
159.6468447735335
 30
0.0
 11
134.4314304777582
 21
159.6468447735335
 31
0.0
  0
LINE
  5
EC
330
6C
100
AcDbEntity
  8
Sichtbare Kanten(DIN)
100
AcDbLine
 10
134.4314304777582
 20
169.7468447735335
 30
0.0
 11
131.9314304777583
 21
169.7468447735335
 31
0.0
  0
LINE
  5
ED
330
6C
100
AcDbEntity
  8
Sichtbare Kanten(DIN)
100
AcDbLine
 10
131.9314304777583
 20
225.6468447735336
 30
0.0
 11
132.0314304777582
 21
225.6468447735336
 31
0.0
  0
LINE
  5
EE
330
6C
100
AcDbEntity
  8
Sichtbare Kanten(DIN)
100
AcDbLine
 10
132.0314304777582
 20
225.6468447735336
 30
0.0
 11
132.0314304777582
 21
220.6468447735336
 31
0.0
  0
LINE
  5
EF
330
6C
100
AcDbEntity
  8
Sichtbare Kanten(DIN)
100
AcDbLine
 10
132.0314304777582
 20
220.6468447735336
 30
0.0
 11
134.4314304777582
 21
220.6468447735336
 31
0.0
  0
LINE
  5
F0
330
6C
100
AcDbEntity
  8
Sichtbare Kanten(DIN)
100
AcDbLine
 10
134.4314304777582
 20
230.7468447735336
 30
0.0
 11
131.9314304777583
 21
230.7468447735336
 31
0.0
  0
LINE
  5
F1
330
6C
100
AcDbEntity
  8
Sichtbare Kanten(DIN)
100
AcDbLine
 10
131.9314304777583
 20
270.6468447735336
 30
0.0
 11
132.0314304777582
 21
270.6468447735336
 31
0.0
  0
LINE
  5
F2
330
6C
100
AcDbEntity
  8
Sichtbare Kanten(DIN)
100
AcDbLine
 10
132.0314304777582
 20
270.6468447735336
 30
0.0
 11
132.0314304777582
 21
266.6468447735336
 31
0.0
  0
LINE
  5
F3
330
6C
100
AcDbEntity
  8
Sichtbare Kanten(DIN)
100
AcDbLine
 10
132.0314304777582
 20
266.6468447735336
 30
0.0
 11
134.4314304777582
 21
266.6468447735336
 31
0.0
  0
LINE
  5
F4
330
6C
100
AcDbEntity
  8
Sichtbare Kanten(DIN)
100
AcDbLine
 10
131.9314304777582
 20
-9.353155226465966
 30
0.0
 11
126.9314304777582
 21
-9.353155226465959
 31
0.0
  0
LINE
  5
F5
330
6C
100
AcDbEntity
  8
Sichtbare Kanten(DIN)
100
AcDbLine
 10
131.9314304777582
 20
280.6468447735336
 30
0.0
 11
126.9314304777582
 21
280.6468447735336
 31
0.0
  0
LINE
  5
F6
330
6C
100
AcDbEntity
  8
Sichtbare Kanten(DIN)
100
AcDbLine
 10
131.9314304777582
 20
-9.353155226465966
 30
0.0
 11
131.9314304777583
 21
280.6468447735336
 31
0.0
  0
LINE
  5
F7
330
6C
100
AcDbEntity
  8
Sichtbare Kanten(DIN)
100
AcDbLine
 10
113.6814304777582
 20
-9.353155226465986
 30
0.0
 11
126.9314304777582
 21
-9.353155226465984
 31
0.0
  0
LINE
  5
F8
330
6C
100
AcDbEntity
  8
Sichtbare Kanten(DIN)
100
AcDbLine
 10
86.93143047775832
 20
-9.353155226465968
 30
0.0
 11
100.1814304777583
 21
-9.353155226465966
 31
0.0
  0
LINE
  5
F9
330
6C
100
AcDbEntity
  8
Sichtbare Kanten(DIN)
100
AcDbLine
 10
100.1814304777583
 20
280.6468447735336
 30
0.0
 11
86.93143047775871
 21
280.6468447735336
 31
0.0
  0
LINE
  5
FA
330
6C
100
AcDbEntity
  8
Sichtbare Kanten(DIN)
100
AcDbLine
 10
126.9314304777583
 20
280.6468447735336
 30
0.0
 11
113.6814304777583
 21
280.6468447735336
 31
0.0
  0
LINE
  5
FB
330
6C
100
AcDbEntity
  8
Sichtbare Kanten(DIN)
100
AcDbLine
 10
84.43143047775835
 20
249.1468447735337
 30
0.0
 11
84.43143047775835
 21
244.1468447735337
 31
0.0
  0
LINE
  5
FC
330
6C
100
AcDbEntity
  8
Sichtbare Kanten(DIN)
100
AcDbLine
 10
81.93143047775835
 20
244.1468447735336
 30
0.0
 11
81.93143047775835
 21
249.1468447735337
 31
0.0
  0
LINE
  5
FD
330
6C
100
AcDbEntity
  8
Sichtbare Kanten(DIN)
100
AcDbLine
 10
84.43143047775835
 20
244.1468447735336
 30
0.0
 11
84.43143047775835
 21
235.6468447735336
 31
0.0
  0
LINE
  5
FE
330
6C
100
AcDbEntity
  8
Sichtbare Kanten(DIN)
100
AcDbLine
 10
81.93143047775835
 20
235.6468447735336
 30
0.0
 11
81.93143047775835
 21
244.1468447735336
 31
0.0
  0
LINE
  5
FF
330
6C
100
AcDbEntity
  8
Sichtbare Kanten(DIN)
100
AcDbLine
 10
84.43143047775834
 20
35.64684477353402
 30
0.0
 11
84.43143047775834
 21
30.64684477353401
 31
0.0
  0
LINE
  5
100
330
6C
100
AcDbEntity
  8
Sichtbare Kanten(DIN)
100
AcDbLine
 10
81.93143047775834
 20
30.64684477353401
 30
0.0
 11
81.93143047775834
 21
35.64684477353401
 31
0.0
  0
LINE
  5
101
330
6C
100
AcDbEntity
  8
Sichtbare Kanten(DIN)
100
AcDbLine
 10
84.43143047775834
 20
30.646844773534
 30
0.0
 11
84.43143047775834
 21
22.14684477353394
 31
0.0
  0
LINE
  5
102
330
6C
100
AcDbEntity
  8
Sichtbare Kanten(DIN)
100
AcDbLine
 10
81.93143047775834
 20
22.14684477353396
 30
0.0
 11
81.93143047775834
 21
30.646844773534
 31
0.0
  0
LINE
  5
103
330
6C
100
AcDbEntity
  8
Sichtbare Kanten(DIN)
100
AcDbLine
 10
81.93143047775835
 20
235.6468447735336
 30
0.0
 11
86.93143047775864
 21
235.6468447735336
 31
0.0
  0
LINE
  5
104
330
6C
100
AcDbEntity
  8
Sichtbare Kanten(DIN)
100
AcDbLine
 10
108.6814304777583
 20
235.6468447735337
 30
0.0
 11
86.93143047775865
 21
235.6468447735336
 31
0.0
  0
LINE
  5
105
330
6C
100
AcDbEntity
  8
Sichtbare Kanten(DIN)
100
AcDbLine
 10
86.93143047775867
 20
249.1468447735336
 30
0.0
 11
98.18143047775834
 21
249.1468447735336
 31
0.0
  0
LINE
  5
106
330
6C
100
AcDbEntity
  8
Sichtbare Kanten(DIN)
100
AcDbLine
 10
86.93143047775865
 20
249.1468447735336
 30
0.0
 11
81.93143047775835
 21
249.1468447735336
 31
0.0
  0
LINE
  5
107
330
6C
100
AcDbEntity
  8
Sichtbare Kanten(DIN)
100
AcDbLine
 10
81.93143047775834
 20
22.14684477353397
 30
0.0
 11
86.93143047775837
 21
22.14684477353397
 31
0.0
  0
LINE
  5
108
330
6C
100
AcDbEntity
  8
Sichtbare Kanten(DIN)
100
AcDbLine
 10
98.18143047775832
 20
22.14684477353401
 30
0.0
 11
86.93143047775837
 21
22.14684477353397
 31
0.0
  0
LINE
  5
109
330
6C
100
AcDbEntity
  8
Sichtbare Kanten(DIN)
100
AcDbLine
 10
86.93143047775837
 20
35.64684477353396
 30
0.0
 11
81.93143047775834
 21
35.64684477353397
 31
0.0
  0
LINE
  5
10A
330
6C
100
AcDbEntity
  8
Sichtbare Kanten(DIN)
100
AcDbLine
 10
86.93143047775837
 20
35.64684477353396
 30
0.0
 11
108.6814304777583
 21
35.64684477353396
 31
0.0
  0
ARC
  5
10B
330
6C
100
AcDbEntity
  8
Sichtbare Kanten(DIN)
100
AcDbCircle
 10
98.18143047775832
 20
20.14684477353402
 30
0.0
 40
1.999999999999985
100
AcDbArc
 50
0.0
 51
90.0
  0
LINE
  5
10C
330
6C
100
AcDbEntity
  8
Sichtbare Kanten(DIN)
100
AcDbLine
 10
100.1814304777583
 20
-9.353155226465968
 30
0.0
 11
100.1814304777583
 21
20.14684477353402
 31
0.0
  0
LINE
  5
10D
330
6C
100
AcDbEntity
  8
Sichtbare Kanten(DIN)
100
AcDbLine
 10
113.6814304777583
 20
30.64684477353396
 30
0.0
 11
113.6814304777583
 21
-9.353155226465986
 31
0.0
  0
ARC
  5
10E
330
6C
100
AcDbEntity
  8
Sichtbare Kanten(DIN)
100
AcDbCircle
 10
108.6814304777583
 20
30.64684477353399
 30
0.0
 40
4.999999999999992
100
AcDbArc
 50
0.0
 51
90.00000000000021
  0
ARC
  5
10F
330
6C
100
AcDbEntity
  8
Sichtbare Kanten(DIN)
100
AcDbCircle
 10
98.18143047775834
 20
251.1468447735337
 30
0.0
 40
1.999999999999989
100
AcDbArc
 50
269.9999999999995
 51
0.0
  0
LINE
  5
110
330
6C
100
AcDbEntity
  8
Sichtbare Kanten(DIN)
100
AcDbLine
 10
100.1814304777583
 20
251.1468447735337
 30
0.0
 11
100.1814304777583
 21
280.6468447735336
 31
0.0
  0
ARC
  5
111
330
6C
100
AcDbEntity
  8
Sichtbare Kanten(DIN)
100
AcDbCircle
 10
108.6814304777583
 20
240.6468447735337
 30
0.0
 40
5.000000000000009
100
AcDbArc
 50
270.0000000000002
 51
0.0
  0
LINE
  5
112
330
6C
100
AcDbEntity
  8
Sichtbare Kanten(DIN)
100
AcDbLine
 10
113.6814304777583
 20
280.6468447735336
 30
0.0
 11
113.6814304777583
 21
240.6468447735337
 31
0.0
  0
LINE
  5
113
330
6C
100
AcDbEntity
  8
Sichtbare Kanten(DIN)
100
AcDbLine
 10
81.93143047775835
 20
249.1468447735336
 30
0.0
 11
81.93143047775835
 21
280.6468447735336
 31
0.0
  0
LINE
  5
114
330
6C
100
AcDbEntity
  8
Sichtbare Kanten(DIN)
100
AcDbLine
 10
81.93143047775832
 20
-9.353155226465966
 30
0.0
 11
81.93143047775834
 21
22.14684477353401
 31
0.0
  0
LINE
  5
115
330
6C
100
AcDbEntity
  8
Sichtbare Kanten(DIN)
100
AcDbLine
 10
81.93143047775834
 20
35.646844773534
 30
0.0
 11
81.93143047775835
 21
235.6468447735337
 31
0.0
  0
LINE
  5
116
330
6C
100
AcDbEntity
  8
Sichtbare Kanten(DIN)
100
AcDbLine
 10
86.93143047775832
 20
-9.353155226465968
 30
0.0
 11
81.93143047775834
 21
-9.353155226465961
 31
0.0
  0
LINE
  5
117
330
6C
100
AcDbEntity
  8
Sichtbare Kanten(DIN)
100
AcDbLine
 10
86.93143047775871
 20
280.6468447735336
 30
0.0
 11
81.93143047775835
 21
280.6468447735336
 31
0.0
  0
LINE
  5
118
330
6C
100
AcDbEntity
  8
Sichtbare Kanten(DIN)
100
AcDbLine
 10
39.20850865874327
 20
275.6468447735336
 30
0.0
 11
39.86121448027922
 21
275.6468447735336
 31
0.0
  0
LINE
  5
119
330
6C
100
AcDbEntity
  8
Sichtbare Kanten(DIN)
100
AcDbLine
 10
174.0016464752372
 20
275.6468447735336
 30
0.0
 11
174.6543522967732
 21
275.6468447735336
 31
0.0
  0
LINE
  5
11A
330
6C
100
AcDbEntity
  8
Sichtbare Kanten(DIN)
100
AcDbLine
 10
39.20850865874327
 20
275.5850741432955
 30
0.0
 11
39.20850865874327
 21
275.6468447735336
 31
0.0
  0
LINE
  5
11B
330
6C
100
AcDbEntity
  8
Sichtbare Kanten(DIN)
100
AcDbLine
 10
33.87892995516449
 20
271.6468447735337
 30
0.0
 11
36.132796105498
 21
271.6468447735337
 31
0.0
  0
LINE
  5
11C
330
6C
100
AcDbEntity
  8
Sichtbare Kanten(DIN)
100
AcDbLine
 10
33.87892995516454
 20
235.6468447735336
 30
0.0
 11
36.13279610549806
 21
235.6468447735336
 31
0.0
  0
LINE
  5
11D
330
6C
100
AcDbEntity
  8
Sichtbare Kanten(DIN)
100
AcDbLine
 10
179.9839310003519
 20
235.6468447735336
 30
0.0
 11
177.7300648500184
 21
235.6468447735336
 31
0.0
  0
LINE
  5
11E
330
6C
100
AcDbEntity
  8
Sichtbare Kanten(DIN)
100
AcDbLine
 10
179.983931000352
 20
271.6468447735336
 30
0.0
 11
177.7300648500184
 21
271.6468447735336
 31
0.0
  0
LINE
  5
11F
330
6C
100
AcDbEntity
  8
Sichtbare Kanten(DIN)
100
AcDbLine
 10
174.6543522967732
 20
275.6468447735336
 30
0.0
 11
174.6543522967732
 21
275.5850741432955
 31
0.0
  0
ELLIPSE
  5
120
330
6C
100
AcDbEntity
  8
Sichtbare Kanten(DIN)
100
AcDbEllipse
 10
174.0016464752372
 20
271.6468447735337
 30
0.0
 11
0.0000000000000194
 21
3.999999999999983
 31
0.0
210
0.0
220
0.0
230
1.0
 40
0.9321045936953124
 41
4.712388980384677
 42
6.283185307179581
  0
ELLIPSE
  5
121
330
6C
100
AcDbEntity
  8
Sichtbare Kanten(DIN)
100
AcDbEllipse
 10
39.86121448027923
 20
271.6468447735336
 30
0.0
 11
-0.0000000000000355
 21
4.000000000000026
 31
0.0
210
0.0
220
0.0
230
1.0
 40
0.9321045936953124
 41
0.0000000000000005
 42
1.570796326794888
  0
LINE
  5
122
330
6C
100
AcDbEntity
  8
Sichtbare Kanten(DIN)
100
AcDbLine
 10
39.86121448027922
 20
275.6468447735336
 30
0.0
 11
79.43143047775826
 21
275.6468447735336
 31
0.0
  0
LINE
  5
123
330
6C
100
AcDbEntity
  8
Sichtbare Kanten(DIN)
100
AcDbLine
 10
134.4314304777582
 20
275.6468447735336
 30
0.0
 11
174.0016464752372
 21
275.6468447735336
 31
0.0
  0
ELLIPSE
  5
124
330
6C
100
AcDbEntity
  8
Sichtbare Kanten(DIN)
100
AcDbEllipse
 10
201.6024401894793
 20
252.6468447735335
 30
0.0
 11
-0.0000000000000052
 21
6.5
 31
0.0
210
0.0
220
0.0
230
1.0
 40
0.9808373273930445
 41
0.0305639670081178
 42
3.111028686581668
  0
ELLIPSE
  5
125
330
6C
100
AcDbEntity
  8
Sichtbare Kanten(DIN)
100
AcDbEllipse
 10
201.2127832265364
 20
252.6468447735335
 30
0.0
 11
-0.0000000000000093
 21
6.5
 31
0.0
210
0.0
220
0.0
230
1.0
 40
0.9808373273930449
 41
0.0
 42
6.283185307179586
  0
ELLIPSE
  5
126
330
6C
100
AcDbEntity
  8
Sichtbare Kanten(DIN)
100
AcDbEllipse
 10
12.2604207660372
 20
252.6468447735336
 30
0.0
 11
0.0000000000000011
 21
-6.499999999999994
 31
0.0
210
0.0
220
0.0
230
1.0
 40
0.9808373273930445
 41
0.0305639670081233
 42
3.111028686581679
  0
ELLIPSE
  5
127
330
6C
100
AcDbEntity
  8
Sichtbare Kanten(DIN)
100
AcDbEllipse
 10
12.65007772898009
 20
252.6468447735336
 30
0.0
 11
-0.0000000000000073
 21
-6.5
 31
0.0
210
0.0
220
0.0
230
1.0
 40
0.9808373273930451
 41
0.0
 42
6.283185307179586
  0
ELLIPSE
  5
128
330
6C
100
AcDbEntity
  8
Sichtbare Kanten(DIN)
100
AcDbEllipse
 10
12.26042076603711
 20
250.6468447735336
 30
0.0
 11
0.00000000000002
 21
-14.99999999999997
 31
0.0
210
0.0
220
0.0
230
1.0
 40
0.9808373273930451
 41
4.71238898038469
 42
6.283185307179589
  0
LINE
  5
129
330
6C
100
AcDbEntity
  8
Sichtbare Kanten(DIN)
100
AcDbLine
 10
12.26042076603715
 20
235.6468447735335
 30
0.0
 11
12.65007772898004
 21
235.6468447735335
 31
0.0
  0
ELLIPSE
  5
12A
330
6C
100
AcDbEntity
  8
Sichtbare Kanten(DIN)
100
AcDbEllipse
 10
12.65007772898
 20
250.6468447735336
 30
0.0
 11
0.0000000000000355
 21
-14.99999999999998
 31
0.0
210
0.0
220
0.0
230
1.0
 40
0.9808373273930451
 41
4.712388980384687
 42
6.283185307179586
  0
ELLIPSE
  5
12B
330
6C
100
AcDbEntity
  8
Sichtbare Kanten(DIN)
100
AcDbEllipse
 10
12.65007772898
 20
256.6468447735336
 30
0.0
 11
-0.0000000000000416
 21
14.99999999999999
 31
0.0
210
0.0
220
0.0
230
1.0
 40
0.9808373273930451
 41
0.0
 42
1.570796326794896
  0
ELLIPSE
  5
12C
330
6C
100
AcDbEntity
  8
Sichtbare Kanten(DIN)
100
AcDbEllipse
 10
12.26042076603709
 20
256.6468447735336
 30
0.0
 11
0.0
 21
14.99999999999998
 31
0.0
210
0.0
220
0.0
230
1.0
 40
0.9808373273930451
 41
0.0
 42
1.570796326794899
  0
LINE
  5
12D
330
6C
100
AcDbEntity
  8
Sichtbare Kanten(DIN)
100
AcDbLine
 10
12.65007772897998
 20
271.6468447735336
 30
0.0
 11
12.26042076603709
 21
271.6468447735336
 31
0.0
  0
ELLIPSE
  5
12E
330
6C
100
AcDbEntity
  8
Sichtbare Kanten(DIN)
100
AcDbEllipse
 10
201.6024401894794
 20
250.6468447735335
 30
0.0
 11
-0.0000000000000355
 21
-15.0
 31
0.0
210
0.0
220
0.0
230
1.0
 40
0.9808373273930447
 41
0.0
 42
1.570796326794899
  0
ELLIPSE
  5
12F
330
6C
100
AcDbEntity
  8
Sichtbare Kanten(DIN)
100
AcDbEllipse
 10
201.2127832265365
 20
250.6468447735335
 30
0.0
 11
-0.0000000000000101
 21
-14.99999999999998
 31
0.0
210
0.0
220
0.0
230
1.0
 40
0.9808373273930444
 41
0.0
 42
1.570796326794897
  0
LINE
  5
130
330
6C
100
AcDbEntity
  8
Sichtbare Kanten(DIN)
100
AcDbLine
 10
201.2127832265364
 20
235.6468447735335
 30
0.0
 11
201.6024401894794
 21
235.6468447735335
 31
0.0
  0
ELLIPSE
  5
131
330
6C
100
AcDbEntity
  8
Sichtbare Kanten(DIN)
100
AcDbEllipse
 10
201.2127832265365
 20
256.6468447735335
 30
0.0
 11
0.0000000000000355
 21
15.0
 31
0.0
210
0.0
220
0.0
230
1.0
 40
0.9808373273930451
 41
4.712388980384689
 42
6.283185307179586
  0
ELLIPSE
  5
132
330
6C
100
AcDbEntity
  8
Sichtbare Kanten(DIN)
100
AcDbEllipse
 10
201.6024401894794
 20
256.6468447735335
 30
0.0
 11
0.0000000000000303
 21
14.99999999999999
 31
0.0
210
0.0
220
0.0
230
1.0
 40
0.9808373273930451
 41
4.712388980384689
 42
6.283185307179586
  0
LINE
  5
133
330
6C
100
AcDbEntity
  8
Sichtbare Kanten(DIN)
100
AcDbLine
 10
201.6024401894794
 20
271.6468447735335
 30
0.0
 11
201.2127832265365
 21
271.6468447735335
 31
0.0
  0
LINE
  5
134
330
6C
100
AcDbEntity
  8
Sichtbare Kanten(DIN)
100
AcDbLine
 10
-2.062482181915665
 20
256.6468447735335
 30
0.0
 11
-2.062482181915648
 21
250.6468447735335
 31
0.0
  0
LINE
  5
135
330
6C
100
AcDbEntity
  8
Sichtbare Kanten(DIN)
100
AcDbLine
 10
-2.452139144858556
 20
256.6468447735335
 30
0.0
 11
-2.452139144858538
 21
250.6468447735335
 31
0.0
  0
LINE
  5
136
330
6C
100
AcDbEntity
  8
Sichtbare Kanten(DIN)
100
AcDbLine
 10
12.65007772898004
 20
235.6468447735335
 30
0.0
 11
33.87892995516454
 21
235.6468447735336
 31
0.0
  0
LINE
  5
137
330
6C
100
AcDbEntity
  8
Sichtbare Kanten(DIN)
100
AcDbLine
 10
12.65007772897998
 20
271.6468447735336
 30
0.0
 11
33.87892995516449
 21
271.6468447735337
 31
0.0
  0
LINE
  5
138
330
6C
100
AcDbEntity
  8
Sichtbare Kanten(DIN)
100
AcDbLine
 10
201.2127832265364
 20
235.6468447735335
 30
0.0
 11
179.9839310003519
 21
235.6468447735336
 31
0.0
  0
LINE
  5
139
330
6C
100
AcDbEntity
  8
Sichtbare Kanten(DIN)
100
AcDbLine
 10
215.9253431374322
 20
250.6468447735335
 30
0.0
 11
215.9253431374322
 21
256.6468447735335
 31
0.0
  0
LINE
  5
13A
330
6C
100
AcDbEntity
  8
Sichtbare Kanten(DIN)
100
AcDbLine
 10
201.2127832265365
 20
271.6468447735335
 30
0.0
 11
179.983931000352
 21
271.6468447735336
 31
0.0
  0
LINE
  5
13B
330
6C
100
AcDbEntity
  8
Sichtbare Kanten(DIN)
100
AcDbLine
 10
216.3150001003751
 20
250.6468447735335
 30
0.0
 11
216.3150001003751
 21
256.6468447735335
 31
0.0
  0
LINE
  5
13C
330
6C
100
AcDbEntity
  8
Sichtbare Kanten(DIN)
100
AcDbLine
 10
177.7300648500184
 20
235.6468447735336
 30
0.0
 11
131.9314304777583
 21
235.6468447735336
 31
0.0
  0
LINE
  5
13D
330
6C
100
AcDbEntity
  8
Sichtbare Kanten(DIN)
100
AcDbLine
 10
81.93143047775837
 20
235.6468447735335
 30
0.0
 11
36.13279610549803
 21
235.6468447735336
 31
0.0
  0
LINE
  5
13E
330
6C
100
AcDbEntity
  8
Sichtbare Kanten(DIN)
100
AcDbLine
 10
174.654352296769
 20
-4.353155226466416
 30
0.0
 11
174.0016464752331
 21
-4.353155226466416
 31
0.0
  0
LINE
  5
13F
330
6C
100
AcDbEntity
  8
Sichtbare Kanten(DIN)
100
AcDbLine
 10
39.8612144802805
 20
-4.353155226466416
 30
0.0
 11
39.20850865874458
 21
-4.353155226466416
 31
0.0
  0
LINE
  5
140
330
6C
100
AcDbEntity
  8
Sichtbare Kanten(DIN)
100
AcDbLine
 10
174.654352296769
 20
-4.291384596228287
 30
0.0
 11
174.654352296769
 21
-4.353155226466416
 31
0.0
  0
LINE
  5
141
330
6C
100
AcDbEntity
  8
Sichtbare Kanten(DIN)
100
AcDbLine
 10
179.9839310003476
 20
-0.3531552264664284
 30
0.0
 11
177.7300648500142
 21
-0.3531552264664302
 31
0.0
  0
LINE
  5
142
330
6C
100
AcDbEntity
  8
Sichtbare Kanten(DIN)
100
AcDbLine
 10
179.9839310003475
 20
35.64684477353358
 30
0.0
 11
177.7300648500141
 21
35.64684477353358
 31
0.0
  0
LINE
  5
143
330
6C
100
AcDbEntity
  8
Sichtbare Kanten(DIN)
100
AcDbLine
 10
33.87892995516606
 20
35.6468447735336
 30
0.0
 11
36.13279610549947
 21
35.6468447735336
 31
0.0
  0
LINE
  5
144
330
6C
100
AcDbEntity
  8
Sichtbare Kanten(DIN)
100
AcDbLine
 10
33.87892995516599
 20
-0.3531552264663995
 30
0.0
 11
36.13279610549943
 21
-0.3531552264664014
 31
0.0
  0
LINE
  5
145
330
6C
100
AcDbEntity
  8
Sichtbare Kanten(DIN)
100
AcDbLine
 10
39.20850865874458
 20
-4.353155226466416
 30
0.0
 11
39.20850865874458
 21
-4.291384596228251
 31
0.0
  0
ELLIPSE
  5
146
330
6C
100
AcDbEntity
  8
Sichtbare Kanten(DIN)
100
AcDbEllipse
 10
39.86121448028051
 20
-0.3531552264664223
 30
0.0
 11
-0.0000000000000194
 21
-3.999999999999984
 31
0.0
210
0.0
220
0.0
230
1.0
 40
0.9321045936952748
 41
4.712388980384689
 42
6.283185307179588
  0
ELLIPSE
  5
147
330
6C
100
AcDbEntity
  8
Sichtbare Kanten(DIN)
100
AcDbEllipse
 10
174.0016464752331
 20
-0.3531552264664095
 30
0.0
 11
0.0000000000000355
 21
-4.000000000000026
 31
0.0
210
0.0
220
0.0
230
1.0
 40
0.9321045936952749
 41
0.0000000000000005
 42
1.570796326794885
  0
LINE
  5
148
330
6C
100
AcDbEntity
  8
Sichtbare Kanten(DIN)
100
AcDbLine
 10
174.0016464752331
 20
-4.353155226466416
 30
0.0
 11
131.9314304777573
 21
-4.353155226466416
 31
0.0
  0
LINE
  5
149
330
6C
100
AcDbEntity
  8
Sichtbare Kanten(DIN)
100
AcDbLine
 10
81.93143047775935
 20
-4.353155226466416
 30
0.0
 11
39.8612144802805
 21
-4.353155226466416
 31
0.0
  0
ELLIPSE
  5
14A
330
6C
100
AcDbEntity
  8
Sichtbare Kanten(DIN)
100
AcDbEllipse
 10
12.26042076603958
 20
18.64684477353368
 30
0.0
 11
0.0000000000000052
 21
-6.499999999999999
 31
0.0
210
0.0
220
0.0
230
1.0
 40
0.9808373273930055
 41
0.0305639670081204
 42
3.111028686581672
  0
ELLIPSE
  5
14B
330
6C
100
AcDbEntity
  8
Sichtbare Kanten(DIN)
100
AcDbEllipse
 10
12.65007772898245
 20
18.64684477353368
 30
0.0
 11
0.0000000000000093
 21
-6.5
 31
0.0
210
0.0
220
0.0
230
1.0
 40
0.9808373273930055
 41
0.0
 42
6.283185307179586
  0
ELLIPSE
  5
14C
330
6C
100
AcDbEntity
  8
Sichtbare Kanten(DIN)
100
AcDbEllipse
 10
201.602440189474
 20
18.64684477353364
 30
0.0
 11
-0.0000000000000011
 21
6.499999999999994
 31
0.0
210
0.0
220
0.0
230
1.0
 40
0.9808373273930051
 41
0.0305639670081253
 42
3.111028686581678
  0
ELLIPSE
  5
14D
330
6C
100
AcDbEntity
  8
Sichtbare Kanten(DIN)
100
AcDbEllipse
 10
201.2127832265312
 20
18.64684477353364
 30
0.0
 11
0.0000000000000073
 21
6.5
 31
0.0
210
0.0
220
0.0
230
1.0
 40
0.9808373273930058
 41
0.0
 42
6.283185307179586
  0
ELLIPSE
  5
14E
330
6C
100
AcDbEntity
  8
Sichtbare Kanten(DIN)
100
AcDbEllipse
 10
201.6024401894741
 20
20.64684477353362
 30
0.0
 11
-0.00000000000002
 21
14.99999999999997
 31
0.0
210
0.0
220
0.0
230
1.0
 40
0.9808373273930056
 41
4.712388980384689
 42
6.283185307179589
  0
LINE
  5
14F
330
6C
100
AcDbEntity
  8
Sichtbare Kanten(DIN)
100
AcDbLine
 10
201.6024401894741
 20
35.64684477353362
 30
0.0
 11
201.2127832265312
 21
35.64684477353362
 31
0.0
  0
ELLIPSE
  5
150
330
6C
100
AcDbEntity
  8
Sichtbare Kanten(DIN)
100
AcDbEllipse
 10
201.2127832265313
 20
20.64684477353362
 30
0.0
 11
-0.0000000000000355
 21
14.99999999999998
 31
0.0
210
0.0
220
0.0
230
1.0
 40
0.9808373273930056
 41
4.712388980384687
 42
6.283185307179586
  0
ELLIPSE
  5
151
330
6C
100
AcDbEntity
  8
Sichtbare Kanten(DIN)
100
AcDbEllipse
 10
201.2127832265313
 20
14.64684477353359
 30
0.0
 11
0.0000000000000416
 21
-14.99999999999999
 31
0.0
210
0.0
220
0.0
230
1.0
 40
0.9808373273930058
 41
0.0
 42
1.570796326794896
  0
ELLIPSE
  5
152
330
6C
100
AcDbEntity
  8
Sichtbare Kanten(DIN)
100
AcDbEllipse
 10
201.6024401894742
 20
14.64684477353358
 30
0.0
 11
0.0
 21
-14.99999999999998
 31
0.0
210
0.0
220
0.0
230
1.0
 40
0.9808373273930055
 41
0.0
 42
1.5707963267949
  0
LINE
  5
153
330
6C
100
AcDbEntity
  8
Sichtbare Kanten(DIN)
100
AcDbLine
 10
201.2127832265313
 20
-0.3531552264663951
 30
0.0
 11
201.6024401894742
 21
-0.3531552264663951
 31
0.0
  0
ELLIPSE
  5
154
330
6C
100
AcDbEntity
  8
Sichtbare Kanten(DIN)
100
AcDbEllipse
 10
12.26042076603949
 20
20.64684477353365
 30
0.0
 11
0.0000000000000355
 21
15.0
 31
0.0
210
0.0
220
0.0
230
1.0
 40
0.9808373273930051
 41
0.0
 42
1.570796326794898
  0
ELLIPSE
  5
155
330
6C
100
AcDbEntity
  8
Sichtbare Kanten(DIN)
100
AcDbEllipse
 10
12.65007772898233
 20
20.64684477353365
 30
0.0
 11
0.0000000000000101
 21
14.99999999999998
 31
0.0
210
0.0
220
0.0
230
1.0
 40
0.9808373273930051
 41
0.0
 42
1.570796326794896
  0
LINE
  5
156
330
6C
100
AcDbEntity
  8
Sichtbare Kanten(DIN)
100
AcDbLine
 10
12.65007772898238
 20
35.64684477353364
 30
0.0
 11
12.26042076603951
 21
35.64684477353364
 31
0.0
  0
ELLIPSE
  5
157
330
6C
100
AcDbEntity
  8
Sichtbare Kanten(DIN)
100
AcDbEllipse
 10
12.65007772898235
 20
14.64684477353363
 30
0.0
 11
-0.0000000000000355
 21
-15.0
 31
0.0
210
0.0
220
0.0
230
1.0
 40
0.9808373273930056
 41
4.712388980384689
 42
6.283185307179586
  0
ELLIPSE
  5
158
330
6C
100
AcDbEntity
  8
Sichtbare Kanten(DIN)
100
AcDbEllipse
 10
12.26042076603947
 20
14.64684477353364
 30
0.0
 11
-0.0000000000000303
 21
-14.99999999999999
 31
0.0
210
0.0
220
0.0
230
1.0
 40
0.9808373273930056
 41
4.712388980384689
 42
6.283185307179586
  0
LINE
  5
159
330
6C
100
AcDbEntity
  8
Sichtbare Kanten(DIN)
100
AcDbLine
 10
12.26042076603944
 20
-0.3531552264663595
 30
0.0
 11
12.65007772898231
 21
-0.3531552264663595
 31
0.0
  0
LINE
  5
15A
330
6C
100
AcDbEntity
  8
Sichtbare Kanten(DIN)
100
AcDbLine
 10
215.9253431374263
 20
14.64684477353364
 30
0.0
 11
215.9253431374263
 21
20.64684477353365
 31
0.0
  0
LINE
  5
15B
330
6C
100
AcDbEntity
  8
Sichtbare Kanten(DIN)
100
AcDbLine
 10
216.3150001003692
 20
14.64684477353364
 30
0.0
 11
216.3150001003692
 21
20.64684477353365
 31
0.0
  0
LINE
  5
15C
330
6C
100
AcDbEntity
  8
Sichtbare Kanten(DIN)
100
AcDbLine
 10
201.2127832265312
 20
35.64684477353362
 30
0.0
 11
179.9839310003475
 21
35.64684477353359
 31
0.0
  0
LINE
  5
15D
330
6C
100
AcDbEntity
  8
Sichtbare Kanten(DIN)
100
AcDbLine
 10
201.2127832265313
 20
-0.3531552264663951
 30
0.0
 11
179.9839310003476
 21
-0.3531552264664306
 31
0.0
  0
LINE
  5
15E
330
6C
100
AcDbEntity
  8
Sichtbare Kanten(DIN)
100
AcDbLine
 10
12.65007772898238
 20
35.64684477353364
 30
0.0
 11
33.87892995516606
 21
35.6468447735336
 31
0.0
  0
LINE
  5
15F
330
6C
100
AcDbEntity
  8
Sichtbare Kanten(DIN)
100
AcDbLine
 10
-2.062482181912699
 20
20.64684477353365
 30
0.0
 11
-2.062482181912717
 21
14.64684477353365
 31
0.0
  0
LINE
  5
160
330
6C
100
AcDbEntity
  8
Sichtbare Kanten(DIN)
100
AcDbLine
 10
12.65007772898231
 20
-0.3531552264663595
 30
0.0
 11
33.87892995516599
 21
-0.3531552264663951
 31
0.0
  0
LINE
  5
161
330
6C
100
AcDbEntity
  8
Sichtbare Kanten(DIN)
100
AcDbLine
 10
-2.452139144855607
 20
20.64684477353365
 30
0.0
 11
-2.452139144855625
 21
14.64684477353365
 31
0.0
  0
LINE
  5
162
330
6C
100
AcDbEntity
  8
Sichtbare Kanten(DIN)
100
AcDbLine
 10
36.13279610549948
 20
35.6468447735336
 30
0.0
 11
81.93143047775935
 21
35.64684477353359
 31
0.0
  0
LINE
  5
163
330
6C
100
AcDbEntity
  8
Sichtbare Kanten(DIN)
100
AcDbLine
 10
131.9314304777573
 20
35.64684477353362
 30
0.0
 11
177.7300648500141
 21
35.64684477353359
 31
0.0
  0
LINE
  5
164
330
6C
100
AcDbEntity
  8
Sichtbare Kanten(DIN)
100
AcDbLine
 10
426.5682718342442
 20
266.6468447735336
 30
0.0
 11
426.5682718342442
 21
280.6468447735336
 31
0.0
  0
LINE
  5
165
330
6C
100
AcDbEntity
  8
Sichtbare Kanten(DIN)
100
AcDbLine
 10
426.5682718342442
 20
220.6468447735336
 30
0.0
 11
426.5682718342442
 21
230.7468447735336
 31
0.0
  0
LINE
  5
166
330
6C
100
AcDbEntity
  8
Sichtbare Kanten(DIN)
100
AcDbLine
 10
426.5682718342442
 20
159.6468447735336
 30
0.0
 11
426.5682718342442
 21
169.7468447735336
 31
0.0
  0
LINE
  5
167
330
6C
100
AcDbEntity
  8
Sichtbare Kanten(DIN)
100
AcDbLine
 10
426.5682718342442
 20
100.6468447735336
 30
0.0
 11
426.5682718342442
 21
110.7468447735336
 31
0.0
  0
LINE
  5
168
330
6C
100
AcDbEntity
  8
Sichtbare Kanten(DIN)
100
AcDbLine
 10
426.5682718342442
 20
40.64684477353359
 30
0.0
 11
426.5682718342442
 21
50.74684477353359
 31
0.0
  0
LINE
  5
169
330
6C
100
AcDbEntity
  8
Sichtbare Kanten(DIN)
100
AcDbLine
 10
426.5682718342442
 20
5.646844773533583
 30
0.0
 11
426.5682718342442
 21
15.7468447735336
 31
0.0
  0
LINE
  5
16A
330
6C
100
AcDbEntity
  8
Sichtbare Kanten(DIN)
100
AcDbLine
 10
424.0682718342442
 20
280.6468447735336
 30
0.0
 11
426.5682718342442
 21
280.6468447735336
 31
0.0
  0
LINE
  5
16B
330
6C
100
AcDbEntity
  8
Sichtbare Kanten(DIN)
100
AcDbLine
 10
424.0682718342442
 20
5.646844773533583
 30
0.0
 11
424.0682718342442
 21
15.7468447735336
 31
0.0
  0
LINE
  5
16C
330
6C
100
AcDbEntity
  8
Sichtbare Kanten(DIN)
100
AcDbLine
 10
424.0682718342442
 20
40.64684477353359
 30
0.0
 11
424.0682718342442
 21
50.74684477353359
 31
0.0
  0
LINE
  5
16D
330
6C
100
AcDbEntity
  8
Sichtbare Kanten(DIN)
100
AcDbLine
 10
424.0682718342442
 20
100.6468447735336
 30
0.0
 11
424.0682718342442
 21
110.7468447735336
 31
0.0
  0
LINE
  5
16E
330
6C
100
AcDbEntity
  8
Sichtbare Kanten(DIN)
100
AcDbLine
 10
424.0682718342442
 20
159.6468447735336
 30
0.0
 11
424.0682718342442
 21
169.7468447735336
 31
0.0
  0
LINE
  5
16F
330
6C
100
AcDbEntity
  8
Sichtbare Kanten(DIN)
100
AcDbLine
 10
424.0682718342442
 20
220.6468447735336
 30
0.0
 11
424.0682718342442
 21
230.7468447735336
 31
0.0
  0
LINE
  5
170
330
6C
100
AcDbEntity
  8
Sichtbare Kanten(DIN)
100
AcDbLine
 10
424.0682718342442
 20
266.6468447735336
 30
0.0
 11
424.0682718342442
 21
280.6468447735336
 31
0.0
  0
LINE
  5
171
330
6C
100
AcDbEntity
  8
Sichtbare Kanten(DIN)
100
AcDbLine
 10
426.5682718342457
 20
246.646844773534
 30
0.0
 11
426.5682718342457
 21
230.7468447735336
 31
0.0
  0
LINE
  5
172
330
6C
100
AcDbEntity
  8
Sichtbare Kanten(DIN)
100
AcDbLine
 10
426.5682718342457
 20
185.646844773534
 30
0.0
 11
426.5682718342457
 21
169.7468447735336
 31
0.0
  0
LINE
  5
173
330
6C
100
AcDbEntity
  8
Sichtbare Kanten(DIN)
100
AcDbLine
 10
426.5682718342457
 20
126.646844773534
 30
0.0
 11
426.5682718342457
 21
110.7468447735336
 31
0.0
  0
LINE
  5
174
330
6C
100
AcDbEntity
  8
Sichtbare Kanten(DIN)
100
AcDbLine
 10
426.5682718342457
 20
66.64684477353403
 30
0.0
 11
426.5682718342457
 21
50.74684477353359
 31
0.0
  0
LINE
  5
175
330
6C
100
AcDbEntity
  8
Sichtbare Kanten(DIN)
100
AcDbLine
 10
426.5682718342457
 20
31.64684477353402
 30
0.0
 11
426.5682718342457
 21
15.7468447735336
 31
0.0
  0
LINE
  5
176
330
6C
100
AcDbEntity
  8
Sichtbare Kanten(DIN)
100
AcDbLine
 10
426.5682718342442
 20
169.7468447735336
 30
0.0
 11
424.0682718342442
 21
169.7468447735336
 31
0.0
  0
LINE
  5
177
330
6C
100
AcDbEntity
  8
Sichtbare Kanten(DIN)
100
AcDbLine
 10
424.0682718342458
 20
175.646844773534
 30
0.0
 11
424.0682718342458
 21
185.646844773534
 31
0.0
  0
LINE
  5
178
330
6C
100
AcDbEntity
  8
Sichtbare Kanten(DIN)
100
AcDbLine
 10
424.0682718342442
 20
220.6468447735336
 30
0.0
 11
426.5682718342442
 21
220.6468447735336
 31
0.0
  0
LINE
  5
179
330
6C
100
AcDbEntity
  8
Sichtbare Kanten(DIN)
100
AcDbLine
 10
426.5682718342442
 20
50.74684477353359
 30
0.0
 11
424.0682718342442
 21
50.74684477353359
 31
0.0
  0
LINE
  5
17A
330
6C
100
AcDbEntity
  8
Sichtbare Kanten(DIN)
100
AcDbLine
 10
424.0682718342458
 20
56.64684477353401
 30
0.0
 11
424.0682718342458
 21
66.64684477353403
 31
0.0
  0
LINE
  5
17B
330
6C
100
AcDbEntity
  8
Sichtbare Kanten(DIN)
100
AcDbLine
 10
424.0682718342442
 20
100.6468447735336
 30
0.0
 11
426.5682718342442
 21
100.6468447735336
 31
0.0
  0
LINE
  5
17C
330
6C
100
AcDbEntity
  8
Sichtbare Kanten(DIN)
100
AcDbLine
 10
426.5682718342442
 20
110.7468447735336
 30
0.0
 11
424.0682718342442
 21
110.7468447735336
 31
0.0
  0
LINE
  5
17D
330
6C
100
AcDbEntity
  8
Sichtbare Kanten(DIN)
100
AcDbLine
 10
424.0682718342458
 20
116.646844773534
 30
0.0
 11
424.0682718342458
 21
126.646844773534
 31
0.0
  0
LINE
  5
17E
330
6C
100
AcDbEntity
  8
Sichtbare Kanten(DIN)
100
AcDbLine
 10
424.0682718342442
 20
159.6468447735336
 30
0.0
 11
426.5682718342442
 21
159.6468447735336
 31
0.0
  0
LINE
  5
17F
330
6C
100
AcDbEntity
  8
Sichtbare Kanten(DIN)
100
AcDbLine
 10
426.5682718342442
 20
230.7468447735336
 30
0.0
 11
424.0682718342442
 21
230.7468447735336
 31
0.0
  0
LINE
  5
180
330
6C
100
AcDbEntity
  8
Sichtbare Kanten(DIN)
100
AcDbLine
 10
424.0682718342458
 20
236.6468447735341
 30
0.0
 11
424.0682718342458
 21
246.6468447735341
 31
0.0
  0
LINE
  5
181
330
6C
100
AcDbEntity
  8
Sichtbare Kanten(DIN)
100
AcDbLine
 10
424.0682718342442
 20
266.6468447735336
 30
0.0
 11
426.5682718342442
 21
266.6468447735336
 31
0.0
  0
LINE
  5
182
330
6C
100
AcDbEntity
  8
Sichtbare Kanten(DIN)
100
AcDbLine
 10
426.5682718342442
 20
15.7468447735336
 30
0.0
 11
424.0682718342442
 21
15.7468447735336
 31
0.0
  0
LINE
  5
183
330
6C
100
AcDbEntity
  8
Sichtbare Kanten(DIN)
100
AcDbLine
 10
424.0682718342458
 20
21.64684477353402
 30
0.0
 11
424.0682718342458
 21
31.64684477353402
 31
0.0
  0
LINE
  5
184
330
6C
100
AcDbEntity
  8
Sichtbare Kanten(DIN)
100
AcDbLine
 10
424.0682718342442
 20
40.64684477353359
 30
0.0
 11
426.5682718342442
 21
40.64684477353359
 31
0.0
  0
LINE
  5
185
330
6C
100
AcDbEntity
  8
Sichtbare Kanten(DIN)
100
AcDbLine
 10
424.0682718342442
 20
5.646844773533583
 30
0.0
 11
426.5682718342442
 21
5.646844773533583
 31
0.0
  0
LINE
  5
186
330
6C
100
AcDbEntity
  8
Sichtbare Kanten(DIN)
100
AcDbLine
 10
455.7182718342455
 20
233.6468447735336
 30
0.0
 11
455.7182718342455
 21
227.1468447735336
 31
0.0
  0
ARC
  5
187
330
6C
100
AcDbEntity
  8
Sichtbare Kanten(DIN)
100
AcDbCircle
 10
457.7182718342456
 20
233.6468447735336
 30
0.0
 40
1.999999999999994
100
AcDbArc
 50
90.0
 51
180.0
  0
ARC
  5
188
330
6C
100
AcDbEntity
  8
Sichtbare Kanten(DIN)
100
AcDbCircle
 10
447.2182718342455
 20
244.1468447735337
 30
0.0
 40
4.999999999999968
100
AcDbArc
 50
89.9999999999992
 51
180.0
  0
LINE
  5
189
330
6C
100
AcDbEntity
  8
Sichtbare Kanten(DIN)
100
AcDbLine
 10
442.2182718342456
 20
227.1468447735336
 30
0.0
 11
442.2182718342456
 21
244.1468447735336
 31
0.0
  0
ARC
  5
18A
330
6C
100
AcDbEntity
  8
Sichtbare Kanten(DIN)
100
AcDbCircle
 10
447.2182718342456
 20
227.1468447735336
 30
0.0
 40
5.000000000000039
100
AcDbArc
 50
180.0
 51
270.0
  0
LINE
  5
18B
330
6C
100
AcDbEntity
  8
Sichtbare Kanten(DIN)
100
AcDbLine
 10
450.7182718342455
 20
222.1468447735337
 30
0.0
 11
447.2182718342455
 21
222.1468447735337
 31
0.0
  0
ARC
  5
18C
330
6C
100
AcDbEntity
  8
Sichtbare Kanten(DIN)
100
AcDbCircle
 10
450.7182718342455
 20
227.1468447735337
 30
0.0
 40
5.000000000000016
100
AcDbArc
 50
270.0
 51
0.0
  0
ARC
  5
18D
330
6C
100
AcDbEntity
  8
Sichtbare Kanten(DIN)
100
AcDbCircle
 10
447.2182718342451
 20
30.646844773534
 30
0.0
 40
5.000000000000025
100
AcDbArc
 50
90.0
 51
180.0
  0
LINE
  5
18E
330
6C
100
AcDbEntity
  8
Sichtbare Kanten(DIN)
100
AcDbLine
 10
442.2182718342449
 20
15.39684477353399
 30
0.0
 11
442.2182718342451
 21
30.646844773534
 31
0.0
  0
ARC
  5
18F
330
6C
100
AcDbEntity
  8
Sichtbare Kanten(DIN)
100
AcDbCircle
 10
448.9682718342449
 20
15.39684477353404
 30
0.0
 40
6.750000000000002
100
AcDbArc
 50
180.0
 51
0.0
  0
LINE
  5
190
330
6C
100
AcDbEntity
  8
Sichtbare Kanten(DIN)
100
AcDbLine
 10
455.718271834245
 20
20.14684477353398
 30
0.0
 11
455.718271834245
 21
15.39684477353401
 31
0.0
  0
ARC
  5
191
330
6C
100
AcDbEntity
  8
Sichtbare Kanten(DIN)
100
AcDbCircle
 10
457.718271834245
 20
20.146844773534
 30
0.0
 40
1.999999999999998
100
AcDbArc
 50
90.0
 51
180.0
  0
LINE
  5
192
330
6C
100
AcDbEntity
  8
Sichtbare Kanten(DIN)
100
AcDbLine
 10
468.9682718342453
 20
235.6468447735336
 30
0.0
 11
473.9682718342468
 21
235.6468447735336
 31
0.0
  0
LINE
  5
193
330
6C
100
AcDbEntity
  8
Sichtbare Kanten(DIN)
100
AcDbLine
 10
468.9682718342453
 20
235.6468447735337
 30
0.0
 11
457.7182718342456
 21
235.6468447735337
 31
0.0
  0
LINE
  5
194
330
6C
100
AcDbEntity
  8
Sichtbare Kanten(DIN)
100
AcDbLine
 10
473.9682718342468
 20
249.1468447735336
 30
0.0
 11
468.9682718342453
 21
249.1468447735336
 31
0.0
  0
LINE
  5
195
330
6C
100
AcDbEntity
  8
Sichtbare Kanten(DIN)
100
AcDbLine
 10
447.2182718342456
 20
249.1468447735336
 30
0.0
 11
468.9682718342453
 21
249.1468447735336
 31
0.0
  0
LINE
  5
196
330
6C
100
AcDbEntity
  8
Sichtbare Kanten(DIN)
100
AcDbLine
 10
468.968271834245
 20
22.14684477353401
 30
0.0
 11
457.718271834245
 21
22.14684477353399
 31
0.0
  0
LINE
  5
197
330
6C
100
AcDbEntity
  8
Sichtbare Kanten(DIN)
100
AcDbLine
 10
447.2182718342451
 20
35.64684477353399
 30
0.0
 11
468.968271834245
 21
35.646844773534
 31
0.0
  0
LINE
  5
198
330
6C
100
AcDbEntity
  8
Sichtbare Kanten(DIN)
100
AcDbLine
 10
468.968271834245
 20
22.14684477353397
 30
0.0
 11
473.9682718342464
 21
22.14684477353397
 31
0.0
  0
LINE
  5
199
330
6C
100
AcDbEntity
  8
Sichtbare Kanten(DIN)
100
AcDbLine
 10
473.9682718342464
 20
35.64684477353396
 30
0.0
 11
468.9682718342449
 21
35.64684477353397
 31
0.0
  0
LINE
  5
19A
330
6C
100
AcDbEntity
  8
Sichtbare Kanten(DIN)
100
AcDbLine
 10
471.4682718342544
 20
22.14684477353397
 30
0.0
 11
471.4682718342544
 21
30.64684477353397
 31
0.0
  0
LINE
  5
19B
330
6C
100
AcDbEntity
  8
Sichtbare Kanten(DIN)
100
AcDbLine
 10
473.9682718342544
 20
30.64684477353396
 30
0.0
 11
473.9682718342544
 21
22.14684477353399
 31
0.0
  0
LINE
  5
19C
330
6C
100
AcDbEntity
  8
Sichtbare Kanten(DIN)
100
AcDbLine
 10
471.4682718342544
 20
30.64684477353397
 30
0.0
 11
471.4682718342529
 21
35.64684477353398
 31
0.0
  0
LINE
  5
19D
330
6C
100
AcDbEntity
  8
Sichtbare Kanten(DIN)
100
AcDbLine
 10
473.9682718342529
 20
35.64684477353398
 30
0.0
 11
473.9682718342544
 21
30.64684477353397
 31
0.0
  0
LINE
  5
19E
330
6C
100
AcDbEntity
  8
Sichtbare Kanten(DIN)
100
AcDbLine
 10
471.4682718342532
 20
235.6468447735336
 30
0.0
 11
471.4682718342547
 21
240.6468447735337
 31
0.0
  0
LINE
  5
19F
330
6C
100
AcDbEntity
  8
Sichtbare Kanten(DIN)
100
AcDbLine
 10
473.9682718342548
 20
240.6468447735337
 30
0.0
 11
473.9682718342533
 21
235.6468447735337
 31
0.0
  0
LINE
  5
1A0
330
6C
100
AcDbEntity
  8
Sichtbare Kanten(DIN)
100
AcDbLine
 10
471.4682718342547
 20
240.6468447735337
 30
0.0
 11
471.4682718342547
 21
249.1468447735336
 31
0.0
  0
LINE
  5
1A1
330
6C
100
AcDbEntity
  8
Sichtbare Kanten(DIN)
100
AcDbLine
 10
473.9682718342547
 20
249.1468447735336
 30
0.0
 11
473.9682718342547
 21
240.6468447735337
 31
0.0
  0
LINE
  5
1A2
330
6C
100
AcDbEntity
  8
Sichtbare Kanten(DIN)
100
AcDbLine
 10
426.6682718342452
 20
280.6468447735335
 30
0.0
 11
468.9682718342453
 21
280.6468447735336
 31
0.0
  0
LINE
  5
1A3
330
6C
100
AcDbEntity
  8
Sichtbare Kanten(DIN)
100
AcDbLine
 10
419.9682718342453
 20
280.6468447735335
 30
0.0
 11
424.0682718342453
 21
280.6468447735335
 31
0.0
  0
LINE
  5
1A4
330
6C
100
AcDbEntity
  8
Sichtbare Kanten(DIN)
100
AcDbLine
 10
419.9682718342453
 20
246.6468447735336
 30
0.0
 11
419.9682718342453
 21
280.6468447735335
 31
0.0
  0
LINE
  5
1A5
330
6C
100
AcDbEntity
  8
Sichtbare Kanten(DIN)
100
AcDbLine
 10
419.9682718342452
 20
185.6468447735337
 30
0.0
 11
419.9682718342453
 21
236.6468447735336
 31
0.0
  0
LINE
  5
1A6
330
6C
100
AcDbEntity
  8
Sichtbare Kanten(DIN)
100
AcDbLine
 10
419.9682718342451
 20
126.6468447735338
 30
0.0
 11
419.9682718342452
 21
175.6468447735337
 31
0.0
  0
LINE
  5
1A7
330
6C
100
AcDbEntity
  8
Sichtbare Kanten(DIN)
100
AcDbLine
 10
419.968271834245
 20
66.64684477353389
 30
0.0
 11
419.9682718342451
 21
116.6468447735338
 31
0.0
  0
LINE
  5
1A8
330
6C
100
AcDbEntity
  8
Sichtbare Kanten(DIN)
100
AcDbLine
 10
419.9682718342449
 20
31.64684477353397
 30
0.0
 11
419.968271834245
 21
56.64684477353391
 31
0.0
  0
LINE
  5
1A9
330
6C
100
AcDbEntity
  8
Sichtbare Kanten(DIN)
100
AcDbLine
 10
419.9682718342449
 20
-0.3531552264660187
 30
0.0
 11
419.9682718342449
 21
21.64684477353397
 31
0.0
  0
LINE
  5
1AA
330
6C
100
AcDbEntity
  8
Sichtbare Kanten(DIN)
100
AcDbLine
 10
419.9682718342449
 20
-9.35315522646599
 30
0.0
 11
419.9682718342449
 21
-4.353155226465998
 31
0.0
  0
LINE
  5
1AB
330
6C
100
AcDbEntity
  8
Sichtbare Kanten(DIN)
100
AcDbLine
 10
468.9682718342449
 20
-9.353155226465966
 30
0.0
 11
419.9682718342449
 21
-9.35315522646599
 31
0.0
  0
LINE
  5
1AC
330
6C
100
AcDbEntity
  8
Sichtbare Kanten(DIN)
100
AcDbLine
 10
426.6682718342452
 20
280.6468447735335
 30
0.0
 11
426.6682718342452
 21
270.6468447735336
 31
0.0
  0
LINE
  5
1AD
330
6C
100
AcDbEntity
  8
Sichtbare Kanten(DIN)
100
AcDbLine
 10
426.6682718342452
 20
270.6468447735336
 30
0.0
 11
426.568271834245
 21
270.6468447735336
 31
0.0
  0
LINE
  5
1AE
330
6C
100
AcDbEntity
  8
Sichtbare Kanten(DIN)
100
AcDbLine
 10
419.9682718342453
 20
246.6468447735336
 30
0.0
 11
426.6682718342452
 21
246.6468447735336
 31
0.0
  0
LINE
  5
1AF
330
6C
100
AcDbEntity
  8
Sichtbare Kanten(DIN)
100
AcDbLine
 10
426.6682718342452
 20
246.6468447735336
 30
0.0
 11
426.6682718342452
 21
225.6468447735337
 31
0.0
  0
LINE
  5
1B0
330
6C
100
AcDbEntity
  8
Sichtbare Kanten(DIN)
100
AcDbLine
 10
426.6682718342452
 20
225.6468447735337
 30
0.0
 11
426.568271834245
 21
225.6468447735337
 31
0.0
  0
LINE
  5
1B1
330
6C
100
AcDbEntity
  8
Sichtbare Kanten(DIN)
100
AcDbLine
 10
424.0682718342452
 20
230.7468447735331
 30
0.0
 11
424.0682718342452
 21
236.6468447735336
 31
0.0
  0
LINE
  5
1B2
330
6C
100
AcDbEntity
  8
Sichtbare Kanten(DIN)
100
AcDbLine
 10
424.0682718342452
 20
236.6468447735336
 30
0.0
 11
419.9682718342453
 21
236.6468447735336
 31
0.0
  0
LINE
  5
1B3
330
6C
100
AcDbEntity
  8
Sichtbare Kanten(DIN)
100
AcDbLine
 10
419.9682718342452
 20
185.6468447735337
 30
0.0
 11
426.6682718342452
 21
185.6468447735337
 31
0.0
  0
LINE
  5
1B4
330
6C
100
AcDbEntity
  8
Sichtbare Kanten(DIN)
100
AcDbLine
 10
426.6682718342452
 20
185.6468447735337
 30
0.0
 11
426.6682718342451
 21
164.6468447735337
 31
0.0
  0
LINE
  5
1B5
330
6C
100
AcDbEntity
  8
Sichtbare Kanten(DIN)
100
AcDbLine
 10
426.6682718342451
 20
164.6468447735337
 30
0.0
 11
426.568271834245
 21
164.6468447735337
 31
0.0
  0
LINE
  5
1B6
330
6C
100
AcDbEntity
  8
Sichtbare Kanten(DIN)
100
AcDbLine
 10
424.0682718342451
 20
169.7468447735333
 30
0.0
 11
424.0682718342451
 21
175.6468447735337
 31
0.0
  0
LINE
  5
1B7
330
6C
100
AcDbEntity
  8
Sichtbare Kanten(DIN)
100
AcDbLine
 10
424.0682718342451
 20
175.6468447735337
 30
0.0
 11
419.9682718342452
 21
175.6468447735337
 31
0.0
  0
LINE
  5
1B8
330
6C
100
AcDbEntity
  8
Sichtbare Kanten(DIN)
100
AcDbLine
 10
419.9682718342451
 20
126.6468447735338
 30
0.0
 11
426.6682718342451
 21
126.6468447735338
 31
0.0
  0
LINE
  5
1B9
330
6C
100
AcDbEntity
  8
Sichtbare Kanten(DIN)
100
AcDbLine
 10
426.6682718342451
 20
126.6468447735338
 30
0.0
 11
426.6682718342451
 21
105.6468447735338
 31
0.0
  0
LINE
  5
1BA
330
6C
100
AcDbEntity
  8
Sichtbare Kanten(DIN)
100
AcDbLine
 10
426.6682718342451
 20
105.6468447735338
 30
0.0
 11
426.568271834245
 21
105.6468447735338
 31
0.0
  0
LINE
  5
1BB
330
6C
100
AcDbEntity
  8
Sichtbare Kanten(DIN)
100
AcDbLine
 10
424.0682718342451
 20
110.7468447735334
 30
0.0
 11
424.0682718342451
 21
116.6468447735338
 31
0.0
  0
LINE
  5
1BC
330
6C
100
AcDbEntity
  8
Sichtbare Kanten(DIN)
100
AcDbLine
 10
424.0682718342451
 20
116.6468447735338
 30
0.0
 11
419.9682718342451
 21
116.6468447735338
 31
0.0
  0
LINE
  5
1BD
330
6C
100
AcDbEntity
  8
Sichtbare Kanten(DIN)
100
AcDbLine
 10
419.968271834245
 20
66.64684477353389
 30
0.0
 11
426.668271834245
 21
66.64684477353389
 31
0.0
  0
LINE
  5
1BE
330
6C
100
AcDbEntity
  8
Sichtbare Kanten(DIN)
100
AcDbLine
 10
426.668271834245
 20
66.64684477353389
 30
0.0
 11
426.668271834245
 21
45.64684477353392
 31
0.0
  0
LINE
  5
1BF
330
6C
100
AcDbEntity
  8
Sichtbare Kanten(DIN)
100
AcDbLine
 10
426.668271834245
 20
45.64684477353392
 30
0.0
 11
426.568271834245
 21
45.64684477353392
 31
0.0
  0
LINE
  5
1C0
330
6C
100
AcDbEntity
  8
Sichtbare Kanten(DIN)
100
AcDbLine
 10
424.068271834245
 20
50.74684477353351
 30
0.0
 11
424.068271834245
 21
56.6468447735339
 31
0.0
  0
LINE
  5
1C1
330
6C
100
AcDbEntity
  8
Sichtbare Kanten(DIN)
100
AcDbLine
 10
424.068271834245
 20
56.6468447735339
 30
0.0
 11
419.968271834245
 21
56.6468447735339
 31
0.0
  0
LINE
  5
1C2
330
6C
100
AcDbEntity
  8
Sichtbare Kanten(DIN)
100
AcDbLine
 10
419.9682718342449
 20
31.64684477353397
 30
0.0
 11
426.668271834245
 21
31.64684477353397
 31
0.0
  0
LINE
  5
1C3
330
6C
100
AcDbEntity
  8
Sichtbare Kanten(DIN)
100
AcDbLine
 10
426.668271834245
 20
31.64684477353397
 30
0.0
 11
426.668271834245
 21
10.64684477353397
 31
0.0
  0
LINE
  5
1C4
330
6C
100
AcDbEntity
  8
Sichtbare Kanten(DIN)
100
AcDbLine
 10
426.668271834245
 20
10.64684477353397
 30
0.0
 11
426.568271834245
 21
10.64684477353397
 31
0.0
  0
LINE
  5
1C5
330
6C
100
AcDbEntity
  8
Sichtbare Kanten(DIN)
100
AcDbLine
 10
424.068271834245
 20
15.74684477353356
 30
0.0
 11
424.068271834245
 21
21.64684477353397
 31
0.0
  0
LINE
  5
1C6
330
6C
100
AcDbEntity
  8
Sichtbare Kanten(DIN)
100
AcDbLine
 10
424.068271834245
 20
21.64684477353397
 30
0.0
 11
419.9682718342449
 21
21.64684477353397
 31
0.0
  0
LINE
  5
1C7
330
6C
100
AcDbEntity
  8
Sichtbare Kanten(DIN)
100
AcDbLine
 10
419.9682718342449
 20
-0.3531552264660187
 30
0.0
 11
423.9682718342449
 21
-0.3531552264660143
 31
0.0
  0
LINE
  5
1C8
330
6C
100
AcDbEntity
  8
Sichtbare Kanten(DIN)
100
AcDbLine
 10
423.9682718342449
 20
-0.3531552264660198
 30
0.0
 11
423.9682718342449
 21
-4.353155226465998
 31
0.0
  0
LINE
  5
1C9
330
6C
100
AcDbEntity
  8
Sichtbare Kanten(DIN)
100
AcDbLine
 10
423.9682718342449
 20
-4.353155226465998
 30
0.0
 11
419.9682718342449
 21
-4.353155226466003
 31
0.0
  0
LINE
  5
1CA
330
6C
100
AcDbEntity
  8
Sichtbare Kanten(DIN)
100
AcDbLine
 10
473.9682718342464
 20
-9.353155226465968
 30
0.0
 11
468.9682718342449
 21
-9.353155226465961
 31
0.0
  0
LINE
  5
1CB
330
6C
100
AcDbEntity
  8
Sichtbare Kanten(DIN)
100
AcDbLine
 10
473.9682718342464
 20
-9.353155226465968
 30
0.0
 11
473.9682718342465
 21
22.14684477353397
 31
0.0
  0
LINE
  5
1CC
330
6C
100
AcDbEntity
  8
Sichtbare Kanten(DIN)
100
AcDbLine
 10
473.9682718342471
 20
249.1468447735336
 30
0.0
 11
473.9682718342468
 21
280.6468447735336
 31
0.0
  0
LINE
  5
1CD
330
6C
100
AcDbEntity
  8
Sichtbare Kanten(DIN)
100
AcDbLine
 10
473.9682718342468
 20
280.6468447735336
 30
0.0
 11
468.9682718342453
 21
280.6468447735336
 31
0.0
  0
LINE
  5
1CE
330
6C
100
AcDbEntity
  8
Sichtbare Kanten(DIN)
100
AcDbLine
 10
473.9682718342465
 20
35.64684477353396
 30
0.0
 11
473.9682718342471
 21
235.6468447735336
 31
0.0
  0
LINE
  5
1CF
330
6C
100
AcDbEntity
  8
Sichtbare Kanten(DIN)
100
AcDbLine
 10
293.5682718342323
 20
275.6468447735336
 30
0.0
 11
295.2480294631854
 21
275.6468447735336
 31
0.0
  0
LINE
  5
1D0
330
6C
100
AcDbEntity
  8
Sichtbare Kanten(DIN)
100
AcDbLine
 10
293.5682718342323
 20
273.6468447735336
 30
0.0
 11
293.5682718342323
 21
275.6468447735336
 31
0.0
  0
LINE
  5
1D1
330
6C
100
AcDbEntity
  8
Sichtbare Kanten(DIN)
100
AcDbLine
 10
293.4978154349123
 20
271.6468447735337
 30
0.0
 11
293.4211647444847
 21
271.6468447735337
 31
0.0
  0
LINE
  5
1D2
330
6C
100
AcDbEntity
  8
Sichtbare Kanten(DIN)
100
AcDbLine
 10
293.4211647444847
 20
235.6468447735336
 30
0.0
 11
293.4978154349123
 21
235.6468447735336
 31
0.0
  0
LINE
  5
1D3
330
6C
100
AcDbEntity
  8
Sichtbare Kanten(DIN)
100
AcDbLine
 10
295.2480294631854
 20
273.6468447735336
 30
0.0
 11
293.5682718342323
 21
273.6468447735336
 31
0.0
  0
LINE
  5
1D4
330
6C
100
AcDbEntity
  8
Sichtbare Kanten(DIN)
100
AcDbLine
 10
295.2480294631854
 20
275.6468447735336
 30
0.0
 11
295.2480294631854
 21
273.6468447735336
 31
0.0
  0
ELLIPSE
  5
1D5
330
6C
100
AcDbEntity
  8
Sichtbare Kanten(DIN)
100
AcDbEllipse
 10
295.2480294631853
 20
271.6468447735336
 30
0.0
 11
-0.0000000000000044
 21
4.000000000000026
 31
0.0
210
0.0
220
0.0
230
1.0
 40
0.3621892135499017
 41
4.712388980384751
 42
6.283185307179695
  0
ELLIPSE
  5
1D6
330
6C
100
AcDbEntity
  8
Sichtbare Kanten(DIN)
100
AcDbEllipse
 10
295.2480294631853
 20
271.6468447735337
 30
0.0
 11
-0.0000000000000152
 21
2.000000000000001
 31
0.0
210
0.0
220
0.0
230
1.0
 40
0.3621892135499011
 41
4.712388980384687
 42
6.283185307179556
  0
LINE
  5
1D7
330
6C
100
AcDbEntity
  8
Sichtbare Kanten(DIN)
100
AcDbLine
 10
293.4211647444847
 20
235.6468447735336
 30
0.0
 11
293.4211647444847
 21
271.6468447735337
 31
0.0
  0
LINE
  5
1D8
330
6C
100
AcDbEntity
  8
Sichtbare Kanten(DIN)
100
AcDbLine
 10
295.2480294631854
 20
275.6468447735336
 30
0.0
 11
419.9682718342472
 21
275.6468447735336
 31
0.0
  0
ELLIPSE
  5
1D9
330
6C
100
AcDbEntity
  8
Sichtbare Kanten(DIN)
100
AcDbEllipse
 10
297.7146054439101
 20
252.6468447735336
 30
0.0
 11
0.0
 21
6.5
 31
0.0
210
0.0
220
0.0
230
1.0
 40
0.1948284814711525
 41
0.0
 42
6.283185307179585
  0
ELLIPSE
  5
1DA
330
6C
100
AcDbEntity
  8
Sichtbare Kanten(DIN)
100
AcDbEllipse
 10
299.6762800986962
 20
252.6468447735336
 30
0.0
 11
0.0000000000001274
 21
-6.499999999999996
 31
0.0
210
0.0
220
0.0
230
1.0
 40
0.1948284814711537
 41
4.027544463112223
 42
5.397233497652974
  0
ELLIPSE
  5
1DB
330
6C
100
AcDbEntity
  8
Sichtbare Kanten(DIN)
100
AcDbEllipse
 10
297.7146054439101
 20
250.6468447735336
 30
0.0
 11
-0.0000000000000131
 21
-14.99999999999997
 31
0.0
210
0.0
220
0.0
230
1.0
 40
0.1948284814711523
 41
0.0
 42
1.570796326794892
  0
LINE
  5
1DC
330
6C
100
AcDbEntity
  8
Sichtbare Kanten(DIN)
100
AcDbLine
 10
297.7146054439101
 20
235.6468447735335
 30
0.0
 11
299.6762800986962
 21
235.6468447735335
 31
0.0
  0
ELLIPSE
  5
1DD
330
6C
100
AcDbEntity
  8
Sichtbare Kanten(DIN)
100
AcDbEllipse
 10
299.6762800986962
 20
250.6468447735336
 30
0.0
 11
-0.0000000000000155
 21
-14.99999999999998
 31
0.0
210
0.0
220
0.0
230
1.0
 40
0.1948284814711524
 41
0.0000000000001273
 42
1.570796326794963
  0
ELLIPSE
  5
1DE
330
6C
100
AcDbEntity
  8
Sichtbare Kanten(DIN)
100
AcDbEllipse
 10
299.6762800986963
 20
256.6468447735336
 30
0.0
 11
0.0000000000000073
 21
14.99999999999999
 31
0.0
210
0.0
220
0.0
230
1.0
 40
0.1948284814711523
 41
4.712388980384684
 42
6.283185307179659
  0
ELLIPSE
  5
1DF
330
6C
100
AcDbEntity
  8
Sichtbare Kanten(DIN)
100
AcDbEllipse
 10
297.7146054439101
 20
256.6468447735336
 30
0.0
 11
0.0000000000000011
 21
14.99999999999998
 31
0.0
210
0.0
220
0.0
230
1.0
 40
0.1948284814711525
 41
4.712388980384684
 42
6.283185307179586
  0
LINE
  5
1E0
330
6C
100
AcDbEntity
  8
Sichtbare Kanten(DIN)
100
AcDbLine
 10
299.6762800986962
 20
271.6468447735336
 30
0.0
 11
297.7146054439101
 21
271.6468447735336
 31
0.0
  0
LINE
  5
1E1
330
6C
100
AcDbEntity
  8
Sichtbare Kanten(DIN)
100
AcDbLine
 10
302.5987073207635
 20
256.6468447735335
 30
0.0
 11
302.5987073207635
 21
250.6468447735335
 31
0.0
  0
LINE
  5
1E2
330
6C
100
AcDbEntity
  8
Sichtbare Kanten(DIN)
100
AcDbLine
 10
300.6370326659773
 20
256.6468447735335
 30
0.0
 11
300.6370326659773
 21
250.6468447735335
 31
0.0
  0
LINE
  5
1E3
330
6C
100
AcDbEntity
  8
Sichtbare Kanten(DIN)
100
AcDbLine
 10
293.4978154349124
 20
271.6468447735337
 30
0.0
 11
297.7146054439101
 21
271.6468447735336
 31
0.0
  0
LINE
  5
1E4
330
6C
100
AcDbEntity
  8
Sichtbare Kanten(DIN)
100
AcDbLine
 10
297.7146054439101
 20
235.6468447735335
 30
0.0
 11
293.4978154349124
 21
235.6468447735336
 31
0.0
  0
LINE
  5
1E5
330
6C
100
AcDbEntity
  8
Sichtbare Kanten(DIN)
100
AcDbLine
 10
419.9682718342459
 20
235.6468447735335
 30
0.0
 11
299.6762800987035
 21
235.6468447735336
 31
0.0
  0
LINE
  5
1E6
330
6C
100
AcDbEntity
  8
Sichtbare Kanten(DIN)
100
AcDbLine
 10
423.5682718342459
 20
246.6468447735341
 30
0.0
 11
423.5682718342459
 21
236.6468447735341
 31
0.0
  0
LINE
  5
1E7
330
6C
100
AcDbEntity
  8
Sichtbare Kanten(DIN)
100
AcDbLine
 10
419.9682718342418
 20
-4.353155226466416
 30
0.0
 11
295.2480294631905
 21
-4.353155226466416
 31
0.0
  0
SPLINE
  5
1E8
330
6C
100
AcDbEntity
  8
Sichtbare Kanten(DIN)
100
AcDbSpline
210
0.0
220
0.0
230
1.0
 70
     8
 71
     3
 72
    11
 73
     7
 74
     0
 42
0.0000000001
 43
0.0000000001
 40
0.0
 40
0.0
 40
0.0
 40
0.0
 40
0.9901160633031611
 40
0.9901160633031611
 40
0.9901160633031611
 40
1.570796326794892
 40
1.570796326794892
 40
1.570796326794892
 40
1.570796326794892
 10
423.568271834246
 20
-0.353155226466394
 30
0.0
 10
423.8726689116383
 20
-1.67330997753727
 30
0.0
 10
423.9228595166934
 20
-2.973286425114133
 30
0.0
 10
423.8274838275337
 20
-3.697513849374727
 30
0.0
 10
423.7715481828507
 20
-4.122256550896593
 30
0.0
 10
423.6701714641833
 20
-4.353155226466392
 30
0.0
 10
423.5682718342473
 20
-4.3531552264664
 30
0.0
  0
LINE
  5
1E9
330
6C
100
AcDbEntity
  8
Sichtbare Kanten(DIN)
100
AcDbLine
 10
295.2480294631905
 20
-4.353155226466416
 30
0.0
 11
293.5682718342377
 21
-4.353155226466416
 31
0.0
  0
LINE
  5
1EA
330
6C
100
AcDbEntity
  8
Sichtbare Kanten(DIN)
100
AcDbLine
 10
293.4978154349176
 20
35.64684477353361
 30
0.0
 11
293.42116474449
 21
35.64684477353361
 31
0.0
  0
LINE
  5
1EB
330
6C
100
AcDbEntity
  8
Sichtbare Kanten(DIN)
100
AcDbLine
 10
293.42116474449
 20
-0.3531552264663962
 30
0.0
 11
293.4978154349176
 21
-0.3531552264663951
 31
0.0
  0
LINE
  5
1EC
330
6C
100
AcDbEntity
  8
Sichtbare Kanten(DIN)
100
AcDbLine
 10
293.5682718342377
 20
-4.353155226466416
 30
0.0
 11
293.5682718342377
 21
-2.353155226466423
 31
0.0
  0
LINE
  5
1ED
330
6C
100
AcDbEntity
  8
Sichtbare Kanten(DIN)
100
AcDbLine
 10
295.2480294631905
 20
-4.353155226466416
 30
0.0
 11
295.2480294631905
 21
-2.353155226466423
 31
0.0
  0
LINE
  5
1EE
330
6C
100
AcDbEntity
  8
Sichtbare Kanten(DIN)
100
AcDbLine
 10
293.5682718342377
 20
-2.353155226466423
 30
0.0
 11
295.2480294631905
 21
-2.353155226466423
 31
0.0
  0
ELLIPSE
  5
1EF
330
6C
100
AcDbEntity
  8
Sichtbare Kanten(DIN)
100
AcDbEllipse
 10
295.2480294631905
 20
-0.3531552264664223
 30
0.0
 11
0.0000000000000006
 21
-3.999999999999983
 31
0.0
210
0.0
220
0.0
230
1.0
 40
0.3621892135498872
 41
0.0
 42
1.570796326794905
  0
ELLIPSE
  5
1F0
330
6C
100
AcDbEntity
  8
Sichtbare Kanten(DIN)
100
AcDbEllipse
 10
295.2480294631905
 20
-0.3531552264664062
 30
0.0
 11
0.0000000000000044
 21
-2.000000000000008
 31
0.0
210
0.0
220
0.0
230
1.0
 40
0.362189213549879
 41
0.0
 42
1.570796326794891
  0
LINE
  5
1F1
330
6C
100
AcDbEntity
  8
Sichtbare Kanten(DIN)
100
AcDbLine
 10
293.4211647444901
 20
-0.3531552264663951
 30
0.0
 11
293.42116474449
 21
35.64684477353362
 31
0.0
  0
ELLIPSE
  5
1F2
330
6C
100
AcDbEntity
  8
Sichtbare Kanten(DIN)
100
AcDbEllipse
 10
297.7146054439152
 20
18.64684477353368
 30
0.0
 11
0.0
 21
6.5
 31
0.0
210
0.0
220
0.0
230
1.0
 40
0.1948284814711456
 41
0.0
 42
6.283185307179585
  0
ELLIPSE
  5
1F3
330
6C
100
AcDbEntity
  8
Sichtbare Kanten(DIN)
100
AcDbEllipse
 10
299.6762800987013
 20
18.64684477353367
 30
0.0
 11
0.0000000000001373
 21
-6.500000000000019
 31
0.0
210
0.0
220
0.0
230
1.0
 40
0.1948284814711471
 41
4.027544463112198
 42
5.397233497653004
  0
ELLIPSE
  5
1F4
330
6C
100
AcDbEntity
  8
Sichtbare Kanten(DIN)
100
AcDbEllipse
 10
297.7146054439152
 20
20.64684477353365
 30
0.0
 11
0.0000000000000011
 21
15.0
 31
0.0
210
0.0
220
0.0
230
1.0
 40
0.1948284814711461
 41
4.712388980384629
 42
6.283185307179464
  0
ELLIPSE
  5
1F5
330
6C
100
AcDbEntity
  8
Sichtbare Kanten(DIN)
100
AcDbEllipse
 10
299.6762800987013
 20
20.64684477353365
 30
0.0
 11
0.0000000000000053
 21
14.99999999999998
 31
0.0
210
0.0
220
0.0
230
1.0
 40
0.1948284814711463
 41
4.71238898038469
 42
6.28318530717957
  0
LINE
  5
1F6
330
6C
100
AcDbEntity
  8
Sichtbare Kanten(DIN)
100
AcDbLine
 10
299.6762800987012
 20
35.64684477353364
 30
0.0
 11
297.7146054439152
 21
35.64684477353364
 31
0.0
  0
ELLIPSE
  5
1F7
330
6C
100
AcDbEntity
  8
Sichtbare Kanten(DIN)
100
AcDbEllipse
 10
299.6762800987013
 20
14.64684477353363
 30
0.0
 11
-0.0000000000000022
 21
-15.0
 31
0.0
210
0.0
220
0.0
230
1.0
 40
0.1948284814711448
 41
0.0
 42
1.570796326794837
  0
ELLIPSE
  5
1F8
330
6C
100
AcDbEntity
  8
Sichtbare Kanten(DIN)
100
AcDbEllipse
 10
297.7146054439152
 20
14.64684477353364
 30
0.0
 11
-0.0000000000000045
 21
-14.99999999999999
 31
0.0
210
0.0
220
0.0
230
1.0
 40
0.1948284814711449
 41
0.0
 42
1.5707963267949
  0
LINE
  5
1F9
330
6C
100
AcDbEntity
  8
Sichtbare Kanten(DIN)
100
AcDbLine
 10
297.7146054439152
 20
-0.3531552264663595
 30
0.0
 11
299.6762800987012
 21
-0.3531552264663595
 31
0.0
  0
LINE
  5
1FA
330
6C
100
AcDbEntity
  8
Sichtbare Kanten(DIN)
100
AcDbLine
 10
293.4978154349176
 20
35.6468447735336
 30
0.0
 11
297.7146054439152
 21
35.64684477353364
 31
0.0
  0
LINE
  5
1FB
330
6C
100
AcDbEntity
  8
Sichtbare Kanten(DIN)
100
AcDbLine
 10
302.5987073207685
 20
20.64684477353365
 30
0.0
 11
302.5987073207685
 21
14.64684477353365
 31
0.0
  0
LINE
  5
1FC
330
6C
100
AcDbEntity
  8
Sichtbare Kanten(DIN)
100
AcDbLine
 10
297.7146054439152
 20
-0.3531552264663595
 30
0.0
 11
293.4978154349177
 21
-0.3531552264663951
 31
0.0
  0
LINE
  5
1FD
330
6C
100
AcDbEntity
  8
Sichtbare Kanten(DIN)
100
AcDbLine
 10
300.6370326659824
 20
20.64684477353365
 30
0.0
 11
300.6370326659824
 21
14.64684477353365
 31
0.0
  0
LINE
  5
1FE
330
6C
100
AcDbEntity
  8
Sichtbare Kanten(DIN)
100
AcDbLine
 10
423.568271834246
 20
31.64684477353402
 30
0.0
 11
423.568271834246
 21
21.64684477353402
 31
0.0
  0
LINE
  5
1FF
330
6C
100
AcDbEntity
  8
Sichtbare Kanten(DIN)
100
AcDbLine
 10
299.6762800987085
 20
35.6468447735336
 30
0.0
 11
419.9682718342406
 21
35.64684477353359
 31
0.0
  0
LINE
  5
200
330
6C
100
AcDbEntity
  8
Sichtbare Kanten(DIN)
100
AcDbLine
 10
473.9682718342473
 20
75.64684477353361
 30
0.0
 11
474.0682718342473
 21
75.64684477353361
 31
0.0
  0
LINE
  5
201
330
6C
100
AcDbEntity
  8
Sichtbare Kanten(DIN)
100
AcDbLine
 10
474.0682718342473
 20
75.64684477353361
 30
0.0
 11
474.0682718342475
 21
215.6468447735336
 31
0.0
  0
LINE
  5
202
330
6C
100
AcDbEntity
  8
Sichtbare Kanten(DIN)
100
AcDbLine
 10
473.9682718342475
 20
215.6468447735336
 30
0.0
 11
474.0682718342475
 21
215.6468447735336
 31
0.0
  0
LINE
  5
203
330
6C
100
AcDbEntity
  8
Sichtbare Kanten(DIN)
100
AcDbLine
 10
423.968271834247
 20
-2.353155226466423
 30
0.0
 11
423.8570941710964
 21
-2.353155226466423
 31
0.0
  0
LINE
  5
204
330
6C
100
AcDbEntity
  8
Sichtbare Kanten(DIN)
100
AcDbLine
 10
418.1040626468548
 20
21.64684477353402
 30
0.0
 11
418.1040626468547
 21
-0.3531552264662174
 31
0.0
  0
LINE
  5
205
330
6C
100
AcDbEntity
  8
Sichtbare Kanten(DIN)
100
AcDbLine
 10
418.1040626468547
 20
-0.3531552264662174
 30
0.0
 11
419.9682718342449
 21
-0.3531552264662174
 31
0.0
  0
LINE
  5
206
330
6C
100
AcDbEntity
  8
Sichtbare Kanten(DIN)
100
AcDbLine
 10
418.1040626468548
 20
21.64684477353402
 30
0.0
 11
419.968271834245
 21
21.64684477353402
 31
0.0
  0
LINE
  5
207
330
6C
100
AcDbEntity
  8
Sichtbare Kanten(DIN)
100
AcDbLine
 10
418.1040626468551
 20
271.6468447735335
 30
0.0
 11
418.104062646855
 21
246.6468447735341
 31
0.0
  0
LINE
  5
208
330
6C
100
AcDbEntity
  8
Sichtbare Kanten(DIN)
100
AcDbLine
 10
418.104062646855
 20
246.6468447735341
 30
0.0
 11
419.9682718342453
 21
246.6468447735341
 31
0.0
  0
LINE
  5
209
330
6C
100
AcDbEntity
  8
Sichtbare Kanten(DIN)
100
AcDbLine
 10
418.1040626468551
 20
271.6468447735335
 30
0.0
 11
419.9682718342453
 21
271.6468447735335
 31
0.0
  0
LINE
  5
20A
330
6C
100
AcDbEntity
  8
Sichtbare Kanten(DIN)
100
AcDbLine
 10
108.9314304776543
 20
-214.2590546415449
 30
0.0
 11
108.9314304776543
 21
-216.7590546415449
 31
0.0
  0
LINE
  5
20B
330
6C
100
AcDbEntity
  8
Sichtbare Kanten(DIN)
100
AcDbLine
 10
104.9314304776544
 20
-214.2590546415449
 30
0.0
 11
108.9314304776543
 21
-214.2590546415449
 31
0.0
  0
LINE
  5
20C
330
6C
100
AcDbEntity
  8
Sichtbare Kanten(DIN)
100
AcDbLine
 10
104.9314304776544
 20
-216.7590546415449
 30
0.0
 11
104.9314304776544
 21
-214.2590546415449
 31
0.0
  0
LINE
  5
20D
330
6C
100
AcDbEntity
  8
Sichtbare Kanten(DIN)
100
AcDbLine
 10
108.9314304776543
 20
-216.7590546415449
 30
0.0
 11
104.9314304776544
 21
-216.7590546415449
 31
0.0
  0
LINE
  5
20E
330
6C
100
AcDbEntity
  8
Sichtbare Kanten(DIN)
100
AcDbLine
 10
79.43143047765438
 20
-216.7590546415449
 30
0.0
 11
104.9314304776544
 21
-216.7590546415449
 31
0.0
  0
LINE
  5
20F
330
6C
100
AcDbEntity
  8
Sichtbare Kanten(DIN)
100
AcDbLine
 10
108.9314304776543
 20
-216.7590546415449
 30
0.0
 11
134.4314304776544
 21
-216.7590546415449
 31
0.0
  0
LINE
  5
210
330
6C
100
AcDbEntity
  8
Sichtbare Kanten(DIN)
100
AcDbLine
 10
79.43143047765438
 20
-214.2590546415449
 30
0.0
 11
104.9314304776544
 21
-214.2590546415449
 31
0.0
  0
LINE
  5
211
330
6C
100
AcDbEntity
  8
Sichtbare Kanten(DIN)
100
AcDbLine
 10
79.43143047765438
 20
-214.2590546415449
 30
0.0
 11
79.43143047765438
 21
-216.7590546415449
 31
0.0
  0
LINE
  5
212
330
6C
100
AcDbEntity
  8
Sichtbare Kanten(DIN)
100
AcDbLine
 10
134.4314304776544
 20
-214.2590546415449
 30
0.0
 11
134.4314304776544
 21
-216.7590546415449
 31
0.0
  0
LINE
  5
213
330
6C
100
AcDbEntity
  8
Sichtbare Kanten(DIN)
100
AcDbLine
 10
108.9314304776543
 20
-214.2590546415449
 30
0.0
 11
134.4314304776544
 21
-214.2590546415449
 31
0.0
  0
LINE
  5
214
330
6C
100
AcDbEntity
  8
Sichtbare Kanten(DIN)
100
AcDbLine
 10
129.4314304776544
 20
-216.8590546415452
 30
0.0
 11
129.4314304776544
 21
-259.1590546415448
 31
0.0
  0
LINE
  5
215
330
6C
100
AcDbEntity
  8
Sichtbare Kanten(DIN)
100
AcDbLine
 10
129.4314304776544
 20
-216.8590546415481
 30
0.0
 11
129.4314304776544
 21
-216.7590546415478
 31
0.0
  0
LINE
  5
216
330
6C
100
AcDbEntity
  8
Sichtbare Kanten(DIN)
100
AcDbLine
 10
129.4314304776544
 20
-210.1590546415452
 30
0.0
 11
129.4314304776544
 21
-214.2590546415452
 31
0.0
  0
LINE
  5
217
330
6C
100
AcDbEntity
  8
Sichtbare Kanten(DIN)
100
AcDbLine
 10
131.9314304776544
 20
-216.8590546415452
 30
0.0
 11
131.9314304776544
 21
-259.1590546415448
 31
0.0
  0
LINE
  5
218
330
6C
100
AcDbEntity
  8
Sichtbare Kanten(DIN)
100
AcDbLine
 10
131.9314304776544
 20
-216.7590546415478
 30
0.0
 11
131.9314304776544
 21
-216.8590546415481
 31
0.0
  0
LINE
  5
219
330
6C
100
AcDbEntity
  8
Sichtbare Kanten(DIN)
100
AcDbLine
 10
131.9314304776544
 20
-210.1590546415452
 30
0.0
 11
129.4314304776544
 21
-210.1590546415452
 31
0.0
  0
LINE
  5
21A
330
6C
100
AcDbEntity
  8
Sichtbare Kanten(DIN)
100
AcDbLine
 10
131.9314304776544
 20
-210.1590546415452
 30
0.0
 11
131.9314304776544
 21
-214.2590546415452
 31
0.0
  0
LINE
  5
21B
330
6C
100
AcDbEntity
  8
Sichtbare Kanten(DIN)
100
AcDbLine
 10
108.6814304776544
 20
-264.1590546415585
 30
0.0
 11
100.1814304776545
 21
-264.1590546415585
 31
0.0
  0
LINE
  5
21C
330
6C
100
AcDbEntity
  8
Sichtbare Kanten(DIN)
100
AcDbLine
 10
100.1814304776545
 20
-261.6590546415588
 30
0.0
 11
108.6814304776544
 21
-261.6590546415586
 31
0.0
  0
LINE
  5
21D
330
6C
100
AcDbEntity
  8
Sichtbare Kanten(DIN)
100
AcDbLine
 10
100.1814304776545
 20
-264.1590546415453
 30
0.0
 11
100.1814304776545
 21
-261.6590546415452
 31
0.0
  0
LINE
  5
21E
330
6C
100
AcDbEntity
  8
Sichtbare Kanten(DIN)
100
AcDbLine
 10
108.6814304776545
 20
-261.6590546415586
 30
0.0
 11
113.6814304776545
 21
-261.6590546415571
 31
0.0
  0
LINE
  5
21F
330
6C
100
AcDbEntity
  8
Sichtbare Kanten(DIN)
100
AcDbLine
 10
113.6814304776544
 20
-264.1590546415571
 30
0.0
 11
108.6814304776545
 21
-264.1590546415585
 31
0.0
  0
LINE
  5
220
330
6C
100
AcDbEntity
  8
Sichtbare Kanten(DIN)
100
AcDbLine
 10
113.6814304776544
 20
-261.6590546415452
 30
0.0
 11
113.6814304776544
 21
-264.1590546415453
 31
0.0
  0
LINE
  5
221
330
6C
100
AcDbEntity
  8
Sichtbare Kanten(DIN)
100
AcDbLine
 10
81.93143047765452
 20
-216.8590546415452
 30
0.0
 11
81.93143047765452
 21
-259.1590546415452
 31
0.0
  0
LINE
  5
222
330
6C
100
AcDbEntity
  8
Sichtbare Kanten(DIN)
100
AcDbLine
 10
81.93143047765454
 20
-210.1590546415452
 30
0.0
 11
81.93143047765452
 21
-214.2590546415452
 31
0.0
  0
LINE
  5
223
330
6C
100
AcDbEntity
  8
Sichtbare Kanten(DIN)
100
AcDbLine
 10
84.43143047765452
 20
-259.1590546415452
 30
0.0
 11
84.43143047765452
 21
-216.8590546415452
 31
0.0
  0
LINE
  5
224
330
6C
100
AcDbEntity
  8
Sichtbare Kanten(DIN)
100
AcDbLine
 10
84.43143047765452
 20
-214.2590546415452
 30
0.0
 11
84.43143047765452
 21
-210.1590546415452
 31
0.0
  0
LINE
  5
225
330
6C
100
AcDbEntity
  8
Sichtbare Kanten(DIN)
100
AcDbLine
 10
84.43143047765452
 20
-210.1590546415452
 30
0.0
 11
81.93143047765454
 21
-210.1590546415452
 31
0.0
  0
LINE
  5
226
330
6C
100
AcDbEntity
  8
Sichtbare Kanten(DIN)
100
AcDbLine
 10
81.93143047765452
 20
-216.8590546415481
 30
0.0
 11
81.93143047765452
 21
-216.7590546415478
 31
0.0
  0
LINE
  5
227
330
6C
100
AcDbEntity
  8
Sichtbare Kanten(DIN)
100
AcDbLine
 10
131.9314304776544
 20
-216.8590546415452
 30
0.0
 11
129.4314304776544
 21
-216.8590546415452
 31
0.0
  0
LINE
  5
228
330
6C
100
AcDbEntity
  8
Sichtbare Kanten(DIN)
100
AcDbLine
 10
84.43143047765452
 20
-216.8590546415452
 30
0.0
 11
81.93143047765452
 21
-216.8590546415452
 31
0.0
  0
LINE
  5
229
330
6C
100
AcDbEntity
  8
Sichtbare Kanten(DIN)
100
AcDbLine
 10
81.93143047765452
 20
-214.2590546415452
 30
0.0
 11
84.43143047765452
 21
-214.2590546415452
 31
0.0
  0
LINE
  5
22A
330
6C
100
AcDbEntity
  8
Sichtbare Kanten(DIN)
100
AcDbLine
 10
129.4314304776544
 20
-214.2590546415452
 30
0.0
 11
131.9314304776544
 21
-214.2590546415452
 31
0.0
  0
LINE
  5
22B
330
6C
100
AcDbEntity
  8
Sichtbare Kanten(DIN)
100
AcDbLine
 10
84.43143047765452
 20
-216.7590546415478
 30
0.0
 11
84.43143047765452
 21
-216.8590546415481
 31
0.0
  0
ARC
  5
22C
330
6C
100
AcDbEntity
  8
Sichtbare Kanten(DIN)
100
AcDbCircle
 10
86.93143047765452
 20
-259.1590546415452
 30
0.0
 40
5.000000000000008
100
AcDbArc
 50
180.0
 51
270.0000000000041
  0
ARC
  5
22D
330
6C
100
AcDbEntity
  8
Sichtbare Kanten(DIN)
100
AcDbCircle
 10
86.93143047765451
 20
-259.1590546415452
 30
0.0
 40
2.5
100
AcDbArc
 50
180.0
 51
270.0000000000085
  0
LINE
  5
22E
330
6C
100
AcDbEntity
  8
Sichtbare Kanten(DIN)
100
AcDbLine
 10
100.1814304776545
 20
-264.1590546415453
 30
0.0
 11
86.93143047765488
 21
-264.1590546415453
 31
0.0
  0
LINE
  5
22F
330
6C
100
AcDbEntity
  8
Sichtbare Kanten(DIN)
100
AcDbLine
 10
126.9314304776544
 20
-264.1590546415453
 30
0.0
 11
113.6814304776544
 21
-264.1590546415453
 31
0.0
  0
LINE
  5
230
330
6C
100
AcDbEntity
  8
Sichtbare Kanten(DIN)
100
AcDbLine
 10
126.9314304776544
 20
-261.6590546415452
 30
0.0
 11
113.6814304776544
 21
-261.6590546415452
 31
0.0
  0
LINE
  5
231
330
6C
100
AcDbEntity
  8
Sichtbare Kanten(DIN)
100
AcDbLine
 10
100.1814304776545
 20
-261.6590546415452
 30
0.0
 11
86.93143047765488
 21
-261.6590546415452
 31
0.0
  0
ARC
  5
232
330
6C
100
AcDbEntity
  8
Sichtbare Kanten(DIN)
100
AcDbCircle
 10
126.9314304776544
 20
-259.1590546415452
 30
0.0
 40
5.000000000000012
100
AcDbArc
 50
270.0
 51
0.0
  0
ARC
  5
233
330
6C
100
AcDbEntity
  8
Sichtbare Kanten(DIN)
100
AcDbCircle
 10
126.9314304776544
 20
-259.1590546415452
 30
0.0
 40
2.499999999999992
100
AcDbArc
 50
269.9999999999996
 51
0.0
  0
ARC
  5
234
330
6C
100
AcDbEntity
  8
Sichtbare Kanten(DIN)
100
AcDbCircle
 10
106.9314304776544
 20
-83.75905464154634
 30
0.0
 40
1.999999999999999
100
AcDbArc
 50
180.0
 51
0.0
  0
LINE
  5
235
330
6C
100
AcDbEntity
  8
Sichtbare Kanten(DIN)
100
AcDbLine
 10
104.9314304776544
 20
-83.75905464154634
 30
0.0
 11
39.20850865863942
 21
-83.75905464154632
 31
0.0
  0
LINE
  5
236
330
6C
100
AcDbEntity
  8
Sichtbare Kanten(DIN)
100
AcDbLine
 10
174.6543522966693
 20
-83.75905464154639
 30
0.0
 11
108.9314304776543
 21
-83.75905464154635
 31
0.0
  0
LINE
  5
237
330
6C
100
AcDbEntity
  8
Sichtbare Kanten(DIN)
100
AcDbLine
 10
39.20850865863942
 20
-83.75905464154632
 30
0.0
 11
39.86121448017537
 21
-85.43881227049915
 31
0.0
  0
LINE
  5
238
330
6C
100
AcDbEntity
  8
Sichtbare Kanten(DIN)
100
AcDbLine
 10
174.0016464751334
 20
-85.4388122704992
 30
0.0
 11
174.6543522966693
 21
-83.75905464154639
 31
0.0
  0
ARC
  5
239
330
6C
100
AcDbEntity
  8
Sichtbare Kanten(DIN)
100
AcDbCircle
 10
34.26858691800352
 20
-87.6119475518014
 30
0.0
 40
3.999999999999995
100
AcDbArc
 50
21.23470413425397
 51
101.2347041342537
  0
ARC
  5
23A
330
6C
100
AcDbEntity
  8
Sichtbare Kanten(DIN)
100
AcDbCircle
 10
34.26858691800352
 20
-87.6119475518014
 30
0.0
 40
2.000000000000015
100
AcDbArc
 50
21.23470413425381
 51
101.2347041342535
  0
ARC
  5
23B
330
6C
100
AcDbEntity
  8
Sichtbare Kanten(DIN)
100
AcDbCircle
 10
179.5942740373052
 20
-87.61194755180142
 30
0.0
 40
3.999999999999977
100
AcDbArc
 50
78.765295865746
 51
158.765295865746
  0
ARC
  5
23C
330
6C
100
AcDbEntity
  8
Sichtbare Kanten(DIN)
100
AcDbCircle
 10
179.5942740373052
 20
-87.61194755180143
 30
0.0
 40
2.000000000000007
100
AcDbArc
 50
78.76529586574559
 51
158.7652958657462
  0
LINE
  5
23D
330
6C
100
AcDbEntity
  8
Sichtbare Kanten(DIN)
100
AcDbLine
 10
174.0016464751334
 20
-85.4388122704992
 30
0.0
 11
177.7300648499146
 21
-86.88756912470109
 31
0.0
  0
LINE
  5
23E
330
6C
100
AcDbEntity
  8
Sichtbare Kanten(DIN)
100
AcDbLine
 10
36.13279610539411
 20
-86.887569124701
 30
0.0
 11
39.86121448017535
 21
-85.4388122704991
 31
0.0
  0
LINE
  5
23F
330
6C
100
AcDbEntity
  8
Sichtbare Kanten(DIN)
100
AcDbLine
 10
-2.452139144962401
 20
-90.82781547330933
 30
0.0
 11
-2.062482182019511
 21
-92.78949012809542
 31
0.0
  0
LINE
  5
240
330
6C
100
AcDbEntity
  8
Sichtbare Kanten(DIN)
100
AcDbLine
 10
12.65007772887616
 20
-89.86706290601935
 30
0.0
 11
-2.062482182019511
 21
-92.78949012809546
 31
0.0
  0
LINE
  5
241
330
6C
100
AcDbEntity
  8
Sichtbare Kanten(DIN)
100
AcDbLine
 10
-2.452139144962404
 20
-90.82781547330936
 30
0.0
 11
12.26042076593325
 21
-87.90538825123325
 31
0.0
  0
LINE
  5
242
330
6C
100
AcDbEntity
  8
Sichtbare Kanten(DIN)
100
AcDbLine
 10
215.9253431373283
 20
-92.78949012809547
 30
0.0
 11
201.2127832264327
 21
-89.86706290601937
 31
0.0
  0
LINE
  5
243
330
6C
100
AcDbEntity
  8
Sichtbare Kanten(DIN)
100
AcDbLine
 10
201.6024401893756
 20
-87.90538825123332
 30
0.0
 11
216.3150001002712
 21
-90.82781547330942
 31
0.0
  0
LINE
  5
244
330
6C
100
AcDbEntity
  8
Sichtbare Kanten(DIN)
100
AcDbLine
 10
215.9253431373283
 20
-92.78949012809549
 30
0.0
 11
216.3150001002712
 21
-90.82781547330942
 31
0.0
  0
LINE
  5
245
330
6C
100
AcDbEntity
  8
Sichtbare Kanten(DIN)
100
AcDbLine
 10
12.65007772887614
 20
-89.86706290601931
 30
0.0
 11
33.87892995506064
 21
-85.6502728970153
 31
0.0
  0
LINE
  5
246
330
6C
100
AcDbEntity
  8
Sichtbare Kanten(DIN)
100
AcDbLine
 10
33.48927299211776
 20
-83.68859824222925
 30
0.0
 11
12.26042076593325
 21
-87.90538825123324
 31
0.0
  0
LINE
  5
247
330
6C
100
AcDbEntity
  8
Sichtbare Kanten(DIN)
100
AcDbLine
 10
201.2127832264327
 20
-89.86706290601937
 30
0.0
 11
179.9839310002481
 21
-85.65027289701534
 31
0.0
  0
LINE
  5
248
330
6C
100
AcDbEntity
  8
Sichtbare Kanten(DIN)
100
AcDbLine
 10
201.6024401893755
 20
-87.90538825123332
 30
0.0
 11
180.373587963191
 21
-83.68859824222928
 31
0.0
  0
LINE
  5
249
330
6C
100
AcDbEntity
  8
Sichtbare Kanten(DIN)
100
AcDbLine
 10
177.7300648499146
 20
-86.88756912470109
 30
0.0
 11
129.8302876205114
 21
-210.1590546415479
 31
0.0
  0
LINE
  5
24A
330
6C
100
AcDbEntity
  8
Sichtbare Kanten(DIN)
100
AcDbLine
 10
129.4314304776545
 20
-211.1855252297825
 30
0.0
 11
128.4314304776543
 21
-213.7590546415475
 31
0.0
  0
LINE
  5
24B
330
6C
100
AcDbEntity
  8
Sichtbare Kanten(DIN)
100
AcDbLine
 10
85.43143047765438
 20
-213.7590546415475
 30
0.0
 11
84.43143047765452
 21
-211.1855252297832
 31
0.0
  0
LINE
  5
24C
330
6C
100
AcDbEntity
  8
Sichtbare Kanten(DIN)
100
AcDbLine
 10
84.03257333479736
 20
-210.1590546415478
 30
0.0
 11
36.13279610539414
 21
-86.88756912470104
 31
0.0
  0
SPLINE
  5
24D
330
6C
100
AcDbEntity
  8
Sichtbare Kanten(DIN)
100
AcDbSpline
210
0.0
220
0.0
230
1.0
 70
     8
 71
     3
 72
    11
 73
     7
 74
     0
 42
0.0000000001
 43
0.0000000001
 40
0.0
 40
0.0
 40
0.0
 40
0.0
 40
0.9901160633031611
 40
0.9901160633031611
 40
0.9901160633031611
 40
1.570796326794892
 40
1.570796326794892
 40
1.570796326794892
 40
1.570796326794892
 10
128.4314304776543
 20
-213.7590546415475
 30
0.0
 10
128.3131504704391
 20
-214.0634517189394
 30
0.0
 10
127.5406626300024
 20
-214.1136423239939
 30
0.0
 10
126.3935556500424
 20
-214.0182666348337
 30
0.0
 10
125.7208038302667
 20
-213.9623309901503
 30
0.0
 10
124.93110807009
 20
-213.8609542714827
 30
0.0
 10
124.1400665823837
 20
-213.7590546415464
 30
0.0
  0
SPLINE
  5
24E
330
6C
100
AcDbEntity
  8
Sichtbare Kanten(DIN)
100
AcDbSpline
210
0.0
220
0.0
230
1.0
 70
     8
 71
     3
 72
    11
 73
     7
 74
     0
 42
0.0000000001
 43
0.0000000001
 40
0.0
 40
0.0
 40
0.0
 40
0.0
 40
0.9901160633031556
 40
0.9901160633031556
 40
0.9901160633031556
 40
1.5707963267949
 40
1.5707963267949
 40
1.5707963267949
 40
1.5707963267949
 10
89.72279437292504
 20
-213.7590546415463
 30
0.0
 10
88.37399205784791
 20
-213.932803375209
 30
0.0
 10
87.04399803215052
 20
-214.0992437449985
 30
0.0
 10
86.25066231590182
 20
-214.057154028831
 30
0.0
 10
85.78538919306019
 20
-214.0324693798486
 30
0.0
 10
85.5007989772689
 20
-213.9375765155552
 30
0.0
 10
85.4314304776544
 20
-213.7590546415475
 30
0.0
  0
LINE
  5
24F
330
6C
100
AcDbEntity
  8
Sichtbare Kanten(DIN)
100
AcDbLine
 10
124.3254304776544
 20
-264.1590546415644
 30
0.0
 11
124.3254304776544
 21
-264.2590546415644
 31
0.0
  0
LINE
  5
250
330
6C
100
AcDbEntity
  8
Sichtbare Kanten(DIN)
100
AcDbLine
 10
89.5374304776544
 20
-264.1590546415644
 30
0.0
 11
89.5374304776544
 21
-264.2590546415644
 31
0.0
  0
LINE
  5
251
330
6C
100
AcDbEntity
  8
Sichtbare Kanten(DIN)
100
AcDbLine
 10
89.5374304776544
 20
-264.2590546415644
 30
0.0
 11
124.3254304776544
 21
-264.2590546415644
 31
0.0
  0
LINE
  5
252
330
6C
100
AcDbEntity
  8
Sichtbare Kanten(DIN)
100
AcDbLine
 10
126.1919242766041
 20
-214.0005141172477
 30
0.0
 11
126.0914628157333
 21
-214.2590546415475
 31
0.0
  0
LINE
  5
253
330
6C
100
AcDbEntity
  8
Sichtbare Kanten(DIN)
100
AcDbLine
 10
88.75136580149646
 20
-213.8819720984919
 30
0.0
 11
88.75136580149646
 21
-214.2590546415469
 31
0.0
  0
LINE
  5
254
330
6C
100
AcDbEntity
  8
Sichtbare Kanten(DIN)
100
AcDbLine
 10
125.1114951538123
 20
-214.2590546415469
 30
0.0
 11
125.1114951538123
 21
-213.8819720984919
 31
0.0
  0
LINE
  5
255
330
6C
100
AcDbEntity
  8
Sichtbare Kanten(DIN)
100
AcDbLine
 10
87.77139813957544
 20
-214.2590546415475
 30
0.0
 11
87.67093667870462
 21
-214.0005141172477
 31
0.0
  0
LINE
  5
256
330
6C
100
AcDbEntity
  8
Sichtbare Kanten(DIN)
100
AcDbLine
 10
83.308194907697
 20
-208.2948454541572
 30
0.0
 11
84.03257333479736
 21
-210.1590546415478
 31
0.0
  0
LINE
  5
257
330
6C
100
AcDbEntity
  8
Sichtbare Kanten(DIN)
100
AcDbLine
 10
83.308194907697
 20
-208.2948454541572
 30
0.0
 11
82.03257333479733
 21
-210.1590546415478
 31
0.0
  0
LINE
  5
258
330
6C
100
AcDbEntity
  8
Sichtbare Kanten(DIN)
100
AcDbLine
 10
125.1114951538123
 20
-211.2590546415463
 30
0.0
 11
88.75136580149648
 21
-211.2590546415463
 31
0.0
  0
LINE
  5
259
330
6C
100
AcDbEntity
  8
Sichtbare Kanten(DIN)
100
AcDbLine
 10
88.75136580149648
 20
-211.2590546415463
 30
0.0
 11
89.91708008721078
 21
-214.2590546415454
 31
0.0
  0
LINE
  5
25A
330
6C
100
AcDbEntity
  8
Sichtbare Kanten(DIN)
100
AcDbLine
 10
125.1114951538123
 20
-211.2590546415463
 30
0.0
 11
123.945780868098
 21
-214.2590546415454
 31
0.0
  0
LINE
  5
25B
330
6C
100
AcDbEntity
  8
Sichtbare Kanten(DIN)
100
AcDbLine
 10
129.8302876205114
 20
-210.1590546415479
 30
0.0
 11
130.5546660476117
 21
-208.2948454541572
 31
0.0
  0
LINE
  5
25C
330
6C
100
AcDbEntity
  8
Sichtbare Kanten(DIN)
100
AcDbLine
 10
130.5546660476117
 20
-208.2948454541572
 30
0.0
 11
131.8302876205114
 21
-210.1590546415479
 31
0.0
  0
ENDSEC
  0
SECTION
  2
OBJECTS
  0
DICTIONARY
  5
C
330
0
100
AcDbDictionary
281
     1
  3
ACAD_COLOR
350
63
  3
ACAD_GROUP
350
D
  3
ACAD_LAYOUT
350
62
  3
ACAD_MATERIAL
350
10
  3
ACAD_MLEADERSTYLE
350
66
  3
ACAD_MLINESTYLE
350
5F
  3
ACAD_PLOTSETTINGS
350
61
  3
ACAD_PLOTSTYLENAME
350
E
  3
ACAD_SCALELIST
350
42
  3
ACAD_TABLESTYLE
350
64
  3
ACAD_VISUALSTYLE
350
29
  3
ACDB_RECOMPOSE_DATA
350
26C
  3
AcDbVariableDictionary
350
25D
  3
DWGPROPS
350
26D
  0
DICTIONARY
  5
63
102
{ACAD_REACTORS
330
C
102
}
330
C
100
AcDbDictionary
281
     1
  0
DICTIONARY
  5
D
102
{ACAD_REACTORS
330
C
102
}
330
C
100
AcDbDictionary
281
     1
  0
DICTIONARY
  5
62
102
{ACAD_REACTORS
330
C
102
}
330
C
100
AcDbDictionary
281
     1
  3
Layout1
350
6B
  3
Layout2
350
73
  3
Model
350
6F
  0
DICTIONARY
  5
10
102
{ACAD_REACTORS
330
C
102
}
330
C
100
AcDbDictionary
281
     1
  3
ByBlock
350
19
  3
ByLayer
350
11
  3
Global
350
21
  0
DICTIONARY
  5
66
102
{ACAD_REACTORS
330
C
102
}
330
C
100
AcDbDictionary
281
     1
  3
Standard
350
67
  0
DICTIONARY
  5
5F
102
{ACAD_REACTORS
330
C
102
}
330
C
100
AcDbDictionary
281
     1
  3
Standard
350
60
  0
DICTIONARY
  5
61
102
{ACAD_REACTORS
330
C
102
}
330
C
100
AcDbDictionary
281
     1
  0
ACDBDICTIONARYWDFLT
  5
E
102
{ACAD_REACTORS
330
C
102
}
330
C
100
AcDbDictionary
281
     1
  3
Normal
350
F
100
AcDbDictionaryWithDefault
340
F
  0
DICTIONARY
  5
42
102
{ACAD_REACTORS
330
C
102
}
330
C
100
AcDbDictionary
281
     1
  3
A0
350
43
  3
A1
350
44
  3
A2
350
45
  3
A3
350
46
  3
A4
350
47
  3
A5
350
48
  3
A6
350
49
  3
A7
350
4A
  3
A8
350
4B
  3
A9
350
4C
  3
B0
350
4D
  3
B1
350
4E
  3
B2
350
4F
  3
B3
350
50
  3
B4
350
51
  3
B5
350
52
  3
B6
350
53
  0
DICTIONARY
  5
64
102
{ACAD_REACTORS
330
C
102
}
330
C
100
AcDbDictionary
281
     1
  3
Standard
350
65
  0
DICTIONARY
  5
29
102
{ACAD_REACTORS
330
C
102
}
330
C
100
AcDbDictionary
281
     1
  3
2dWireframe
350
2F
  3
Basic
350
2E
  3
Brighten
350
35
  3
ColorChange
350
39
  3
Conceptual
350
32
  3
Dim
350
34
  3
EdgeColorOff
350
41
  3
Facepattern
350
38
  3
Flat
350
2A
  3
FlatWithEdges
350
2B
  3
Gouraud
350
2C
  3
GouraudWithEdges
350
2D
  3
Hidden
350
31
  3
JitterOff
350
3F
  3
Linepattern
350
37
  3
OverhangOff
350
40
  3
Realistic
350
33
  3
Shaded
350
3E
  3
Shaded with edges
350
3D
  3
Shades of Gray
350
3A
  3
Sketchy
350
3B
  3
Thicken
350
36
  3
Wireframe
350
30
  3
X-Ray
350
3C
  0
XRECORD
  5
26C
102
{ACAD_REACTORS
330
C
102
}
330
C
100
AcDbXrecord
280
     1
 90
        1
330
65
  0
DICTIONARY
  5
25D
102
{ACAD_REACTORS
330
C
102
}
330
C
100
AcDbDictionary
281
     1
  3
CANNOSCALE
350
261
  3
CMLEADERSTYLE
350
25F
  3
CTABLESTYLE
350
25E
  3
DIMASSOC
350
268
  3
HIDETEXT
350
267
  3
INDEXCTL
350
266
  3
LAYEREVAL
350
263
  3
LAYERNOTIFY
350
264
  3
LIGHTINGUNITS
350
262
  3
MSLTSCALE
350
260
  3
SORTENTS
350
265
  3
XCLIPFRAME
350
269
  0
XRECORD
  5
26D
102
{ACAD_REACTORS
330
C
102
}
330
C
100
AcDbXrecord
280
     1
  1
DWGPROPS COOKIE
  2

  3

  4
S.Rübsamen
  6

  7

  8

  9

300
Manager=
301
Firma=
302
Kategorie=
303
Bauteilnummer=
304
Bezeichnung=
305
Projekt=
306
Konstrukteur=S.Rübsamen
307
Ingenieur=
308
Bevollmächtigter=
309
Kostenstelle=
 40
0.000014849537037
 41
2455798.504866204
 42
2455798.504866204
  1

 90
       34
300
Zulieferer=
300
Benutzerstatus=
300
Konstruktionsstatus=InBearbeitung
300
Kontrolliert von=
300
Konstruktion genehmigt von=
300
Fertigung genehmigt von=
300
Gewicht=
300
Oberfläche=
300
Oberfläche_2=roh
300
Werkstoff=Edelstahl V2A
300
Zeichnungs_Nr.=
300
Benennung2=
300
Benennung3=
300
Werkstoff_DIN=1.4301 / ASTM 304
300
Oberfläche_3=
300
ZeichnungsNr Index=
300
Änderung_a=
300
Änderung_b=
300
Datum_a=
300
Datum_b=
300
Status_a=
300
Status_b=
300
Name_a=
300
Name_b=
  0
LAYOUT
  5
6B
102
{ACAD_XDICTIONARY
360
2A3
102
}
102
{ACAD_REACTORS
330
62
102
}
330
62
100
AcDbPlotSettings
  1

  2

  4

  6

 40
0.0
 41
0.0
 42
0.0
 43
0.0
 44
0.0
 45
0.0
 46
0.0
 47
0.0
 48
0.0
 49
0.0
140
0.0
141
0.0
142
1.0
143
1.0
 70
   688
 72
     0
 73
     0
 74
     5
  7

 75
    16
147
1.0
148
0.0
149
0.0
100
AcDbLayout
  1
Layout1
 70
     1
 71
     1
 10
0.0
 20
0.0
 11
12.0
 21
9.0
 12
0.0
 22
0.0
 32
0.0
 14
0.0
 24
0.0
 34
0.0
 15
0.0
 25
0.0
 35
0.0
146
0.0
 13
0.0
 23
0.0
 33
0.0
 16
1.0
 26
0.0
 36
0.0
 17
0.0
 27
1.0
 37
0.0
 76
     0
330
68
  0
LAYOUT
  5
73
102
{ACAD_XDICTIONARY
360
2A7
102
}
102
{ACAD_REACTORS
330
62
102
}
330
62
100
AcDbPlotSettings
  1

  2

  4

  6

 40
0.0
 41
0.0
 42
0.0
 43
0.0
 44
0.0
 45
0.0
 46
0.0
 47
0.0
 48
0.0
 49
0.0
140
0.0
141
0.0
142
1.0
143
1.0
 70
   688
 72
     0
 73
     0
 74
     5
  7

 75
    16
147
1.0
148
0.0
149
0.0
100
AcDbLayout
  1
Layout2
 70
     1
 71
     2
 10
0.0
 20
0.0
 11
12.0
 21
9.0
 12
0.0
 22
0.0
 32
0.0
 14
0.0
 24
0.0
 34
0.0
 15
0.0
 25
0.0
 35
0.0
146
0.0
 13
0.0
 23
0.0
 33
0.0
 16
1.0
 26
0.0
 36
0.0
 17
0.0
 27
1.0
 37
0.0
 76
     0
330
70
  0
LAYOUT
  5
6F
102
{ACAD_XDICTIONARY
360
2A5
102
}
102
{ACAD_REACTORS
330
62
102
}
330
62
100
AcDbPlotSettings
  1

  2

  4

  6

 40
0.0
 41
0.0
 42
0.0
 43
0.0
 44
0.0
 45
0.0
 46
0.0
 47
0.0
 48
0.0
 49
0.0
140
0.0
141
0.0
142
1.0
143
1.0
 70
  1712
 72
     0
 73
     0
 74
     0
  7

 75
     0
147
1.0
148
0.0
149
0.0
100
AcDbLayout
  1
Model
 70
     1
 71
     0
 10
0.0
 20
0.0
 11
12.0
 21
9.0
 12
0.0
 22
0.0
 32
0.0
 14
0.0
 24
0.0
 34
0.0
 15
0.0
 25
0.0
 35
0.0
146
0.0
 13
0.0
 23
0.0
 33
0.0
 16
1.0
 26
0.0
 36
0.0
 17
0.0
 27
1.0
 37
0.0
 76
     0
330
6C
  0
MATERIAL
  5
19
102
{ACAD_XDICTIONARY
360
1A
102
}
102
{ACAD_REACTORS
330
10
102
}
330
10
100
AcDbMaterial
  1
ByBlock
 72
     0
 43
0.0208333333333333
 43
0.0
 43
0.0
 43
0.0
 43
0.0
 43
0.0208333333333333
 43
0.0
 43
0.0
 43
0.0
 43
0.0
 43
1.0
 43
0.0
 43
0.0
 43
0.0
 43
0.0
 43
1.0
 77
     0
 47
0.0208333333333333
 47
0.0
 47
0.0
 47
0.0
 47
0.0
 47
0.0208333333333333
 47
0.0
 47
0.0
 47
0.0
 47
0.0
 47
1.0
 47
0.0
 47
0.0
 47
0.0
 47
0.0
 47
1.0
171
     0
 49
0.0208333333333333
 49
0.0
 49
0.0
 49
0.0
 49
0.0
 49
0.0208333333333333
 49
0.0
 49
0.0
 49
0.0
 49
0.0
 49
1.0
 49
0.0
 49
0.0
 49
0.0
 49
0.0
 49
1.0
175
     0
142
0.0208333333333333
142
0.0
142
0.0
142
0.0
142
0.0
142
0.0208333333333333
142
0.0
142
0.0
142
0.0
142
0.0
142
1.0
142
0.0
142
0.0
142
0.0
142
0.0
142
1.0
179
     0
144
0.0208333333333333
144
0.0
144
0.0
144
0.0
144
0.0
144
0.0208333333333333
144
0.0
144
0.0
144
0.0
144
0.0
144
1.0
144
0.0
144
0.0
144
0.0
144
0.0
144
1.0
147
0.0208333333333333
147
0.0
147
0.0
147
0.0
147
0.0
147
0.0208333333333333
147
0.0
147
0.0
147
0.0
147
0.0
147
1.0
147
0.0
147
0.0
147
0.0
147
0.0
147
1.0
  0
MATERIAL
  5
11
102
{ACAD_XDICTIONARY
360
12
102
}
102
{ACAD_REACTORS
330
10
102
}
330
10
100
AcDbMaterial
  1
ByLayer
 72
     0
 43
0.0208333333333333
 43
0.0
 43
0.0
 43
0.0
 43
0.0
 43
0.0208333333333333
 43
0.0
 43
0.0
 43
0.0
 43
0.0
 43
1.0
 43
0.0
 43
0.0
 43
0.0
 43
0.0
 43
1.0
 77
     0
 47
0.0208333333333333
 47
0.0
 47
0.0
 47
0.0
 47
0.0
 47
0.0208333333333333
 47
0.0
 47
0.0
 47
0.0
 47
0.0
 47
1.0
 47
0.0
 47
0.0
 47
0.0
 47
0.0
 47
1.0
171
     0
 49
0.0208333333333333
 49
0.0
 49
0.0
 49
0.0
 49
0.0
 49
0.0208333333333333
 49
0.0
 49
0.0
 49
0.0
 49
0.0
 49
1.0
 49
0.0
 49
0.0
 49
0.0
 49
0.0
 49
1.0
175
     0
142
0.0208333333333333
142
0.0
142
0.0
142
0.0
142
0.0
142
0.0208333333333333
142
0.0
142
0.0
142
0.0
142
0.0
142
1.0
142
0.0
142
0.0
142
0.0
142
0.0
142
1.0
179
     0
144
0.0208333333333333
144
0.0
144
0.0
144
0.0
144
0.0
144
0.0208333333333333
144
0.0
144
0.0
144
0.0
144
0.0
144
1.0
144
0.0
144
0.0
144
0.0
144
0.0
144
1.0
147
0.0208333333333333
147
0.0
147
0.0
147
0.0
147
0.0
147
0.0208333333333333
147
0.0
147
0.0
147
0.0
147
0.0
147
1.0
147
0.0
147
0.0
147
0.0
147
0.0
147
1.0
  0
MATERIAL
  5
21
102
{ACAD_XDICTIONARY
360
22
102
}
102
{ACAD_REACTORS
330
10
102
}
330
10
100
AcDbMaterial
  1
Global
 72
     0
 43
0.0208333333333333
 43
0.0
 43
0.0
 43
0.0
 43
0.0
 43
0.0208333333333333
 43
0.0
 43
0.0
 43
0.0
 43
0.0
 43
1.0
 43
0.0
 43
0.0
 43
0.0
 43
0.0
 43
1.0
 77
     0
 47
0.0208333333333333
 47
0.0
 47
0.0
 47
0.0
 47
0.0
 47
0.0208333333333333
 47
0.0
 47
0.0
 47
0.0
 47
0.0
 47
1.0
 47
0.0
 47
0.0
 47
0.0
 47
0.0
 47
1.0
171
     0
 49
0.0208333333333333
 49
0.0
 49
0.0
 49
0.0
 49
0.0
 49
0.0208333333333333
 49
0.0
 49
0.0
 49
0.0
 49
0.0
 49
1.0
 49
0.0
 49
0.0
 49
0.0
 49
0.0
 49
1.0
175
     0
142
0.0208333333333333
142
0.0
142
0.0
142
0.0
142
0.0
142
0.0208333333333333
142
0.0
142
0.0
142
0.0
142
0.0
142
1.0
142
0.0
142
0.0
142
0.0
142
0.0
142
1.0
179
     0
144
0.0208333333333333
144
0.0
144
0.0
144
0.0
144
0.0
144
0.0208333333333333
144
0.0
144
0.0
144
0.0
144
0.0
144
1.0
144
0.0
144
0.0
144
0.0
144
0.0
144
1.0
147
0.0208333333333333
147
0.0
147
0.0
147
0.0
147
0.0
147
0.0208333333333333
147
0.0
147
0.0
147
0.0
147
0.0
147
1.0
147
0.0
147
0.0
147
0.0
147
0.0
147
1.0
  0
MLEADERSTYLE
  5
67
102
{ACAD_REACTORS
330
66
102
}
330
66
100
AcDbMLeaderStyle
170
     2
171
     1
172
     0
 90
        2
 40
0.0
 41
0.0
173
     1
 91
-1056964608
340
5B
 92
       -2
290
     1
 42
0.09
291
     1
 43
0.36
  3
Standard
 44
0.18
300

342
55
174
     1
178
     6
175
     1
176
     0
 93
-1056964608
 45
0.18
292
     0
297
     0
 46
0.18
 94
-1056964608
 47
1.0
 49
1.0
140
1.0
293
     1
141
0.0
294
     1
177
     0
142
1.0
295
     0
296
     0
143
0.125
1001
ACAD_MLEADERVER
1070
     2
  0
MLINESTYLE
  5
60
102
{ACAD_REACTORS
330
5F
102
}
330
5F
100
AcDbMlineStyle
  2
STANDARD
 70
     0
  3

 62
   256
 51
90.0
 52
90.0
 71
     2
 49
0.5
 62
   256
  6
BYLAYER
 49
-0.5
 62
   256
  6
BYLAYER
  0
ACDBPLACEHOLDER
  5
F
102
{ACAD_REACTORS
330
E
102
}
330
E
  0
SCALE
  5
43
102
{ACAD_REACTORS
330
42
102
}
330
42
100
AcDbScale
 70
     0
300
1:1
140
1.0
141
1.0
290
     1
  0
SCALE
  5
44
102
{ACAD_REACTORS
330
42
102
}
330
42
100
AcDbScale
 70
     0
300
1/128" = 1'-0"
140
0.0078125
141
12.0
290
     0
  0
SCALE
  5
45
102
{ACAD_REACTORS
330
42
102
}
330
42
100
AcDbScale
 70
     0
300
1/64" = 1'-0"
140
0.015625
141
12.0
290
     0
  0
SCALE
  5
46
102
{ACAD_REACTORS
330
42
102
}
330
42
100
AcDbScale
 70
     0
300
1/32" = 1'-0"
140
0.03125
141
12.0
290
     0
  0
SCALE
  5
47
102
{ACAD_REACTORS
330
42
102
}
330
42
100
AcDbScale
 70
     0
300
1/16" = 1'-0"
140
0.0625
141
12.0
290
     0
  0
SCALE
  5
48
102
{ACAD_REACTORS
330
42
102
}
330
42
100
AcDbScale
 70
     0
300
3/32" = 1'-0"
140
0.09375
141
12.0
290
     0
  0
SCALE
  5
49
102
{ACAD_REACTORS
330
42
102
}
330
42
100
AcDbScale
 70
     0
300
1/8" = 1'-0"
140
0.125
141
12.0
290
     0
  0
SCALE
  5
4A
102
{ACAD_REACTORS
330
42
102
}
330
42
100
AcDbScale
 70
     0
300
3/16" = 1'-0"
140
0.1875
141
12.0
290
     0
  0
SCALE
  5
4B
102
{ACAD_REACTORS
330
42
102
}
330
42
100
AcDbScale
 70
     0
300
1/4" = 1'-0"
140
0.25
141
12.0
290
     0
  0
SCALE
  5
4C
102
{ACAD_REACTORS
330
42
102
}
330
42
100
AcDbScale
 70
     0
300
3/8" = 1'-0"
140
0.375
141
12.0
290
     0
  0
SCALE
  5
4D
102
{ACAD_REACTORS
330
42
102
}
330
42
100
AcDbScale
 70
     0
300
1/2" = 1'-0"
140
0.5
141
12.0
290
     0
  0
SCALE
  5
4E
102
{ACAD_REACTORS
330
42
102
}
330
42
100
AcDbScale
 70
     0
300
3/4" = 1'-0"
140
0.75
141
12.0
290
     0
  0
SCALE
  5
4F
102
{ACAD_REACTORS
330
42
102
}
330
42
100
AcDbScale
 70
     0
300
1" = 1'-0"
140
1.0
141
12.0
290
     0
  0
SCALE
  5
50
102
{ACAD_REACTORS
330
42
102
}
330
42
100
AcDbScale
 70
     0
300
1-1/2" = 1'-0"
140
1.5
141
12.0
290
     0
  0
SCALE
  5
51
102
{ACAD_REACTORS
330
42
102
}
330
42
100
AcDbScale
 70
     0
300
3" = 1'-0"
140
3.0
141
12.0
290
     0
  0
SCALE
  5
52
102
{ACAD_REACTORS
330
42
102
}
330
42
100
AcDbScale
 70
     0
300
6" = 1'-0"
140
6.0
141
12.0
290
     0
  0
SCALE
  5
53
102
{ACAD_REACTORS
330
42
102
}
330
42
100
AcDbScale
 70
     0
300
1'-0" = 1'-0"
140
12.0
141
12.0
290
     0
  0
TABLESTYLE
  5
65
102
{ACAD_XDICTIONARY
360
26A
102
}
102
{ACAD_REACTORS
330
64
102
}
330
64
100
AcDbTableStyle
  3
Standard
 70
     0
 71
     0
 40
0.06
 41
0.06
280
     0
281
     0
  7
Standard
140
0.18
170
     2
 62
     0
 63
     7
283
     0
274
    -2
284
     1
 64
     0
275
    -2
285
     1
 65
     0
276
    -2
286
     1
 66
     0
277
    -2
287
     1
 67
     0
278
    -2
288
     1
 68
     0
279
    -2
289
     1
 69
     0
  7
Standard
140
0.25
170
     5
 62
     0
 63
     7
283
     0
274
    -2
284
     1
 64
     0
275
    -2
285
     1
 65
     0
276
    -2
286
     1
 66
     0
277
    -2
287
     1
 67
     0
278
    -2
288
     1
 68
     0
279
    -2
289
     1
 69
     0
  7
Standard
140
0.18
170
     5
 62
     0
 63
     7
283
     0
274
    -2
284
     1
 64
     0
275
    -2
285
     1
 65
     0
276
    -2
286
     1
 66
     0
277
    -2
287
     1
 67
     0
278
    -2
288
     1
 68
     0
279
    -2
289
     1
 69
     0
  0
VISUALSTYLE
  5
2F
102
{ACAD_XDICTIONARY
360
27B
102
}
102
{ACAD_REACTORS
330
29
102
}
330
29
100
AcDbVisualStyle
  2
2dWireframe
 70
     4
 71
     0
 72
     2
 73
     0
 90
        0
 40
-0.6
 41
-30.0
 62
     5
 63
     7
 74
     1
 91
        4
 64
     7
 65
   257
 75
     1
175
     1
 42
1.0
 92
        0
 66
   257
 43
1.0
 76
     1
 77
     6
 78
     2
 67
     7
 79
     5
170
     0
171
     0
290
     0
174
     0
 93
        1
 44
0.0
173
     0
291
     0
 45
0.0
1001
ACAD
1000
AcDbSavedByObjectVersion
1070
     0
  0
VISUALSTYLE
  5
2E
102
{ACAD_XDICTIONARY
360
279
102
}
102
{ACAD_REACTORS
330
29
102
}
330
29
100
AcDbVisualStyle
  2
Basic
 70
     7
 71
     1
 72
     0
 73
     1
 90
        0
 40
-0.6
 41
-30.0
 62
     5
 63
     7
 74
     0
 91
        4
 64
     7
 65
   257
 75
     1
175
     1
 42
1.0
 92
        8
 66
     7
 43
1.0
 76
     1
 77
     6
 78
     2
 67
     7
 79
     5
170
     0
171
     0
290
     0
174
     0
 93
        1
 44
0.0
173
     0
291
     1
 45
0.0
1001
ACAD
1000
AcDbSavedByObjectVersion
1070
     0
  0
VISUALSTYLE
  5
35
102
{ACAD_XDICTIONARY
360
287
102
}
102
{ACAD_REACTORS
330
29
102
}
330
29
100
AcDbVisualStyle
  2
Brighten
 70
    12
 71
     2
 72
     2
 73
     0
 90
        0
 40
-0.6
 41
-30.0
 62
     5
 63
     7
 74
     1
 91
        4
 64
     7
 65
   257
 75
     1
175
     1
 42
1.0
 92
        8
 66
     7
 43
1.0
 76
     1
 77
     6
 78
     2
 67
     7
 79
     5
170
     0
171
     0
290
     0
174
     0
 93
        1
 44
50.0
173
     0
291
     1
 45
0.0
1001
ACAD
1000
AcDbSavedByObjectVersion
1070
     0
  0
VISUALSTYLE
  5
39
102
{ACAD_XDICTIONARY
360
28F
102
}
102
{ACAD_REACTORS
330
29
102
}
330
29
100
AcDbVisualStyle
  2
ColorChange
 70
    16
 71
     2
 72
     2
 73
     3
 90
        0
 40
-0.6
 41
-30.0
 62
     5
 63
     8
 74
     1
 91
        4
 64
     7
 65
   257
 75
     1
175
     1
 42
1.0
 92
        8
 66
     8
 43
1.0
 76
     1
 77
     6
 78
     2
 67
     7
 79
     5
170
     0
171
     0
290
     0
174
     0
 93
        1
 44
0.0
173
     0
291
     1
 45
0.0
1001
ACAD
1000
AcDbSavedByObjectVersion
1070
     0
  0
VISUALSTYLE
  5
32
102
{ACAD_XDICTIONARY
360
281
102
}
102
{ACAD_REACTORS
330
29
102
}
330
29
100
AcDbVisualStyle
  2
Conceptual
 70
     9
 71
     3
 72
     2
 73
     0
 90
        0
 40
-0.6
 41
-30.0
 62
     5
 63
     7
 74
     2
 91
        2
 64
     7
 65
   257
 75
     1
175
     1
 42
179.0
 92
        8
 66
     7
 43
1.0
 76
     1
 77
     6
 78
     2
 67
     7
 79
     3
170
     0
171
     0
290
     0
174
     0
 93
        1
 44
0.0
173
     0
291
     0
 45
0.0
1001
ACAD
1000
AcDbSavedByObjectVersion
1070
     0
  0
VISUALSTYLE
  5
34
102
{ACAD_XDICTIONARY
360
285
102
}
102
{ACAD_REACTORS
330
29
102
}
330
29
100
AcDbVisualStyle
  2
Dim
 70
    11
 71
     2
 72
     2
 73
     0
 90
        0
 40
-0.6
 41
-30.0
 62
     5
 63
     7
 74
     1
 91
        4
 64
     7
 65
   257
 75
     1
175
     1
 42
1.0
 92
        8
 66
     7
 43
1.0
 76
     1
 77
     6
 78
     2
 67
     7
 79
     5
170
     0
171
     0
290
     0
174
     0
 93
        1
 44
-50.0
173
     0
291
     1
 45
0.0
1001
ACAD
1000
AcDbSavedByObjectVersion
1070
     0
  0
VISUALSTYLE
  5
41
102
{ACAD_XDICTIONARY
360
29F
102
}
102
{ACAD_REACTORS
330
29
102
}
330
29
100
AcDbVisualStyle
  2
EdgeColorOff
 70
    22
 71
     2
 72
     2
 73
     0
 90
        0
 40
-0.6
 41
-30.0
 62
     5
 63
     7
 74
     1
 91
        4
 64
     7
 65
   257
 75
     1
175
     1
 42
1.0
 92
        8
 66
     7
 43
1.0
 76
     1
 77
     6
 78
     2
 67
     7
 79
     5
170
     0
171
     0
290
     0
174
     0
 93
        1
 44
0.0
173
     0
291
     1
 45
0.0
1001
ACAD
1000
AcDbSavedByObjectVersion
1070
     0
  0
VISUALSTYLE
  5
38
102
{ACAD_XDICTIONARY
360
28D
102
}
102
{ACAD_REACTORS
330
29
102
}
330
29
100
AcDbVisualStyle
  2
Facepattern
 70
    15
 71
     2
 72
     2
 73
     0
 90
        0
 40
-0.6
 41
-30.0
 62
     5
 63
     7
 74
     1
 91
        4
 64
     7
 65
   257
 75
     1
175
     1
 42
1.0
 92
        8
 66
     7
 43
1.0
 76
     1
 77
     6
 78
     2
 67
     7
 79
     5
170
     0
171
     0
290
     0
174
     0
 93
        1
 44
0.0
173
     0
291
     1
 45
0.0
1001
ACAD
1000
AcDbSavedByObjectVersion
1070
     0
  0
VISUALSTYLE
  5
2A
102
{ACAD_XDICTIONARY
360
271
102
}
102
{ACAD_REACTORS
330
29
102
}
330
29
100
AcDbVisualStyle
  2
Flat
 70
     0
 71
     2
 72
     1
 73
     1
 90
        2
 40
-0.6
 41
30.0
 62
     5
 63
     7
 74
     0
 91
        0
 64
     7
 65
   257
 75
     1
175
     1
 42
1.0
 92
        8
 66
     7
 43
1.0
 76
     1
 77
     6
 78
     2
 67
     7
 79
     5
170
     0
171
     0
290
     0
174
     0
 93
       13
 44
0.0
173
     0
291
     1
 45
0.0
1001
ACAD
1000
AcDbSavedByObjectVersion
1070
     0
  0
VISUALSTYLE
  5
2B
102
{ACAD_XDICTIONARY
360
273
102
}
102
{ACAD_REACTORS
330
29
102
}
330
29
100
AcDbVisualStyle
  2
FlatWithEdges
 70
     1
 71
     2
 72
     1
 73
     1
 90
        2
 40
-0.6
 41
30.0
 62
     5
 63
     7
 74
     1
 91
        0
 64
     7
 65
   257
 75
     1
175
     1
 42
1.0
 92
        0
 66
   257
 43
1.0
 76
     1
 77
     6
 78
     2
 67
     7
 79
     5
170
     0
171
     0
290
     0
174
     0
 93
       13
 44
0.0
173
     0
291
     1
 45
0.0
1001
ACAD
1000
AcDbSavedByObjectVersion
1070
     0
  0
VISUALSTYLE
  5
2C
102
{ACAD_XDICTIONARY
360
275
102
}
102
{ACAD_REACTORS
330
29
102
}
330
29
100
AcDbVisualStyle
  2
Gouraud
 70
     2
 71
     2
 72
     2
 73
     1
 90
        2
 40
-0.6
 41
30.0
 62
     5
 63
     7
 74
     0
 91
        0
 64
     7
 65
   257
 75
     1
175
     1
 42
1.0
 92
        0
 66
     7
 43
1.0
 76
     1
 77
     6
 78
     2
 67
     7
 79
     5
170
     0
171
     0
290
     0
174
     0
 93
       13
 44
0.0
173
     0
291
     1
 45
0.0
1001
ACAD
1000
AcDbSavedByObjectVersion
1070
     0
  0
VISUALSTYLE
  5
2D
102
{ACAD_XDICTIONARY
360
277
102
}
102
{ACAD_REACTORS
330
29
102
}
330
29
100
AcDbVisualStyle
  2
GouraudWithEdges
 70
     3
 71
     2
 72
     2
 73
     1
 90
        2
 40
-0.6
 41
30.0
 62
     5
 63
     7
 74
     1
 91
        0
 64
     7
 65
   257
 75
     1
175
     1
 42
1.0
 92
        0
 66
   257
 43
1.0
 76
     1
 77
     6
 78
     2
 67
     7
 79
     5
170
     0
171
     0
290
     0
174
     0
 93
       13
 44
0.0
173
     0
291
     1
 45
0.0
1001
ACAD
1000
AcDbSavedByObjectVersion
1070
     0
  0
VISUALSTYLE
  5
31
102
{ACAD_XDICTIONARY
360
27F
102
}
102
{ACAD_REACTORS
330
29
102
}
330
29
100
AcDbVisualStyle
  2
Hidden
 70
     6
 71
     1
 72
     2
 73
     2
 90
        0
 40
-0.6
 41
-30.0
 62
     5
 63
     7
 74
     2
 91
        2
 64
     7
 65
   257
 75
     2
175
     1
 42
40.0
 92
        0
 66
   257
 43
1.0
 76
     1
 77
     6
 78
     2
 67
     7
 79
     3
170
     0
171
     0
290
     0
174
     0
 93
        1
 44
0.0
173
     0
291
     0
 45
0.0
1001
ACAD
1000
AcDbSavedByObjectVersion
1070
     0
  0
VISUALSTYLE
  5
3F
102
{ACAD_XDICTIONARY
360
29B
102
}
102
{ACAD_REACTORS
330
29
102
}
330
29
100
AcDbVisualStyle
  2
JitterOff
 70
    20
 71
     2
 72
     2
 73
     0
 90
        0
 40
-0.6
 41
-30.0
 62
     5
 63
     7
 74
     1
 91
        4
 64
     7
 65
   257
 75
     1
175
     1
 42
1.0
 92
       10
 66
     7
 43
1.0
 76
     1
 77
     6
 78
     2
 67
     7
 79
     5
170
     0
171
     0
290
     0
174
     0
 93
        1
 44
0.0
173
     0
291
     1
 45
0.0
1001
ACAD
1000
AcDbSavedByObjectVersion
1070
     0
  0
VISUALSTYLE
  5
37
102
{ACAD_XDICTIONARY
360
28B
102
}
102
{ACAD_REACTORS
330
29
102
}
330
29
100
AcDbVisualStyle
  2
Linepattern
 70
    14
 71
     2
 72
     2
 73
     0
 90
        0
 40
-0.6
 41
-30.0
 62
     5
 63
     7
 74
     1
 91
        4
 64
     7
 65
   257
 75
     7
175
     7
 42
1.0
 92
        8
 66
     7
 43
1.0
 76
     1
 77
     6
 78
     2
 67
     7
 79
     5
170
     0
171
     0
290
     0
174
     0
 93
        1
 44
0.0
173
     0
291
     1
 45
0.0
1001
ACAD
1000
AcDbSavedByObjectVersion
1070
     0
  0
VISUALSTYLE
  5
40
102
{ACAD_XDICTIONARY
360
29D
102
}
102
{ACAD_REACTORS
330
29
102
}
330
29
100
AcDbVisualStyle
  2
OverhangOff
 70
    21
 71
     2
 72
     2
 73
     0
 90
        0
 40
-0.6
 41
-30.0
 62
     5
 63
     7
 74
     1
 91
        4
 64
     7
 65
   257
 75
     1
175
     1
 42
1.0
 92
        9
 66
     7
 43
1.0
 76
     1
 77
     6
 78
     2
 67
     7
 79
     5
170
     0
171
     0
290
     0
174
     0
 93
        1
 44
0.0
173
     0
291
     1
 45
0.0
1001
ACAD
1000
AcDbSavedByObjectVersion
1070
     0
  0
VISUALSTYLE
  5
33
102
{ACAD_XDICTIONARY
360
283
102
}
102
{ACAD_REACTORS
330
29
102
}
330
29
100
AcDbVisualStyle
  2
Realistic
 70
     8
 71
     2
 72
     3
 73
     0
 90
        2
 40
-0.6
 41
30.0
 62
     5
 63
     7
 74
     0
 91
        0
 64
     7
 65
   257
 75
     1
175
     1
 42
1.0
 92
        8
 66
   257
 43
1.0
 76
     1
 77
     6
 78
     2
 67
     7
 79
     3
170
     0
171
     0
290
     0
174
     0
 93
       13
 44
0.0
173
     0
291
     0
 45
0.0
1001
ACAD
1000
AcDbSavedByObjectVersion
1070
     0
  0
VISUALSTYLE
  5
3E
102
{ACAD_XDICTIONARY
360
299
102
}
102
{ACAD_REACTORS
330
29
102
}
330
29
100
AcDbVisualStyle
  2
Shaded
 70
    27
 71
     2
 72
     2
 73
     1
 90
        2
 40
-0.6
 41
30.0
 62
     5
 63
     7
 74
     0
 91
        4
 64
     7
 65
   257
 75
     1
175
     1
 42
1.0
 92
        8
 66
   257
 43
1.0
 76
     1
 77
     6
 78
     2
 67
     8
 79
     3
170
     0
171
     0
290
     0
174
     0
 93
        5
 44
0.0
173
     0
291
     0
 45
0.0
1001
ACAD
1000
AcDbSavedByObjectVersion
1070
     0
  0
VISUALSTYLE
  5
3D
102
{ACAD_XDICTIONARY
360
297
102
}
102
{ACAD_REACTORS
330
29
102
}
330
29
100
AcDbVisualStyle
  2
Shaded with edges
 70
    26
 71
     2
 72
     2
 73
     1
 90
        2
 40
-0.6
 41
30.0
 62
     5
 63
     7
 74
     1
 91
       10
 64
     7
 65
   257
 75
     2
175
     1
 42
1.0
 92
        8
 66
   257
 43
1.0
 76
     1
 77
     6
 78
     2
 67
     7
 79
     3
170
     0
171
     0
290
     0
174
     0
 93
        5
 44
0.0
173
     0
291
     0
 45
0.0
1001
ACAD
1000
AcDbSavedByObjectVersion
1070
     0
  0
VISUALSTYLE
  5
3A
102
{ACAD_XDICTIONARY
360
291
102
}
102
{ACAD_REACTORS
330
29
102
}
330
29
100
AcDbVisualStyle
  2
Shades of Gray
 70
    23
 71
     2
 72
     2
 73
     3
 90
        0
 40
-0.6
 41
-30.0
 62
     5
 63
     7
 74
     2
 91
        2
 64
     7
 65
     7
 75
     1
175
     1
 42
40.0
 92
        8
 66
     7
 43
1.0
 76
     1
 77
     6
 78
     2
 67
     7
 79
     3
170
     0
171
     0
290
     0
174
     0
 93
        1
 44
0.0
173
     0
291
     0
 45
0.0
1001
ACAD
1000
AcDbSavedByObjectVersion
1070
     0
  0
VISUALSTYLE
  5
3B
102
{ACAD_XDICTIONARY
360
293
102
}
102
{ACAD_REACTORS
330
29
102
}
330
29
100
AcDbVisualStyle
  2
Sketchy
 70
    24
 71
     1
 72
     2
 73
     2
 90
        0
 40
-0.6
 41
-30.0
 62
     5
 63
     7
 74
     2
 91
        2
 64
     7
 65
     7
 75
     1
175
     1
 42
40.0
 92
       11
 66
     7
 43
1.0
 76
     1
 77
     6
 78
     2
 67
     7
 79
     6
170
     0
171
     0
290
     0
174
     0
 93
        1
 44
0.0
173
     0
291
     0
 45
0.0
1001
ACAD
1000
AcDbSavedByObjectVersion
1070
     0
  0
VISUALSTYLE
  5
36
102
{ACAD_XDICTIONARY
360
289
102
}
102
{ACAD_REACTORS
330
29
102
}
330
29
100
AcDbVisualStyle
  2
Thicken
 70
    13
 71
     2
 72
     2
 73
     0
 90
        0
 40
-0.6
 41
-30.0
 62
     5
 63
     7
 74
     1
 91
        4
 64
     7
 65
   257
 75
     1
175
     1
 42
1.0
 92
       12
 66
     7
 43
1.0
 76
     1
 77
     6
 78
     2
 67
     7
 79
     5
170
     0
171
     0
290
     0
174
     0
 93
        1
 44
0.0
173
     0
291
     1
 45
0.0
1001
ACAD
1000
AcDbSavedByObjectVersion
1070
     0
  0
VISUALSTYLE
  5
30
102
{ACAD_XDICTIONARY
360
27D
102
}
102
{ACAD_REACTORS
330
29
102
}
330
29
100
AcDbVisualStyle
  2
Wireframe
 70
     5
 71
     0
 72
     2
 73
     0
 90
        0
 40
-0.6
 41
-30.0
 62
     5
 63
     7
 74
     1
 91
        4
 64
     7
 65
   257
 75
     1
175
     1
 42
1.0
 92
        0
 66
   257
 43
1.0
 76
     1
 77
     6
 78
     2
 67
     7
 79
     3
170
     0
171
     0
290
     0
174
     0
 93
        1
 44
0.0
173
     0
291
     0
 45
0.0
1001
ACAD
1000
AcDbSavedByObjectVersion
1070
     0
  0
VISUALSTYLE
  5
3C
102
{ACAD_XDICTIONARY
360
295
102
}
102
{ACAD_REACTORS
330
29
102
}
330
29
100
AcDbVisualStyle
  2
X-Ray
 70
    25
 71
     2
 72
     2
 73
     1
 90
        1
 40
0.5
 41
-30.0
 62
     5
 63
     7
 74
     1
 91
        0
 64
     7
 65
   257
 75
     1
175
     1
 42
1.0
 92
        8
 66
     7
 43
1.0
 76
     1
 77
     6
 78
     2
 67
     7
 79
     3
170
     0
171
     0
290
     0
174
     0
 93
       13
 44
0.0
173
     0
291
     0
 45
0.0
1001
ACAD
1000
AcDbSavedByObjectVersion
1070
     0
  0
DICTIONARYVAR
  5
261
102
{ACAD_REACTORS
330
25D
102
}
330
25D
100
DictionaryVariables
280
     0
  1
1:1
  0
DICTIONARYVAR
  5
25F
102
{ACAD_REACTORS
330
25D
102
}
330
25D
100
DictionaryVariables
280
     0
  1
STANDARD
  0
DICTIONARYVAR
  5
25E
102
{ACAD_REACTORS
330
25D
102
}
330
25D
100
DictionaryVariables
280
     0
  1
STANDARD
  0
DICTIONARYVAR
  5
268
102
{ACAD_REACTORS
330
25D
102
}
330
25D
100
DictionaryVariables
280
     0
  1
1
  0
DICTIONARYVAR
  5
267
102
{ACAD_REACTORS
330
25D
102
}
330
25D
100
DictionaryVariables
280
     0
  1
1
  0
DICTIONARYVAR
  5
266
102
{ACAD_REACTORS
330
25D
102
}
330
25D
100
DictionaryVariables
280
     0
  1
0
  0
DICTIONARYVAR
  5
263
102
{ACAD_REACTORS
330
25D
102
}
330
25D
100
DictionaryVariables
280
     0
  1
0
  0
DICTIONARYVAR
  5
264
102
{ACAD_REACTORS
330
25D
102
}
330
25D
100
DictionaryVariables
280
     0
  1
0
  0
DICTIONARYVAR
  5
262
102
{ACAD_REACTORS
330
25D
102
}
330
25D
100
DictionaryVariables
280
     0
  1
2
  0
DICTIONARYVAR
  5
260
102
{ACAD_REACTORS
330
25D
102
}
330
25D
100
DictionaryVariables
280
     0
  1
1
  0
DICTIONARYVAR
  5
265
102
{ACAD_REACTORS
330
25D
102
}
330
25D
100
DictionaryVariables
280
     0
  1
127
  0
DICTIONARYVAR
  5
269
102
{ACAD_REACTORS
330
25D
102
}
330
25D
100
DictionaryVariables
280
     0
  1
2
  0
DICTIONARY
  5
2A3
330
6B
100
AcDbDictionary
280
     1
281
     1
  3
ACAD_XREC_ROUNDTRIP
360
2A4
  0
DICTIONARY
  5
2A7
330
73
100
AcDbDictionary
280
     1
281
     1
  3
ACAD_XREC_ROUNDTRIP
360
2A8
  0
DICTIONARY
  5
2A5
330
6F
100
AcDbDictionary
280
     1
281
     1
  3
ACAD_XREC_ROUNDTRIP
360
2A6
  0
DICTIONARY
  5
1A
330
19
100
AcDbDictionary
280
     1
281
     1
  3
ACAD_XREC_ROUNDTRIP
360
26F
  3
BUMPTILE
360
1C
  3
DIFFUSETILE
360
1B
  3
OPACITYTILE
360
1F
  3
REFLECTIONTILE
360
1E
  3
REFRACTIONTILE
360
20
  3
SPECULARTILE
360
1D
  0
DICTIONARY
  5
12
330
11
100
AcDbDictionary
280
     1
281
     1
  3
ACAD_XREC_ROUNDTRIP
360
26E
  3
BUMPTILE
360
14
  3
DIFFUSETILE
360
13
  3
OPACITYTILE
360
17
  3
REFLECTIONTILE
360
16
  3
REFRACTIONTILE
360
18
  3
SPECULARTILE
360
15
  0
DICTIONARY
  5
22
330
21
100
AcDbDictionary
280
     1
281
     1
  3
ACAD_XREC_ROUNDTRIP
360
270
  3
BUMPTILE
360
24
  3
DIFFUSETILE
360
23
  3
OPACITYTILE
360
27
  3
REFLECTIONTILE
360
26
  3
REFRACTIONTILE
360
28
  3
SPECULARTILE
360
25
  0
DICTIONARY
  5
26A
330
65
100
AcDbDictionary
280
     1
281
     1
  3
ACAD_ROUNDTRIP_2008_TABLESTYLE_CELLSTYLEMAP
360
26B
  3
ACAD_XREC_ROUNDTRIP
360
2A1
  0
DICTIONARY
  5
27B
330
2F
100
AcDbDictionary
280
     1
281
     1
  3
ACAD_XREC_ROUNDTRIP
360
27C
  0
DICTIONARY
  5
279
330
2E
100
AcDbDictionary
280
     1
281
     1
  3
ACAD_XREC_ROUNDTRIP
360
27A
  0
DICTIONARY
  5
287
330
35
100
AcDbDictionary
280
     1
281
     1
  3
ACAD_XREC_ROUNDTRIP
360
288
  0
DICTIONARY
  5
28F
330
39
100
AcDbDictionary
280
     1
281
     1
  3
ACAD_XREC_ROUNDTRIP
360
290
  0
DICTIONARY
  5
281
330
32
100
AcDbDictionary
280
     1
281
     1
  3
ACAD_XREC_ROUNDTRIP
360
282
  0
DICTIONARY
  5
285
330
34
100
AcDbDictionary
280
     1
281
     1
  3
ACAD_XREC_ROUNDTRIP
360
286
  0
DICTIONARY
  5
29F
330
41
100
AcDbDictionary
280
     1
281
     1
  3
ACAD_XREC_ROUNDTRIP
360
2A0
  0
DICTIONARY
  5
28D
330
38
100
AcDbDictionary
280
     1
281
     1
  3
ACAD_XREC_ROUNDTRIP
360
28E
  0
DICTIONARY
  5
271
330
2A
100
AcDbDictionary
280
     1
281
     1
  3
ACAD_XREC_ROUNDTRIP
360
272
  0
DICTIONARY
  5
273
330
2B
100
AcDbDictionary
280
     1
281
     1
  3
ACAD_XREC_ROUNDTRIP
360
274
  0
DICTIONARY
  5
275
330
2C
100
AcDbDictionary
280
     1
281
     1
  3
ACAD_XREC_ROUNDTRIP
360
276
  0
DICTIONARY
  5
277
330
2D
100
AcDbDictionary
280
     1
281
     1
  3
ACAD_XREC_ROUNDTRIP
360
278
  0
DICTIONARY
  5
27F
330
31
100
AcDbDictionary
280
     1
281
     1
  3
ACAD_XREC_ROUNDTRIP
360
280
  0
DICTIONARY
  5
29B
330
3F
100
AcDbDictionary
280
     1
281
     1
  3
ACAD_XREC_ROUNDTRIP
360
29C
  0
DICTIONARY
  5
28B
330
37
100
AcDbDictionary
280
     1
281
     1
  3
ACAD_XREC_ROUNDTRIP
360
28C
  0
DICTIONARY
  5
29D
330
40
100
AcDbDictionary
280
     1
281
     1
  3
ACAD_XREC_ROUNDTRIP
360
29E
  0
DICTIONARY
  5
283
330
33
100
AcDbDictionary
280
     1
281
     1
  3
ACAD_XREC_ROUNDTRIP
360
284
  0
DICTIONARY
  5
299
330
3E
100
AcDbDictionary
280
     1
281
     1
  3
ACAD_XREC_ROUNDTRIP
360
29A
  0
DICTIONARY
  5
297
330
3D
100
AcDbDictionary
280
     1
281
     1
  3
ACAD_XREC_ROUNDTRIP
360
298
  0
DICTIONARY
  5
291
330
3A
100
AcDbDictionary
280
     1
281
     1
  3
ACAD_XREC_ROUNDTRIP
360
292
  0
DICTIONARY
  5
293
330
3B
100
AcDbDictionary
280
     1
281
     1
  3
ACAD_XREC_ROUNDTRIP
360
294
  0
DICTIONARY
  5
289
330
36
100
AcDbDictionary
280
     1
281
     1
  3
ACAD_XREC_ROUNDTRIP
360
28A
  0
DICTIONARY
  5
27D
330
30
100
AcDbDictionary
280
     1
281
     1
  3
ACAD_XREC_ROUNDTRIP
360
27E
  0
DICTIONARY
  5
295
330
3C
100
AcDbDictionary
280
     1
281
     1
  3
ACAD_XREC_ROUNDTRIP
360
296
  0
XRECORD
  5
2A4
102
{ACAD_REACTORS
330
2A3
102
}
330
2A3
100
AcDbXrecord
280
     1
102
SHADEPLOT
 70
     0
102
SHADEPLOTRESLEVEL
 70
     2
102
SHADEPLOTCUSTOMDPI
 70
   300
  0
XRECORD
  5
2A8
102
{ACAD_REACTORS
330
2A7
102
}
330
2A7
100
AcDbXrecord
280
     1
102
SHADEPLOT
 70
     0
102
SHADEPLOTRESLEVEL
 70
     2
102
SHADEPLOTCUSTOMDPI
 70
   300
  0
XRECORD
  5
2A6
102
{ACAD_REACTORS
330
2A5
102
}
330
2A5
100
AcDbXrecord
280
     1
102
SHADEPLOT
 70
     0
102
SHADEPLOTRESLEVEL
 70
     2
102
SHADEPLOTCUSTOMDPI
 70
   300
  0
XRECORD
  5
26F
102
{ACAD_REACTORS
330
1A
102
}
330
1A
100
AcDbXrecord
280
     1
102
MATERIAL
148
0.0
149
0.0
149
0.0
 93
        0
 94
      127
282
     0
 72
     0
 77
     0
171
     0
175
     0
179
     0
273
     0
  0
XRECORD
  5
1C
102
{ACAD_REACTORS
330
1A
102
}
330
1A
100
AcDbXrecord
280
     1
270
     1
271
     1
  0
XRECORD
  5
1B
102
{ACAD_REACTORS
330
1A
102
}
330
1A
100
AcDbXrecord
280
     1
270
     1
271
     1
  0
XRECORD
  5
1F
102
{ACAD_REACTORS
330
1A
102
}
330
1A
100
AcDbXrecord
280
     1
270
     1
271
     1
  0
XRECORD
  5
1E
102
{ACAD_REACTORS
330
1A
102
}
330
1A
100
AcDbXrecord
280
     1
270
     1
271
     1
  0
XRECORD
  5
20
102
{ACAD_REACTORS
330
1A
102
}
330
1A
100
AcDbXrecord
280
     1
270
     1
271
     1
  0
XRECORD
  5
1D
102
{ACAD_REACTORS
330
1A
102
}
330
1A
100
AcDbXrecord
280
     1
270
     1
271
     1
  0
XRECORD
  5
26E
102
{ACAD_REACTORS
330
12
102
}
330
12
100
AcDbXrecord
280
     1
102
MATERIAL
148
0.0
149
0.0
149
0.0
 93
        0
 94
      127
282
     0
 72
     0
 77
     0
171
     0
175
     0
179
     0
273
     0
  0
XRECORD
  5
14
102
{ACAD_REACTORS
330
12
102
}
330
12
100
AcDbXrecord
280
     1
270
     1
271
     1
  0
XRECORD
  5
13
102
{ACAD_REACTORS
330
12
102
}
330
12
100
AcDbXrecord
280
     1
270
     1
271
     1
  0
XRECORD
  5
17
102
{ACAD_REACTORS
330
12
102
}
330
12
100
AcDbXrecord
280
     1
270
     1
271
     1
  0
XRECORD
  5
16
102
{ACAD_REACTORS
330
12
102
}
330
12
100
AcDbXrecord
280
     1
270
     1
271
     1
  0
XRECORD
  5
18
102
{ACAD_REACTORS
330
12
102
}
330
12
100
AcDbXrecord
280
     1
270
     1
271
     1
  0
XRECORD
  5
15
102
{ACAD_REACTORS
330
12
102
}
330
12
100
AcDbXrecord
280
     1
270
     1
271
     1
  0
XRECORD
  5
270
102
{ACAD_REACTORS
330
22
102
}
330
22
100
AcDbXrecord
280
     1
102
MATERIAL
148
0.0
149
0.0
149
0.0
 93
        0
 94
      127
282
     0
 72
     0
 77
     0
171
     0
175
     0
179
     0
273
     0
  0
XRECORD
  5
24
102
{ACAD_REACTORS
330
22
102
}
330
22
100
AcDbXrecord
280
     1
270
     1
271
     1
  0
XRECORD
  5
23
102
{ACAD_REACTORS
330
22
102
}
330
22
100
AcDbXrecord
280
     1
270
     1
271
     1
  0
XRECORD
  5
27
102
{ACAD_REACTORS
330
22
102
}
330
22
100
AcDbXrecord
280
     1
270
     1
271
     1
  0
XRECORD
  5
26
102
{ACAD_REACTORS
330
22
102
}
330
22
100
AcDbXrecord
280
     1
270
     1
271
     1
  0
XRECORD
  5
28
102
{ACAD_REACTORS
330
22
102
}
330
22
100
AcDbXrecord
280
     1
270
     1
271
     1
  0
XRECORD
  5
25
102
{ACAD_REACTORS
330
22
102
}
330
22
100
AcDbXrecord
280
     1
270
     1
271
     1
  0
CELLSTYLEMAP
  5
26B
102
{ACAD_REACTORS
330
26A
102
}
330
26A
100
AcDbCellStyleMap
 90
        3
300
CELLSTYLE
  1
TABLEFORMAT_BEGIN
 90
        5
170
     1
 91
        0
 92
    32768
 62
   257
 93
        1
300
CONTENTFORMAT
  1
CONTENTFORMAT_BEGIN
 90
        0
 91
        0
 92
      512
 93
        0
300

 40
0.0
140
1.0
 94
        5
 62
     0
340
55
144
0.25
309
CONTENTFORMAT_END
171
     0
 94
        0
309
TABLEFORMAT_END
  1
CELLSTYLE_BEGIN
 90
        1
 91
        1
300
_TITLE
309
CELLSTYLE_END
300
CELLSTYLE
  1
TABLEFORMAT_BEGIN
 90
        5
170
     1
 91
        0
 92
        0
 62
   257
 93
        1
300
CONTENTFORMAT
  1
CONTENTFORMAT_BEGIN
 90
        0
 91
        0
 92
      512
 93
        0
300

 40
0.0
140
1.0
 94
        5
 62
     0
340
55
144
0.18
309
CONTENTFORMAT_END
171
     0
 94
        0
309
TABLEFORMAT_END
  1
CELLSTYLE_BEGIN
 90
        2
 91
        1
300
_HEADER
309
CELLSTYLE_END
300
CELLSTYLE
  1
TABLEFORMAT_BEGIN
 90
        5
170
     1
 91
        0
 92
        0
 62
   257
 93
        1
300
CONTENTFORMAT
  1
CONTENTFORMAT_BEGIN
 90
        0
 91
        0
 92
      512
 93
        0
300

 40
0.0
140
1.0
 94
        2
 62
     0
340
55
144
0.18
309
CONTENTFORMAT_END
171
     0
 94
        0
309
TABLEFORMAT_END
  1
CELLSTYLE_BEGIN
 90
        3
 91
        2
300
_DATA
309
CELLSTYLE_END
  0
XRECORD
  5
2A1
102
{ACAD_REACTORS
330
26A
102
}
330
26A
100
AcDbXrecord
280
     1
102
ACAD_ROUNDTRIP_PRE2007_TABLESTYLE
 90
      512
 91
        0
  1

 92
      512
 93
        0
  2

 94
      512
 95
        0
  3

  0
XRECORD
  5
27C
102
{ACAD_REACTORS
330
27B
102
}
330
27B
100
AcDbXrecord
280
     1
102
RTVSPropertyOp0
 70
     1
102
RTVSPropertyOp1
 70
     1
102
RTVSPropertyOp2
 70
     1
102
RTVSPropertyOp3
 70
     1
102
RTVSPropertyOp4
 70
     1
102
RTVSPropertyOp5
 70
     1
102
RTVSPropertyOp6
 70
     1
102
RTVSPropertyOp7
 70
     1
102
RTVSPropertyOp8
 70
     1
102
RTVSPropertyOp9
 70
     1
102
RTVSPropertyOp10
 70
     1
102
RTVSPropertyOp11
 70
     1
102
RTVSPropertyOp12
 70
     1
102
RTVSPropertyOp13
 70
     1
102
RTVSPropertyOp14
 70
     1
102
RTVSPropertyOp15
 70
     1
102
RTVSPropertyOp16
 70
     1
102
RTVSPropertyOp17
 70
     1
102
RTVSPropertyOp18
 70
     1
102
RTVSPropertyOp19
 70
     1
102
RTVSPropertyOp20
 70
     1
102
RTVSPropertyOp21
 70
     1
102
RTVSPropertyOp22
 70
     1
102
RTVSPropertyOp23
 70
     1
102
RTVSPropertyOp24
 70
     1
102
RTVSPropertyOp25
 70
     1
102
RTVSPropertyOp26
 70
     1
102
RTVSPropertyOp27
 70
     1
102
RTVSPropertyOp28
 70
     1
102
RTVSPropertyOp29
 70
     1
102
RTVSPropertyOp30
 70
     1
102
RTVSPropertyOp31
 70
     1
102
RTVSPropertyOp32
 70
     1
  0
XRECORD
  5
27A
102
{ACAD_REACTORS
330
279
102
}
330
279
100
AcDbXrecord
280
     1
102
RTVSPropertyOp0
 70
     1
102
RTVSPropertyOp1
 70
     1
102
RTVSPropertyOp2
 70
     1
102
RTVSPropertyOp3
 70
     1
102
RTVSPropertyOp4
 70
     1
102
RTVSPropertyOp5
 70
     1
102
RTVSPropertyOp6
 70
     1
102
RTVSPropertyOp7
 70
     1
102
RTVSPropertyOp8
 70
     1
102
RTVSPropertyOp9
 70
     1
102
RTVSPropertyOp10
 70
     1
102
RTVSPropertyOp11
 70
     1
102
RTVSPropertyOp12
 70
     1
102
RTVSPropertyOp13
 70
     1
102
RTVSPropertyOp14
 70
     1
102
RTVSPropertyOp15
 70
     1
102
RTVSPropertyOp16
 70
     1
102
RTVSPropertyOp17
 70
     1
102
RTVSPropertyOp18
 70
     1
102
RTVSPropertyOp19
 70
     1
102
RTVSPropertyOp20
 70
     1
102
RTVSPropertyOp21
 70
     1
102
RTVSPropertyOp22
 70
     1
102
RTVSPropertyOp23
 70
     1
102
RTVSPropertyOp24
 70
     1
102
RTVSPropertyOp25
 70
     1
102
RTVSPropertyOp26
 70
     1
102
RTVSPropertyOp27
 70
     1
102
RTVSPropertyOp28
 70
     1
102
RTVSPropertyOp29
 70
     1
102
RTVSPropertyOp30
 70
     1
102
RTVSPropertyOp31
 70
     1
102
RTVSPropertyOp32
 70
     1
  0
XRECORD
  5
288
102
{ACAD_REACTORS
330
287
102
}
330
287
100
AcDbXrecord
280
     1
102
RTVSPropertyOp0
 70
     1
102
RTVSPropertyOp1
 70
     1
102
RTVSPropertyOp2
 70
     1
102
RTVSPropertyOp3
 70
     1
102
RTVSPropertyOp4
 70
     1
102
RTVSPropertyOp5
 70
     1
102
RTVSPropertyOp6
 70
     1
102
RTVSPropertyOp7
 70
     1
102
RTVSPropertyOp8
 70
     1
102
RTVSPropertyOp9
 70
     1
102
RTVSPropertyOp10
 70
     1
102
RTVSPropertyOp11
 70
     1
102
RTVSPropertyOp12
 70
     1
102
RTVSPropertyOp13
 70
     1
102
RTVSPropertyOp14
 70
     1
102
RTVSPropertyOp15
 70
     1
102
RTVSPropertyOp16
 70
     1
102
RTVSPropertyOp17
 70
     1
102
RTVSPropertyOp18
 70
     1
102
RTVSPropertyOp19
 70
     1
102
RTVSPropertyOp20
 70
     1
102
RTVSPropertyOp21
 70
     1
102
RTVSPropertyOp22
 70
     1
102
RTVSPropertyOp23
 70
     1
102
RTVSPropertyOp24
 70
     1
102
RTVSPropertyOp25
 70
     1
102
RTVSPropertyOp26
 70
     1
102
RTVSPropertyOp27
 70
     1
102
RTVSPropertyOp28
 70
     1
102
RTVSPropertyOp29
 70
     1
102
RTVSPropertyOp30
 70
     1
102
RTVSPropertyOp31
 70
     1
102
RTVSPropertyOp32
 70
     1
  0
XRECORD
  5
290
102
{ACAD_REACTORS
330
28F
102
}
330
28F
100
AcDbXrecord
280
     1
102
RTVSPropertyOp0
 70
     1
102
RTVSPropertyOp1
 70
     1
102
RTVSPropertyOp2
 70
     1
102
RTVSPropertyOp3
 70
     1
102
RTVSPropertyOp4
 70
     1
102
RTVSPropertyOp5
 70
     1
102
RTVSPropertyOp6
 70
     1
102
RTVSPropertyOp7
 70
     1
102
RTVSPropertyOp8
 70
     1
102
RTVSPropertyOp9
 70
     1
102
RTVSPropertyOp10
 70
     1
102
RTVSPropertyOp11
 70
     1
102
RTVSPropertyOp12
 70
     1
102
RTVSPropertyOp13
 70
     1
102
RTVSPropertyOp14
 70
     1
102
RTVSPropertyOp15
 70
     1
102
RTVSPropertyOp16
 70
     1
102
RTVSPropertyOp17
 70
     1
102
RTVSPropertyOp18
 70
     1
102
RTVSPropertyOp19
 70
     1
102
RTVSPropertyOp20
 70
     1
102
RTVSPropertyOp21
 70
     1
102
RTVSPropertyOp22
 70
     1
102
RTVSPropertyOp23
 70
     1
102
RTVSPropertyOp24
 70
     1
102
RTVSPropertyOp25
 70
     1
102
RTVSPropertyOp26
 70
     1
102
RTVSPropertyOp27
 70
     1
102
RTVSPropertyOp28
 70
     1
102
RTVSPropertyOp29
 70
     1
102
RTVSPropertyOp30
 70
     1
102
RTVSPropertyOp31
 70
     1
102
RTVSPropertyOp32
 70
     1
  0
XRECORD
  5
282
102
{ACAD_REACTORS
330
281
102
}
330
281
100
AcDbXrecord
280
     1
102
RTVSPropertyOp0
 70
     1
102
RTVSPropertyOp1
 70
     1
102
RTVSPropertyOp2
 70
     1
102
RTVSPropertyOp3
 70
     1
102
RTVSPropertyOp4
 70
     1
102
RTVSPropertyOp5
 70
     1
102
RTVSPropertyOp6
 70
     1
102
RTVSPropertyOp7
 70
     1
102
RTVSPropertyOp8
 70
     1
102
RTVSPropertyOp9
 70
     1
102
RTVSPropertyOp10
 70
     1
102
RTVSPropertyOp11
 70
     1
102
RTVSPropertyOp12
 70
     1
102
RTVSPropertyOp13
 70
     1
102
RTVSPropertyOp14
 70
     1
102
RTVSPropertyOp15
 70
     1
102
RTVSPropertyOp16
 70
     1
102
RTVSPropertyOp17
 70
     1
102
RTVSPropertyOp18
 70
     1
102
RTVSPropertyOp19
 70
     1
102
RTVSPropertyOp20
 70
     1
102
RTVSPropertyOp21
 70
     1
102
RTVSPropertyOp22
 70
     1
102
RTVSPropertyOp23
 70
     1
102
RTVSPropertyOp24
 70
     1
102
RTVSPropertyOp25
 70
     1
102
RTVSPropertyOp26
 70
     1
102
RTVSPropertyOp27
 70
     1
102
RTVSPropertyOp28
 70
     1
102
RTVSPropertyOp29
 70
     1
102
RTVSPropertyOp30
 70
     1
102
RTVSPropertyOp31
 70
     1
102
RTVSPropertyOp32
 70
     1
  0
XRECORD
  5
286
102
{ACAD_REACTORS
330
285
102
}
330
285
100
AcDbXrecord
280
     1
102
RTVSPropertyOp0
 70
     1
102
RTVSPropertyOp1
 70
     1
102
RTVSPropertyOp2
 70
     1
102
RTVSPropertyOp3
 70
     1
102
RTVSPropertyOp4
 70
     1
102
RTVSPropertyOp5
 70
     1
102
RTVSPropertyOp6
 70
     1
102
RTVSPropertyOp7
 70
     1
102
RTVSPropertyOp8
 70
     1
102
RTVSPropertyOp9
 70
     1
102
RTVSPropertyOp10
 70
     1
102
RTVSPropertyOp11
 70
     1
102
RTVSPropertyOp12
 70
     1
102
RTVSPropertyOp13
 70
     1
102
RTVSPropertyOp14
 70
     1
102
RTVSPropertyOp15
 70
     1
102
RTVSPropertyOp16
 70
     1
102
RTVSPropertyOp17
 70
     1
102
RTVSPropertyOp18
 70
     1
102
RTVSPropertyOp19
 70
     1
102
RTVSPropertyOp20
 70
     1
102
RTVSPropertyOp21
 70
     1
102
RTVSPropertyOp22
 70
     1
102
RTVSPropertyOp23
 70
     1
102
RTVSPropertyOp24
 70
     1
102
RTVSPropertyOp25
 70
     1
102
RTVSPropertyOp26
 70
     1
102
RTVSPropertyOp27
 70
     1
102
RTVSPropertyOp28
 70
     1
102
RTVSPropertyOp29
 70
     1
102
RTVSPropertyOp30
 70
     1
102
RTVSPropertyOp31
 70
     1
102
RTVSPropertyOp32
 70
     1
  0
XRECORD
  5
2A0
102
{ACAD_REACTORS
330
29F
102
}
330
29F
100
AcDbXrecord
280
     1
102
RTVSPropertyOp0
 70
     0
102
RTVSPropertyOp1
 70
     0
102
RTVSPropertyOp2
 70
     0
102
RTVSPropertyOp3
 70
     0
102
RTVSPropertyOp4
 70
     0
102
RTVSPropertyOp5
 70
     0
102
RTVSPropertyOp6
 70
     0
102
RTVSPropertyOp7
 70
     0
102
RTVSPropertyOp8
 70
     0
102
RTVSPropertyOp9
 70
     0
102
RTVSPropertyOp10
 70
     0
102
RTVSPropertyOp11
 70
     0
102
RTVSPropertyOp12
 70
     0
102
RTVSPropertyOp13
 70
     0
102
RTVSPropertyOp14
 70
     2
102
RTVSPropertyOp15
 70
     0
102
RTVSPropertyOp16
 70
     0
102
RTVSPropertyOp17
 70
     0
102
RTVSPropertyOp18
 70
     0
102
RTVSPropertyOp19
 70
     0
102
RTVSPropertyOp20
 70
     0
102
RTVSPropertyOp21
 70
     0
102
RTVSPropertyOp22
 70
     0
102
RTVSPropertyOp23
 70
     0
102
RTVSPropertyOp24
 70
     0
102
RTVSPropertyOp25
 70
     0
102
RTVSPropertyOp26
 70
     0
102
RTVSPropertyOp27
 70
     0
102
RTVSPropertyOp28
 70
     0
102
RTVSPropertyOp29
 70
     0
102
RTVSPropertyOp30
 70
     0
102
RTVSPropertyOp31
 70
     0
102
RTVSPropertyOp32
 70
     0
  0
XRECORD
  5
28E
102
{ACAD_REACTORS
330
28D
102
}
330
28D
100
AcDbXrecord
280
     1
102
RTVSPropertyOp0
 70
     1
102
RTVSPropertyOp1
 70
     1
102
RTVSPropertyOp2
 70
     1
102
RTVSPropertyOp3
 70
     1
102
RTVSPropertyOp4
 70
     1
102
RTVSPropertyOp5
 70
     1
102
RTVSPropertyOp6
 70
     1
102
RTVSPropertyOp7
 70
     1
102
RTVSPropertyOp8
 70
     1
102
RTVSPropertyOp9
 70
     1
102
RTVSPropertyOp10
 70
     1
102
RTVSPropertyOp11
 70
     1
102
RTVSPropertyOp12
 70
     1
102
RTVSPropertyOp13
 70
     1
102
RTVSPropertyOp14
 70
     1
102
RTVSPropertyOp15
 70
     1
102
RTVSPropertyOp16
 70
     1
102
RTVSPropertyOp17
 70
     1
102
RTVSPropertyOp18
 70
     1
102
RTVSPropertyOp19
 70
     1
102
RTVSPropertyOp20
 70
     1
102
RTVSPropertyOp21
 70
     1
102
RTVSPropertyOp22
 70
     1
102
RTVSPropertyOp23
 70
     1
102
RTVSPropertyOp24
 70
     1
102
RTVSPropertyOp25
 70
     1
102
RTVSPropertyOp26
 70
     1
102
RTVSPropertyOp27
 70
     1
102
RTVSPropertyOp28
 70
     1
102
RTVSPropertyOp29
 70
     1
102
RTVSPropertyOp30
 70
     1
102
RTVSPropertyOp31
 70
     1
102
RTVSPropertyOp32
 70
     1
  0
XRECORD
  5
272
102
{ACAD_REACTORS
330
271
102
}
330
271
100
AcDbXrecord
280
     1
102
RTVSPropertyOp0
 70
     1
102
RTVSPropertyOp1
 70
     1
102
RTVSPropertyOp2
 70
     1
102
RTVSPropertyOp3
 70
     1
102
RTVSPropertyOp4
 70
     1
102
RTVSPropertyOp5
 70
     1
102
RTVSPropertyOp6
 70
     1
102
RTVSPropertyOp7
 70
     1
102
RTVSPropertyOp8
 70
     1
102
RTVSPropertyOp9
 70
     1
102
RTVSPropertyOp10
 70
     1
102
RTVSPropertyOp11
 70
     1
102
RTVSPropertyOp12
 70
     1
102
RTVSPropertyOp13
 70
     1
102
RTVSPropertyOp14
 70
     1
102
RTVSPropertyOp15
 70
     1
102
RTVSPropertyOp16
 70
     1
102
RTVSPropertyOp17
 70
     1
102
RTVSPropertyOp18
 70
     1
102
RTVSPropertyOp19
 70
     1
102
RTVSPropertyOp20
 70
     1
102
RTVSPropertyOp21
 70
     1
102
RTVSPropertyOp22
 70
     1
102
RTVSPropertyOp23
 70
     1
102
RTVSPropertyOp24
 70
     1
102
RTVSPropertyOp25
 70
     1
102
RTVSPropertyOp26
 70
     1
102
RTVSPropertyOp27
 70
     1
102
RTVSPropertyOp28
 70
     1
102
RTVSPropertyOp29
 70
     1
102
RTVSPropertyOp30
 70
     1
102
RTVSPropertyOp31
 70
     1
102
RTVSPropertyOp32
 70
     1
  0
XRECORD
  5
274
102
{ACAD_REACTORS
330
273
102
}
330
273
100
AcDbXrecord
280
     1
102
RTVSPropertyOp0
 70
     1
102
RTVSPropertyOp1
 70
     1
102
RTVSPropertyOp2
 70
     1
102
RTVSPropertyOp3
 70
     1
102
RTVSPropertyOp4
 70
     1
102
RTVSPropertyOp5
 70
     1
102
RTVSPropertyOp6
 70
     1
102
RTVSPropertyOp7
 70
     1
102
RTVSPropertyOp8
 70
     1
102
RTVSPropertyOp9
 70
     1
102
RTVSPropertyOp10
 70
     1
102
RTVSPropertyOp11
 70
     1
102
RTVSPropertyOp12
 70
     1
102
RTVSPropertyOp13
 70
     1
102
RTVSPropertyOp14
 70
     1
102
RTVSPropertyOp15
 70
     1
102
RTVSPropertyOp16
 70
     1
102
RTVSPropertyOp17
 70
     1
102
RTVSPropertyOp18
 70
     1
102
RTVSPropertyOp19
 70
     1
102
RTVSPropertyOp20
 70
     1
102
RTVSPropertyOp21
 70
     1
102
RTVSPropertyOp22
 70
     1
102
RTVSPropertyOp23
 70
     1
102
RTVSPropertyOp24
 70
     1
102
RTVSPropertyOp25
 70
     1
102
RTVSPropertyOp26
 70
     1
102
RTVSPropertyOp27
 70
     1
102
RTVSPropertyOp28
 70
     1
102
RTVSPropertyOp29
 70
     1
102
RTVSPropertyOp30
 70
     1
102
RTVSPropertyOp31
 70
     1
102
RTVSPropertyOp32
 70
     1
  0
XRECORD
  5
276
102
{ACAD_REACTORS
330
275
102
}
330
275
100
AcDbXrecord
280
     1
102
RTVSPropertyOp0
 70
     1
102
RTVSPropertyOp1
 70
     1
102
RTVSPropertyOp2
 70
     1
102
RTVSPropertyOp3
 70
     1
102
RTVSPropertyOp4
 70
     1
102
RTVSPropertyOp5
 70
     1
102
RTVSPropertyOp6
 70
     1
102
RTVSPropertyOp7
 70
     1
102
RTVSPropertyOp8
 70
     1
102
RTVSPropertyOp9
 70
     1
102
RTVSPropertyOp10
 70
     1
102
RTVSPropertyOp11
 70
     1
102
RTVSPropertyOp12
 70
     1
102
RTVSPropertyOp13
 70
     1
102
RTVSPropertyOp14
 70
     1
102
RTVSPropertyOp15
 70
     1
102
RTVSPropertyOp16
 70
     1
102
RTVSPropertyOp17
 70
     1
102
RTVSPropertyOp18
 70
     1
102
RTVSPropertyOp19
 70
     1
102
RTVSPropertyOp20
 70
     1
102
RTVSPropertyOp21
 70
     1
102
RTVSPropertyOp22
 70
     1
102
RTVSPropertyOp23
 70
     1
102
RTVSPropertyOp24
 70
     1
102
RTVSPropertyOp25
 70
     1
102
RTVSPropertyOp26
 70
     1
102
RTVSPropertyOp27
 70
     1
102
RTVSPropertyOp28
 70
     1
102
RTVSPropertyOp29
 70
     1
102
RTVSPropertyOp30
 70
     1
102
RTVSPropertyOp31
 70
     1
102
RTVSPropertyOp32
 70
     1
  0
XRECORD
  5
278
102
{ACAD_REACTORS
330
277
102
}
330
277
100
AcDbXrecord
280
     1
102
RTVSPropertyOp0
 70
     1
102
RTVSPropertyOp1
 70
     1
102
RTVSPropertyOp2
 70
     1
102
RTVSPropertyOp3
 70
     1
102
RTVSPropertyOp4
 70
     1
102
RTVSPropertyOp5
 70
     1
102
RTVSPropertyOp6
 70
     1
102
RTVSPropertyOp7
 70
     1
102
RTVSPropertyOp8
 70
     1
102
RTVSPropertyOp9
 70
     1
102
RTVSPropertyOp10
 70
     1
102
RTVSPropertyOp11
 70
     1
102
RTVSPropertyOp12
 70
     1
102
RTVSPropertyOp13
 70
     1
102
RTVSPropertyOp14
 70
     1
102
RTVSPropertyOp15
 70
     1
102
RTVSPropertyOp16
 70
     1
102
RTVSPropertyOp17
 70
     1
102
RTVSPropertyOp18
 70
     1
102
RTVSPropertyOp19
 70
     1
102
RTVSPropertyOp20
 70
     1
102
RTVSPropertyOp21
 70
     1
102
RTVSPropertyOp22
 70
     1
102
RTVSPropertyOp23
 70
     1
102
RTVSPropertyOp24
 70
     1
102
RTVSPropertyOp25
 70
     1
102
RTVSPropertyOp26
 70
     1
102
RTVSPropertyOp27
 70
     1
102
RTVSPropertyOp28
 70
     1
102
RTVSPropertyOp29
 70
     1
102
RTVSPropertyOp30
 70
     1
102
RTVSPropertyOp31
 70
     1
102
RTVSPropertyOp32
 70
     1
  0
XRECORD
  5
280
102
{ACAD_REACTORS
330
27F
102
}
330
27F
100
AcDbXrecord
280
     1
102
RTVSPropertyOp0
 70
     1
102
RTVSPropertyOp1
 70
     1
102
RTVSPropertyOp2
 70
     1
102
RTVSPropertyOp3
 70
     1
102
RTVSPropertyOp4
 70
     1
102
RTVSPropertyOp5
 70
     1
102
RTVSPropertyOp6
 70
     1
102
RTVSPropertyOp7
 70
     1
102
RTVSPropertyOp8
 70
     1
102
RTVSPropertyOp9
 70
     1
102
RTVSPropertyOp10
 70
     1
102
RTVSPropertyOp11
 70
     1
102
RTVSPropertyOp12
 70
     1
102
RTVSPropertyOp13
 70
     1
102
RTVSPropertyOp14
 70
     1
102
RTVSPropertyOp15
 70
     1
102
RTVSPropertyOp16
 70
     1
102
RTVSPropertyOp17
 70
     1
102
RTVSPropertyOp18
 70
     1
102
RTVSPropertyOp19
 70
     1
102
RTVSPropertyOp20
 70
     1
102
RTVSPropertyOp21
 70
     1
102
RTVSPropertyOp22
 70
     1
102
RTVSPropertyOp23
 70
     1
102
RTVSPropertyOp24
 70
     1
102
RTVSPropertyOp25
 70
     1
102
RTVSPropertyOp26
 70
     1
102
RTVSPropertyOp27
 70
     1
102
RTVSPropertyOp28
 70
     1
102
RTVSPropertyOp29
 70
     1
102
RTVSPropertyOp30
 70
     1
102
RTVSPropertyOp31
 70
     1
102
RTVSPropertyOp32
 70
     1
  0
XRECORD
  5
29C
102
{ACAD_REACTORS
330
29B
102
}
330
29B
100
AcDbXrecord
280
     1
102
RTVSPropertyOp0
 70
     0
102
RTVSPropertyOp1
 70
     0
102
RTVSPropertyOp2
 70
     0
102
RTVSPropertyOp3
 70
     0
102
RTVSPropertyOp4
 70
     0
102
RTVSPropertyOp5
 70
     0
102
RTVSPropertyOp6
 70
     0
102
RTVSPropertyOp7
 70
     0
102
RTVSPropertyOp8
 70
     0
102
RTVSPropertyOp9
 70
     0
102
RTVSPropertyOp10
 70
     0
102
RTVSPropertyOp11
 70
     0
102
RTVSPropertyOp12
 70
     0
102
RTVSPropertyOp13
 70
     0
102
RTVSPropertyOp14
 70
     2
102
RTVSPropertyOp15
 70
     0
102
RTVSPropertyOp16
 70
     0
102
RTVSPropertyOp17
 70
     0
102
RTVSPropertyOp18
 70
     0
102
RTVSPropertyOp19
 70
     0
102
RTVSPropertyOp20
 70
     0
102
RTVSPropertyOp21
 70
     0
102
RTVSPropertyOp22
 70
     0
102
RTVSPropertyOp23
 70
     0
102
RTVSPropertyOp24
 70
     0
102
RTVSPropertyOp25
 70
     0
102
RTVSPropertyOp26
 70
     0
102
RTVSPropertyOp27
 70
     0
102
RTVSPropertyOp28
 70
     0
102
RTVSPropertyOp29
 70
     0
102
RTVSPropertyOp30
 70
     0
102
RTVSPropertyOp31
 70
     0
102
RTVSPropertyOp32
 70
     0
  0
XRECORD
  5
28C
102
{ACAD_REACTORS
330
28B
102
}
330
28B
100
AcDbXrecord
280
     1
102
RTVSPropertyOp0
 70
     1
102
RTVSPropertyOp1
 70
     1
102
RTVSPropertyOp2
 70
     1
102
RTVSPropertyOp3
 70
     1
102
RTVSPropertyOp4
 70
     1
102
RTVSPropertyOp5
 70
     1
102
RTVSPropertyOp6
 70
     1
102
RTVSPropertyOp7
 70
     1
102
RTVSPropertyOp8
 70
     1
102
RTVSPropertyOp9
 70
     1
102
RTVSPropertyOp10
 70
     1
102
RTVSPropertyOp11
 70
     1
102
RTVSPropertyOp12
 70
     1
102
RTVSPropertyOp13
 70
     1
102
RTVSPropertyOp14
 70
     1
102
RTVSPropertyOp15
 70
     1
102
RTVSPropertyOp16
 70
     1
102
RTVSPropertyOp17
 70
     1
102
RTVSPropertyOp18
 70
     1
102
RTVSPropertyOp19
 70
     1
102
RTVSPropertyOp20
 70
     1
102
RTVSPropertyOp21
 70
     1
102
RTVSPropertyOp22
 70
     1
102
RTVSPropertyOp23
 70
     1
102
RTVSPropertyOp24
 70
     1
102
RTVSPropertyOp25
 70
     1
102
RTVSPropertyOp26
 70
     1
102
RTVSPropertyOp27
 70
     1
102
RTVSPropertyOp28
 70
     1
102
RTVSPropertyOp29
 70
     1
102
RTVSPropertyOp30
 70
     1
102
RTVSPropertyOp31
 70
     1
102
RTVSPropertyOp32
 70
     1
  0
XRECORD
  5
29E
102
{ACAD_REACTORS
330
29D
102
}
330
29D
100
AcDbXrecord
280
     1
102
RTVSPropertyOp0
 70
     0
102
RTVSPropertyOp1
 70
     0
102
RTVSPropertyOp2
 70
     0
102
RTVSPropertyOp3
 70
     0
102
RTVSPropertyOp4
 70
     0
102
RTVSPropertyOp5
 70
     0
102
RTVSPropertyOp6
 70
     0
102
RTVSPropertyOp7
 70
     0
102
RTVSPropertyOp8
 70
     0
102
RTVSPropertyOp9
 70
     0
102
RTVSPropertyOp10
 70
     0
102
RTVSPropertyOp11
 70
     0
102
RTVSPropertyOp12
 70
     0
102
RTVSPropertyOp13
 70
     0
102
RTVSPropertyOp14
 70
     2
102
RTVSPropertyOp15
 70
     0
102
RTVSPropertyOp16
 70
     0
102
RTVSPropertyOp17
 70
     0
102
RTVSPropertyOp18
 70
     0
102
RTVSPropertyOp19
 70
     0
102
RTVSPropertyOp20
 70
     0
102
RTVSPropertyOp21
 70
     0
102
RTVSPropertyOp22
 70
     0
102
RTVSPropertyOp23
 70
     0
102
RTVSPropertyOp24
 70
     0
102
RTVSPropertyOp25
 70
     0
102
RTVSPropertyOp26
 70
     0
102
RTVSPropertyOp27
 70
     0
102
RTVSPropertyOp28
 70
     0
102
RTVSPropertyOp29
 70
     0
102
RTVSPropertyOp30
 70
     0
102
RTVSPropertyOp31
 70
     0
102
RTVSPropertyOp32
 70
     0
  0
XRECORD
  5
284
102
{ACAD_REACTORS
330
283
102
}
330
283
100
AcDbXrecord
280
     1
102
RTVSPropertyOp0
 70
     1
102
RTVSPropertyOp1
 70
     1
102
RTVSPropertyOp2
 70
     1
102
RTVSPropertyOp3
 70
     1
102
RTVSPropertyOp4
 70
     1
102
RTVSPropertyOp5
 70
     1
102
RTVSPropertyOp6
 70
     1
102
RTVSPropertyOp7
 70
     1
102
RTVSPropertyOp8
 70
     1
102
RTVSPropertyOp9
 70
     1
102
RTVSPropertyOp10
 70
     1
102
RTVSPropertyOp11
 70
     1
102
RTVSPropertyOp12
 70
     1
102
RTVSPropertyOp13
 70
     1
102
RTVSPropertyOp14
 70
     1
102
RTVSPropertyOp15
 70
     1
102
RTVSPropertyOp16
 70
     1
102
RTVSPropertyOp17
 70
     1
102
RTVSPropertyOp18
 70
     1
102
RTVSPropertyOp19
 70
     1
102
RTVSPropertyOp20
 70
     1
102
RTVSPropertyOp21
 70
     1
102
RTVSPropertyOp22
 70
     1
102
RTVSPropertyOp23
 70
     1
102
RTVSPropertyOp24
 70
     1
102
RTVSPropertyOp25
 70
     1
102
RTVSPropertyOp26
 70
     1
102
RTVSPropertyOp27
 70
     1
102
RTVSPropertyOp28
 70
     1
102
RTVSPropertyOp29
 70
     1
102
RTVSPropertyOp30
 70
     1
102
RTVSPropertyOp31
 70
     1
102
RTVSPropertyOp32
 70
     1
  0
XRECORD
  5
29A
102
{ACAD_REACTORS
330
299
102
}
330
299
100
AcDbXrecord
280
     1
102
RTVSPropertyOp0
 70
     1
102
RTVSPropertyOp1
 70
     1
102
RTVSPropertyOp2
 70
     1
102
RTVSPropertyOp3
 70
     1
102
RTVSPropertyOp4
 70
     1
102
RTVSPropertyOp5
 70
     1
102
RTVSPropertyOp6
 70
     1
102
RTVSPropertyOp7
 70
     1
102
RTVSPropertyOp8
 70
     1
102
RTVSPropertyOp9
 70
     1
102
RTVSPropertyOp10
 70
     1
102
RTVSPropertyOp11
 70
     1
102
RTVSPropertyOp12
 70
     1
102
RTVSPropertyOp13
 70
     1
102
RTVSPropertyOp14
 70
     1
102
RTVSPropertyOp15
 70
     1
102
RTVSPropertyOp16
 70
     1
102
RTVSPropertyOp17
 70
     1
102
RTVSPropertyOp18
 70
     1
102
RTVSPropertyOp19
 70
     1
102
RTVSPropertyOp20
 70
     1
102
RTVSPropertyOp21
 70
     1
102
RTVSPropertyOp22
 70
     1
102
RTVSPropertyOp23
 70
     1
102
RTVSPropertyOp24
 70
     1
102
RTVSPropertyOp25
 70
     1
102
RTVSPropertyOp26
 70
     1
102
RTVSPropertyOp27
 70
     1
102
RTVSPropertyOp28
 70
     1
102
RTVSPropertyOp29
 70
     1
102
RTVSPropertyOp30
 70
     1
102
RTVSPropertyOp31
 70
     1
102
RTVSPropertyOp32
 70
     1
  0
XRECORD
  5
298
102
{ACAD_REACTORS
330
297
102
}
330
297
100
AcDbXrecord
280
     1
102
RTVSPropertyOp0
 70
     1
102
RTVSPropertyOp1
 70
     1
102
RTVSPropertyOp2
 70
     1
102
RTVSPropertyOp3
 70
     1
102
RTVSPropertyOp4
 70
     1
102
RTVSPropertyOp5
 70
     1
102
RTVSPropertyOp6
 70
     1
102
RTVSPropertyOp7
 70
     1
102
RTVSPropertyOp8
 70
     1
102
RTVSPropertyOp9
 70
     1
102
RTVSPropertyOp10
 70
     1
102
RTVSPropertyOp11
 70
     1
102
RTVSPropertyOp12
 70
     1
102
RTVSPropertyOp13
 70
     1
102
RTVSPropertyOp14
 70
     1
102
RTVSPropertyOp15
 70
     1
102
RTVSPropertyOp16
 70
     1
102
RTVSPropertyOp17
 70
     1
102
RTVSPropertyOp18
 70
     1
102
RTVSPropertyOp19
 70
     1
102
RTVSPropertyOp20
 70
     1
102
RTVSPropertyOp21
 70
     1
102
RTVSPropertyOp22
 70
     1
102
RTVSPropertyOp23
 70
     1
102
RTVSPropertyOp24
 70
     1
102
RTVSPropertyOp25
 70
     1
102
RTVSPropertyOp26
 70
     1
102
RTVSPropertyOp27
 70
     1
102
RTVSPropertyOp28
 70
     1
102
RTVSPropertyOp29
 70
     1
102
RTVSPropertyOp30
 70
     1
102
RTVSPropertyOp31
 70
     1
102
RTVSPropertyOp32
 70
     1
  0
XRECORD
  5
292
102
{ACAD_REACTORS
330
291
102
}
330
291
100
AcDbXrecord
280
     1
102
RTVSPropertyOp0
 70
     1
102
RTVSPropertyOp1
 70
     1
102
RTVSPropertyOp2
 70
     1
102
RTVSPropertyOp3
 70
     1
102
RTVSPropertyOp4
 70
     1
102
RTVSPropertyOp5
 70
     1
102
RTVSPropertyOp6
 70
     1
102
RTVSPropertyOp7
 70
     1
102
RTVSPropertyOp8
 70
     1
102
RTVSPropertyOp9
 70
     1
102
RTVSPropertyOp10
 70
     1
102
RTVSPropertyOp11
 70
     1
102
RTVSPropertyOp12
 70
     1
102
RTVSPropertyOp13
 70
     1
102
RTVSPropertyOp14
 70
     1
102
RTVSPropertyOp15
 70
     1
102
RTVSPropertyOp16
 70
     1
102
RTVSPropertyOp17
 70
     1
102
RTVSPropertyOp18
 70
     1
102
RTVSPropertyOp19
 70
     1
102
RTVSPropertyOp20
 70
     1
102
RTVSPropertyOp21
 70
     1
102
RTVSPropertyOp22
 70
     1
102
RTVSPropertyOp23
 70
     1
102
RTVSPropertyOp24
 70
     1
102
RTVSPropertyOp25
 70
     1
102
RTVSPropertyOp26
 70
     1
102
RTVSPropertyOp27
 70
     1
102
RTVSPropertyOp28
 70
     1
102
RTVSPropertyOp29
 70
     1
102
RTVSPropertyOp30
 70
     1
102
RTVSPropertyOp31
 70
     1
102
RTVSPropertyOp32
 70
     1
  0
XRECORD
  5
294
102
{ACAD_REACTORS
330
293
102
}
330
293
100
AcDbXrecord
280
     1
102
RTVSPropertyOp0
 70
     1
102
RTVSPropertyOp1
 70
     1
102
RTVSPropertyOp2
 70
     1
102
RTVSPropertyOp3
 70
     1
102
RTVSPropertyOp4
 70
     1
102
RTVSPropertyOp5
 70
     1
102
RTVSPropertyOp6
 70
     1
102
RTVSPropertyOp7
 70
     1
102
RTVSPropertyOp8
 70
     1
102
RTVSPropertyOp9
 70
     1
102
RTVSPropertyOp10
 70
     1
102
RTVSPropertyOp11
 70
     1
102
RTVSPropertyOp12
 70
     1
102
RTVSPropertyOp13
 70
     1
102
RTVSPropertyOp14
 70
     1
102
RTVSPropertyOp15
 70
     1
102
RTVSPropertyOp16
 70
     1
102
RTVSPropertyOp17
 70
     1
102
RTVSPropertyOp18
 70
     1
102
RTVSPropertyOp19
 70
     1
102
RTVSPropertyOp20
 70
     1
102
RTVSPropertyOp21
 70
     1
102
RTVSPropertyOp22
 70
     1
102
RTVSPropertyOp23
 70
     1
102
RTVSPropertyOp24
 70
     1
102
RTVSPropertyOp25
 70
     1
102
RTVSPropertyOp26
 70
     1
102
RTVSPropertyOp27
 70
     1
102
RTVSPropertyOp28
 70
     1
102
RTVSPropertyOp29
 70
     1
102
RTVSPropertyOp30
 70
     1
102
RTVSPropertyOp31
 70
     1
102
RTVSPropertyOp32
 70
     1
  0
XRECORD
  5
28A
102
{ACAD_REACTORS
330
289
102
}
330
289
100
AcDbXrecord
280
     1
102
RTVSPropertyOp0
 70
     1
102
RTVSPropertyOp1
 70
     1
102
RTVSPropertyOp2
 70
     1
102
RTVSPropertyOp3
 70
     1
102
RTVSPropertyOp4
 70
     1
102
RTVSPropertyOp5
 70
     1
102
RTVSPropertyOp6
 70
     1
102
RTVSPropertyOp7
 70
     1
102
RTVSPropertyOp8
 70
     1
102
RTVSPropertyOp9
 70
     1
102
RTVSPropertyOp10
 70
     1
102
RTVSPropertyOp11
 70
     1
102
RTVSPropertyOp12
 70
     1
102
RTVSPropertyOp13
 70
     1
102
RTVSPropertyOp14
 70
     1
102
RTVSPropertyOp15
 70
     1
102
RTVSPropertyOp16
 70
     1
102
RTVSPropertyOp17
 70
     1
102
RTVSPropertyOp18
 70
     1
102
RTVSPropertyOp19
 70
     1
102
RTVSPropertyOp20
 70
     1
102
RTVSPropertyOp21
 70
     1
102
RTVSPropertyOp22
 70
     1
102
RTVSPropertyOp23
 70
     1
102
RTVSPropertyOp24
 70
     1
102
RTVSPropertyOp25
 70
     1
102
RTVSPropertyOp26
 70
     1
102
RTVSPropertyOp27
 70
     1
102
RTVSPropertyOp28
 70
     1
102
RTVSPropertyOp29
 70
     1
102
RTVSPropertyOp30
 70
     1
102
RTVSPropertyOp31
 70
     1
102
RTVSPropertyOp32
 70
     1
  0
XRECORD
  5
27E
102
{ACAD_REACTORS
330
27D
102
}
330
27D
100
AcDbXrecord
280
     1
102
RTVSPropertyOp0
 70
     1
102
RTVSPropertyOp1
 70
     1
102
RTVSPropertyOp2
 70
     1
102
RTVSPropertyOp3
 70
     1
102
RTVSPropertyOp4
 70
     1
102
RTVSPropertyOp5
 70
     1
102
RTVSPropertyOp6
 70
     1
102
RTVSPropertyOp7
 70
     1
102
RTVSPropertyOp8
 70
     1
102
RTVSPropertyOp9
 70
     1
102
RTVSPropertyOp10
 70
     1
102
RTVSPropertyOp11
 70
     1
102
RTVSPropertyOp12
 70
     1
102
RTVSPropertyOp13
 70
     1
102
RTVSPropertyOp14
 70
     1
102
RTVSPropertyOp15
 70
     1
102
RTVSPropertyOp16
 70
     1
102
RTVSPropertyOp17
 70
     1
102
RTVSPropertyOp18
 70
     1
102
RTVSPropertyOp19
 70
     1
102
RTVSPropertyOp20
 70
     1
102
RTVSPropertyOp21
 70
     1
102
RTVSPropertyOp22
 70
     1
102
RTVSPropertyOp23
 70
     1
102
RTVSPropertyOp24
 70
     1
102
RTVSPropertyOp25
 70
     1
102
RTVSPropertyOp26
 70
     1
102
RTVSPropertyOp27
 70
     1
102
RTVSPropertyOp28
 70
     1
102
RTVSPropertyOp29
 70
     1
102
RTVSPropertyOp30
 70
     1
102
RTVSPropertyOp31
 70
     1
102
RTVSPropertyOp32
 70
     1
  0
XRECORD
  5
296
102
{ACAD_REACTORS
330
295
102
}
330
295
100
AcDbXrecord
280
     1
102
RTVSPropertyOp0
 70
     1
102
RTVSPropertyOp1
 70
     1
102
RTVSPropertyOp2
 70
     1
102
RTVSPropertyOp3
 70
     1
102
RTVSPropertyOp4
 70
     1
102
RTVSPropertyOp5
 70
     1
102
RTVSPropertyOp6
 70
     1
102
RTVSPropertyOp7
 70
     1
102
RTVSPropertyOp8
 70
     1
102
RTVSPropertyOp9
 70
     1
102
RTVSPropertyOp10
 70
     1
102
RTVSPropertyOp11
 70
     1
102
RTVSPropertyOp12
 70
     1
102
RTVSPropertyOp13
 70
     1
102
RTVSPropertyOp14
 70
     1
102
RTVSPropertyOp15
 70
     1
102
RTVSPropertyOp16
 70
     1
102
RTVSPropertyOp17
 70
     1
102
RTVSPropertyOp18
 70
     1
102
RTVSPropertyOp19
 70
     1
102
RTVSPropertyOp20
 70
     1
102
RTVSPropertyOp21
 70
     1
102
RTVSPropertyOp22
 70
     1
102
RTVSPropertyOp23
 70
     1
102
RTVSPropertyOp24
 70
     1
102
RTVSPropertyOp25
 70
     1
102
RTVSPropertyOp26
 70
     1
102
RTVSPropertyOp27
 70
     1
102
RTVSPropertyOp28
 70
     1
102
RTVSPropertyOp29
 70
     1
102
RTVSPropertyOp30
 70
     1
102
RTVSPropertyOp31
 70
     1
102
RTVSPropertyOp32
 70
     1
  0
ENDSEC
  0
EOF
