  0
SECTION
  2
HEADER
  9
$ACADVER
  1
AC1015
  9
$ACADMAINTVER
 70
    18
  9
$DWGCODEPAGE
  3
ANSI_1252
  9
$INSBASE
 10
0.0
 20
0.0
 30
0.0
  9
$EXTMIN
 10
0.0
 20
0.0
 30
0.0
  9
$EXTMAX
 10
420.0
 20
297.0
 30
0.0
  9
$LIMMIN
 10
0.0
 20
0.0
  9
$LIMMAX
 10
420.0
 20
297.0
  9
$ORTHOMODE
 70
     0
  9
$REGENMODE
 70
     1
  9
$FILLMODE
 70
     1
  9
$QTEXTMODE
 70
     0
  9
$MIRRTEXT
 70
     0
  9
$LTSCALE
 40
1.0
  9
$ATTMODE
 70
     1
  9
$TEXTSIZE
 40
0.2
  9
$TRACEWID
 40
0.05
  9
$TEXTSTYLE
  7
Standard
  9
$CLAYER
  8
0
  9
$CELTYPE
  6
ByLayer
  9
$CECOLOR
 62
   256
  9
$CELTSCALE
 40
1.0
  9
$DISPSILH
 70
     0
  9
$DIMSCALE
 40
1.0
  9
$DIMASZ
 40
1.799999999999999
  9
$DIMEXO
 40
0.0625
  9
$DIMDLI
 40
0.38
  9
$DIMRND
 40
0.0
  9
$DIMDLE
 40
0.0
  9
$DIMEXE
 40
0.18
  9
$DIMTP
 40
0.0
  9
$DIMTM
 40
0.0
  9
$DIMTXT
 40
0.25
  9
$DIMCEN
 40
0.09
  9
$DIMTSZ
 40
0.0
  9
$DIMTOL
 70
     0
  9
$DIMLIM
 70
     0
  9
$DIMTIH
 70
     1
  9
$DIMTOH
 70
     1
  9
$DIMSE1
 70
     0
  9
$DIMSE2
 70
     0
  9
$DIMTAD
 70
     0
  9
$DIMZIN
 70
     0
  9
$DIMBLK
  1

  9
$DIMASO
 70
     1
  9
$DIMSHO
 70
     1
  9
$DIMPOST
  1

  9
$DIMAPOST
  1

  9
$DIMALT
 70
     0
  9
$DIMALTD
 70
     2
  9
$DIMALTF
 40
25.4
  9
$DIMLFAC
 40
1.0
  9
$DIMTOFL
 70
     0
  9
$DIMTVP
 40
0.0
  9
$DIMTIX
 70
     0
  9
$DIMSOXD
 70
     0
  9
$DIMSAH
 70
     0
  9
$DIMBLK1
  1

  9
$DIMBLK2
  1

  9
$DIMSTYLE
  2
Standard
  9
$DIMCLRD
 70
     0
  9
$DIMCLRE
 70
     0
  9
$DIMCLRT
 70
     0
  9
$DIMTFAC
 40
1.0
  9
$DIMGAP
 40
0.09
  9
$DIMJUST
 70
     0
  9
$DIMSD1
 70
     0
  9
$DIMSD2
 70
     0
  9
$DIMTOLJ
 70
     1
  9
$DIMTZIN
 70
     0
  9
$DIMALTZ
 70
     0
  9
$DIMALTTZ
 70
     0
  9
$DIMUPT
 70
     0
  9
$DIMDEC
 70
     4
  9
$DIMTDEC
 70
     4
  9
$DIMALTU
 70
     2
  9
$DIMALTTD
 70
     2
  9
$DIMTXSTY
  7
Standard
  9
$DIMAUNIT
 70
     0
  9
$DIMADEC
 70
     0
  9
$DIMALTRND
 40
0.0
  9
$DIMAZIN
 70
     0
  9
$DIMDSEP
 70
    46
  9
$DIMATFIT
 70
     3
  9
$DIMFRAC
 70
     0
  9
$DIMLDRBLK
  1

  9
$DIMLUNIT
 70
     2
  9
$DIMLWD
 70
    -2
  9
$DIMLWE
 70
    -2
  9
$DIMTMOVE
 70
     0
  9
$LUNITS
 70
     2
  9
$LUPREC
 70
     4
  9
$SKETCHINC
 40
0.1
  9
$FILLETRAD
 40
0.0
  9
$AUNITS
 70
     0
  9
$AUPREC
 70
     0
  9
$MENU
  1
.
  9
$ELEVATION
 40
0.0
  9
$PELEVATION
 40
0.0
  9
$THICKNESS
 40
0.0
  9
$LIMCHECK
 70
     0
  9
$CHAMFERA
 40
0.0
  9
$CHAMFERB
 40
0.0
  9
$CHAMFERC
 40
0.0
  9
$CHAMFERD
 40
0.0
  9
$SKPOLY
 70
     0
  9
$TDCREATE
 40
2455798.502858542
  9
$TDUCREATE
 40
2455798.419525208
  9
$TDUPDATE
 40
2455798.502858542
  9
$TDUUPDATE
 40
2455798.419525208
  9
$TDINDWG
 40
0.0000155556
  9
$TDUSRTIMER
 40
0.0000155556
  9
$USRTIMER
 70
     1
  9
$ANGBASE
 50
0.0
  9
$ANGDIR
 70
     0
  9
$PDMODE
 70
     0
  9
$PDSIZE
 40
0.0
  9
$PLINEWID
 40
0.0
  9
$SPLFRAME
 70
     0
  9
$SPLINETYPE
 70
     6
  9
$SPLINESEGS
 70
     8
  9
$HANDSEED
  5
2C4
  9
$SURFTAB1
 70
     6
  9
$SURFTAB2
 70
     6
  9
$SURFTYPE
 70
     6
  9
$SURFU
 70
     6
  9
$SURFV
 70
     6
  9
$UCSBASE
  2

  9
$UCSNAME
  2

  9
$UCSORG
 10
0.0
 20
0.0
 30
0.0
  9
$UCSXDIR
 10
1.0
 20
0.0
 30
0.0
  9
$UCSYDIR
 10
0.0
 20
1.0
 30
0.0
  9
$UCSORTHOREF
  2

  9
$UCSORTHOVIEW
 70
     0
  9
$UCSORGTOP
 10
0.0
 20
0.0
 30
0.0
  9
$UCSORGBOTTOM
 10
0.0
 20
0.0
 30
0.0
  9
$UCSORGLEFT
 10
0.0
 20
0.0
 30
0.0
  9
$UCSORGRIGHT
 10
0.0
 20
0.0
 30
0.0
  9
$UCSORGFRONT
 10
0.0
 20
0.0
 30
0.0
  9
$UCSORGBACK
 10
0.0
 20
0.0
 30
0.0
  9
$PUCSBASE
  2

  9
$PUCSNAME
  2

  9
$PUCSORG
 10
0.0
 20
0.0
 30
0.0
  9
$PUCSXDIR
 10
1.0
 20
0.0
 30
0.0
  9
$PUCSYDIR
 10
0.0
 20
1.0
 30
0.0
  9
$PUCSORTHOREF
  2

  9
$PUCSORTHOVIEW
 70
     0
  9
$PUCSORGTOP
 10
0.0
 20
0.0
 30
0.0
  9
$PUCSORGBOTTOM
 10
0.0
 20
0.0
 30
0.0
  9
$PUCSORGLEFT
 10
0.0
 20
0.0
 30
0.0
  9
$PUCSORGRIGHT
 10
0.0
 20
0.0
 30
0.0
  9
$PUCSORGFRONT
 10
0.0
 20
0.0
 30
0.0
  9
$PUCSORGBACK
 10
0.0
 20
0.0
 30
0.0
  9
$USERI1
 70
     0
  9
$USERI2
 70
     0
  9
$USERI3
 70
     0
  9
$USERI4
 70
     0
  9
$USERI5
 70
     0
  9
$USERR1
 40
0.0
  9
$USERR2
 40
0.0
  9
$USERR3
 40
0.0
  9
$USERR4
 40
0.0
  9
$USERR5
 40
0.0
  9
$WORLDVIEW
 70
     1
  9
$SHADEDGE
 70
     3
  9
$SHADEDIF
 70
    70
  9
$TILEMODE
 70
     1
  9
$MAXACTVP
 70
    64
  9
$PINSBASE
 10
0.0
 20
0.0
 30
0.0
  9
$PLIMCHECK
 70
     0
  9
$PEXTMIN
 10
0.0
 20
0.0
 30
0.0
  9
$PEXTMAX
 10
420.0
 20
297.0
 30
0.0
  9
$PLIMMIN
 10
0.0
 20
0.0
  9
$PLIMMAX
 10
420.0
 20
297.0
  9
$UNITMODE
 70
     0
  9
$VISRETAIN
 70
     1
  9
$PLINEGEN
 70
     0
  9
$PSLTSCALE
 70
     1
  9
$TREEDEPTH
 70
  3020
  9
$CMLSTYLE
  2
Standard
  9
$CMLJUST
 70
     0
  9
$CMLSCALE
 40
1.0
  9
$PROXYGRAPHICS
 70
     1
  9
$MEASUREMENT
 70
     1
  9
$CELWEIGHT
370
    -1
  9
$ENDCAPS
280
     0
  9
$JOINSTYLE
280
     0
  9
$LWDISPLAY
290
     0
  9
$INSUNITS
 70
     4
  9
$HYPERLINKBASE
  1

  9
$STYLESHEET
  1

  9
$XEDIT
290
     1
  9
$CEPSNTYPE
380
     0
  9
$PSTYLEMODE
290
     1
  9
$FINGERPRINTGUID
  2
{DB9BF699-E368-443C-9226-2B8182B5C703}
  9
$VERSIONGUID
  2
{D8E057D9-7BCF-48DA-8563-E2041EE8F8CD}
  9
$EXTNAMES
290
     1
  9
$PSVPSCALE
 40
0.0
  9
$OLESTARTUP
290
     0
  0
ENDSEC
  0
SECTION
  2
CLASSES
  0
CLASS
  1
ACDBDICTIONARYWDFLT
  2
AcDbDictionaryWithDefault
  3
ObjectDBX Classes
 90
        0
280
     0
281
     0
  0
CLASS
  1
MATERIAL
  2
AcDbMaterial
  3
ObjectDBX Classes
 90
     1153
280
     0
281
     0
  0
CLASS
  1
VISUALSTYLE
  2
AcDbVisualStyle
  3
ObjectDBX Classes
 90
     4095
280
     0
281
     0
  0
CLASS
  1
SCALE
  2
AcDbScale
  3
ObjectDBX Classes
 90
     1153
280
     0
281
     0
  0
CLASS
  1
TABLESTYLE
  2
AcDbTableStyle
  3
ObjectDBX Classes
 90
     4095
280
     0
281
     0
  0
CLASS
  1
MLEADERSTYLE
  2
AcDbMLeaderStyle
  3
ACDB_MLEADERSTYLE_CLASS
 90
     4095
280
     0
281
     0
  0
CLASS
  1
DICTIONARYVAR
  2
AcDbDictionaryVar
  3
ObjectDBX Classes
 90
        0
280
     0
281
     0
  0
CLASS
  1
CELLSTYLEMAP
  2
AcDbCellStyleMap
  3
ObjectDBX Classes
 90
     1152
280
     0
281
     0
  0
CLASS
  1
ACDBPLACEHOLDER
  2
AcDbPlaceHolder
  3
ObjectDBX Classes
 90
        0
280
     0
281
     0
  0
CLASS
  1
LAYOUT
  2
AcDbLayout
  3
ObjectDBX Classes
 90
        0
280
     0
281
     0
  0
ENDSEC
  0
SECTION
  2
TABLES
  0
TABLE
  2
VPORT
  5
8
330
0
100
AcDbSymbolTable
 70
     1
  0
VPORT
  5
57
330
8
100
AcDbSymbolTableRecord
100
AcDbViewportTableRecord
  2
*Active
 70
     0
 10
0.0
 20
0.0
 11
1.0
 21
1.0
 12
210.0
 22
148.5
 13
0.0
 23
0.0
 14
1.0
 24
1.0
 15
0.0
 25
0.0
 16
0.0
 26
0.0
 36
1.0
 17
0.0
 27
0.0
 37
0.0
 40
297.0
 41
1.414141414141414
 42
50.0
 43
0.0
 44
0.0
 50
0.0
 51
0.0
 71
     0
 72
   100
 73
     1
 74
     1
 75
     0
 76
     0
 77
     0
 78
     0
281
     0
 65
     1
110
0.0
120
0.0
130
0.0
111
1.0
121
0.0
131
0.0
112
0.0
122
1.0
132
0.0
 79
     0
146
0.0
  0
ENDTAB
  0
TABLE
  2
LTYPE
  5
5
330
0
100
AcDbSymbolTable
 70
     1
  0
LTYPE
  5
5B
330
5
100
AcDbSymbolTableRecord
100
AcDbLinetypeTableRecord
  2
ByBlock
 70
     0
  3

 72
    65
 73
     0
 40
0.0
  0
LTYPE
  5
5C
330
5
100
AcDbSymbolTableRecord
100
AcDbLinetypeTableRecord
  2
ByLayer
 70
     0
  3

 72
    65
 73
     0
 40
0.0
  0
LTYPE
  5
5D
330
5
100
AcDbSymbolTableRecord
100
AcDbLinetypeTableRecord
  2
Continuous
 70
     0
  3
Solid line
 72
    65
 73
     0
 40
0.0
  0
ENDTAB
  0
TABLE
  2
LAYER
  5
2
330
0
100
AcDbSymbolTable
 70
    33
  0
LAYER
  5
54
330
2
100
AcDbSymbolTableRecord
100
AcDbLayerTableRecord
  2
0
 70
     0
 62
     7
  6
Continuous
370
    -3
390
F
  0
LAYER
  5
88
330
2
100
AcDbSymbolTableRecord
100
AcDbLayerTableRecord
  2
Sichtbare Kanten(DIN)
 70
     0
 62
     7
  6
Continuous
370
    50
390
F
  0
ENDTAB
  0
TABLE
  2
STYLE
  5
3
330
0
100
AcDbSymbolTable
 70
     9
  0
STYLE
  5
55
330
3
100
AcDbSymbolTableRecord
100
AcDbTextStyleTableRecord
  2
Standard
 70
     0
 40
0.0
 41
1.0
 50
0.0
 71
     0
 42
0.2
  3
arial.ttf
  4

1001
ACAD
1000
Arial
1071
      256
  0
STYLE
  5
5A
330
3
100
AcDbSymbolTableRecord
100
AcDbTextStyleTableRecord
  2
Annotative
 70
     0
 40
0.0
 41
1.0
 50
0.0
 71
     0
 42
0.2
  3
txt
  4

1001
AcadAnnotative
1000
AnnotativeData
1002
{
1070
     1
1070
     1
1002
}
  0
STYLE
  5
94
330
3
100
AcDbSymbolTableRecord
100
AcDbTextStyleTableRecord
  2
Aktuell-BSI
 70
     0
 40
0.0
 41
1.0
 50
0.0
 71
     0
 42
0.2
  3
arial.ttf
  4

1001
ACAD
1000
Arial
1071
      256
  0
STYLE
  5
95
330
3
100
AcDbSymbolTableRecord
100
AcDbTextStyleTableRecord
  2
Aktuell-DIN
 70
     0
 40
0.0
 41
0.899999976158142
 50
0.0
 71
     0
 42
0.2
  3
arial.ttf
  4

1001
ACAD
1000
Arial
1071
      256
  0
STYLE
  5
96
330
3
100
AcDbSymbolTableRecord
100
AcDbTextStyleTableRecord
  2
STANDARD-DIN
 70
     0
 40
0.0
 41
1.0
 50
0.0
 71
     0
 42
0.2
  3
arial.ttf
  4

1001
ACAD
1000
Arial
1071
      256
  0
STYLE
  5
97
330
3
100
AcDbSymbolTableRecord
100
AcDbTextStyleTableRecord
  2
STANDARD-DINNach Layer
 70
     0
 40
0.0
 41
1.0
 50
0.0
 71
     0
 42
0.2
  3
arial.ttf
  4

1001
ACAD
1000
Arial
1071
      256
  0
STYLE
  5
98
330
3
100
AcDbSymbolTableRecord
100
AcDbTextStyleTableRecord
  2
STANDARDGroßer Text
 70
     0
 40
0.0
 41
1.0
 50
0.0
 71
     0
 42
0.2
  3
arial.ttf
  4

1001
ACAD
1000
Arial
1071
      256
  0
STYLE
  5
99
330
3
100
AcDbSymbolTableRecord
100
AcDbTextStyleTableRecord
  2
STANDARDNach Layer
 70
     0
 40
0.0
 41
1.0
 50
0.0
 71
     0
 42
0.2
  3
arial.ttf
  4

1001
ACAD
1000
Arial
1071
      256
  0
STYLE
  5
9A
330
3
100
AcDbSymbolTableRecord
100
AcDbTextStyleTableRecord
  2
StüLiDaten
 70
     0
 40
0.0
 41
1.0
 50
0.0
 71
     0
 42
0.2
  3
arial.ttf
  4

1001
ACAD
1000
Arial
1071
      256
  0
ENDTAB
  0
TABLE
  2
VIEW
  5
6
330
0
100
AcDbSymbolTable
 70
     0
  0
ENDTAB
  0
TABLE
  2
UCS
  5
7
330
0
100
AcDbSymbolTable
 70
     0
  0
ENDTAB
  0
TABLE
  2
APPID
  5
9
330
0
100
AcDbSymbolTable
 70
     3
  0
APPID
  5
56
330
9
100
AcDbSymbolTableRecord
100
AcDbRegAppTableRecord
  2
ACAD
 70
     0
  0
APPID
  5
5E
330
9
100
AcDbSymbolTableRecord
100
AcDbRegAppTableRecord
  2
AcadAnnotative
 70
     0
  0
APPID
  5
2BD
330
9
100
AcDbSymbolTableRecord
100
AcDbRegAppTableRecord
  2
ACAD_MLEADERVER
 70
     0
  0
ENDTAB
  0
TABLE
  2
DIMSTYLE
  5
A
330
0
100
AcDbSymbolTable
 70
    10
100
AcDbDimStyleTable
 71
     0
  0
DIMSTYLE
105
58
330
A
100
AcDbSymbolTableRecord
100
AcDbDimStyleTableRecord
  2
Standard
 70
     0
340
55
  0
DIMSTYLE
105
59
330
A
100
AcDbSymbolTableRecord
100
AcDbDimStyleTableRecord
  2
Annotative
 70
     0
340
55
1001
AcadAnnotative
1000
AnnotativeData
1002
{
1070
     1
1070
     1
1002
}
  0
DIMSTYLE
105
9B
330
A
100
AcDbSymbolTableRecord
100
AcDbDimStyleTableRecord
  2
DIN - Andere
 70
     0
 41
2.5
 42
0.0
 43
5.999999999999999
 44
3.174999999999999
 45
0.00000001
 46
10.0
 73
     0
 74
     0
 77
     1
 78
     8
 79
     2
140
3.5
143
0.03937
147
0.8
171
     3
172
     1
176
     7
177
     7
178
     7
271
     2
272
     2
274
     3
278
    44
284
     8
286
     8
340
94
371
    25
372
    25
  0
DIMSTYLE
105
9C
330
A
100
AcDbSymbolTableRecord
100
AcDbDimStyleTableRecord
  2
DIN - Andere$7
 70
     0
 41
2.5
 42
0.0
 43
5.999999999999999
 44
3.174999999999999
 45
0.00000001
 46
10.0
 73
     0
 74
     0
 77
     1
 78
     8
 79
     2
140
3.5
143
0.03937
147
0.8
171
     3
172
     1
176
     7
177
     7
178
     7
271
     2
272
     2
274
     3
278
    44
284
     8
286
     8
340
94
371
    25
372
    25
  0
DIMSTYLE
105
9D
330
A
100
AcDbSymbolTableRecord
100
AcDbDimStyleTableRecord
  2
DIN - AndereGroßer Text
 70
     0
 41
5.0
 42
0.0
 43
5.999999999999999
 44
3.174999999999999
 45
0.00000001
 46
10.0
 73
     0
 74
     0
 77
     1
 78
     8
 79
     2
140
3.75
143
0.03937
146
0.9333333373069763
147
0.8
171
     3
172
     1
176
     7
177
     7
178
     7
271
     2
272
     2
274
     3
278
    44
284
     8
286
     8
340
98
371
    25
372
    25
  0
DIMSTYLE
105
9E
330
A
100
AcDbSymbolTableRecord
100
AcDbDimStyleTableRecord
  2
DIN - AndereGroßer Text$7
 70
     0
 41
5.0
 42
0.0
 43
5.999999999999999
 44
3.174999999999999
 45
0.00000001
 46
10.0
 73
     0
 74
     0
 77
     1
 78
     8
 79
     2
140
3.75
143
0.03937
146
0.9333333373069763
147
0.8
171
     3
172
     1
176
     7
177
     7
178
     7
271
     2
272
     2
274
     3
278
    44
284
     8
286
     8
340
98
371
    25
372
    25
  0
DIMSTYLE
105
9F
330
A
100
AcDbSymbolTableRecord
100
AcDbDimStyleTableRecord
  2
Führungslinie-Ursprungsindikator(DIN)
 70
     0
 41
2.5
340
55
342
A0
  0
DIMSTYLE
105
B1
330
A
100
AcDbSymbolTableRecord
100
AcDbDimStyleTableRecord
  2
Führungslinie - Bezugsstelle(DIN)
 70
     0
 41
2.5
340
55
342
A0
  0
DIMSTYLE
105
B2
330
A
100
AcDbSymbolTableRecord
100
AcDbDimStyleTableRecord
  2
Führungslinie - Punkt(DIN)
 70
     0
 41
2.5
340
55
342
A0
  0
DIMSTYLE
105
B3
330
A
100
AcDbSymbolTableRecord
100
AcDbDimStyleTableRecord
  2
Führungslinie(DIN)
 70
     0
 41
2.5
340
55
342
A0
  0
ENDTAB
  0
TABLE
  2
BLOCK_RECORD
  5
1
330
0
100
AcDbSymbolTable
 70
     3
  0
BLOCK_RECORD
  5
6C
330
1
100
AcDbSymbolTableRecord
100
AcDbBlockTableRecord
  2
*Model_Space
340
6F
  0
BLOCK_RECORD
  5
68
330
1
100
AcDbSymbolTableRecord
100
AcDbBlockTableRecord
  2
*Paper_Space
340
6B
  0
BLOCK_RECORD
  5
70
330
1
100
AcDbSymbolTableRecord
100
AcDbBlockTableRecord
  2
*Paper_Space0
340
73
  0
BLOCK_RECORD
  5
A0
330
1
100
AcDbSymbolTableRecord
100
AcDbBlockTableRecord
  2
_Closed
340
0
  0
BLOCK_RECORD
  5
A7
330
1
100
AcDbSymbolTableRecord
100
AcDbBlockTableRecord
  2
DatumFilled45
340
0
  0
ENDTAB
  0
ENDSEC
  0
SECTION
  2
BLOCKS
  0
BLOCK
  5
6D
330
6C
100
AcDbEntity
  8
0
100
AcDbBlockBegin
  2
*Model_Space
 70
     0
 10
0.0
 20
0.0
 30
0.0
  3
*Model_Space
  1

  0
ENDBLK
  5
6E
330
6C
100
AcDbEntity
  8
0
100
AcDbBlockEnd
  0
BLOCK
  5
69
330
68
100
AcDbEntity
 67
     1
  8
0
100
AcDbBlockBegin
  2
*Paper_Space
 70
     0
 10
0.0
 20
0.0
 30
0.0
  3
*Paper_Space
  1

  0
ENDBLK
  5
6A
330
68
100
AcDbEntity
 67
     1
  8
0
100
AcDbBlockEnd
  0
BLOCK
  5
71
330
70
100
AcDbEntity
 67
     1
  8
0
100
AcDbBlockBegin
  2
*Paper_Space0
 70
     0
 10
0.0
 20
0.0
 30
0.0
  3
*Paper_Space0
  1

  0
ENDBLK
  5
72
330
70
100
AcDbEntity
 67
     1
  8
0
100
AcDbBlockEnd
  0
BLOCK
  5
A5
330
A0
100
AcDbEntity
  8
0
100
AcDbBlockBegin
  2
_Closed
 70
     0
 10
0.0
 20
0.0
 30
0.0
  3
_Closed
  1

  0
LINE
  5
A1
330
A0
100
AcDbEntity
  8
0
  6
ByBlock
 62
     0
370
    -2
100
AcDbLine
 10
-1.0
 20
0.1666666666666666
 30
0.0
 11
0.0
 21
0.0
 31
0.0
  0
LINE
  5
A2
330
A0
100
AcDbEntity
  8
0
  6
ByBlock
 62
     0
370
    -2
100
AcDbLine
 10
0.0
 20
0.0
 30
0.0
 11
-1.0
 21
-0.1666666666666666
 31
0.0
  0
LINE
  5
A3
330
A0
100
AcDbEntity
  8
0
  6
ByBlock
 62
     0
370
    -2
100
AcDbLine
 10
-1.0
 20
0.1666666666666666
 30
0.0
 11
-1.0
 21
-0.1666666666666666
 31
0.0
  0
LINE
  5
A4
330
A0
100
AcDbEntity
  8
0
  6
ByBlock
 62
     0
370
    -2
100
AcDbLine
 10
0.0
 20
0.0
 30
0.0
 11
-1.0
 21
0.0
 31
0.0
  0
ENDBLK
  5
A6
330
A0
100
AcDbEntity
  8
0
100
AcDbBlockEnd
  0
BLOCK
  5
A8
330
A7
100
AcDbEntity
  8
0
100
AcDbBlockBegin
  2
DatumFilled45
 70
     0
 10
0.0
 20
0.0
 30
0.0
  3
DatumFilled45
  1

  0
POLYLINE
  5
AA
330
A7
100
AcDbEntity
  8
0
 62
     0
100
AcDb2dPolyline
 66
     1
 10
0.0
 20
0.0
 30
0.0
 70
   128
  0
VERTEX
  5
AB
330
AA
100
AcDbEntity
  8
0
 62
     0
100
AcDbVertex
100
AcDb2dVertex
 10
0.0
 20
1.0
 30
0.0
  0
VERTEX
  5
AC
330
AA
100
AcDbEntity
  8
0
 62
     0
100
AcDbVertex
100
AcDb2dVertex
 10
0.0
 20
-1.0
 30
0.0
  0
VERTEX
  5
AE
330
AA
100
AcDbEntity
  8
0
 62
     0
100
AcDbVertex
100
AcDb2dVertex
 10
-1.0
 20
0.0
 30
0.0
  0
VERTEX
  5
AF
330
AA
100
AcDbEntity
  8
0
 62
     0
100
AcDbVertex
100
AcDb2dVertex
 10
0.0
 20
1.0
 30
0.0
  0
SEQEND
  5
AD
330
AA
100
AcDbEntity
  8
0
 62
     0
  0
SOLID
  5
B0
330
A7
100
AcDbEntity
  8
0
 62
     0
100
AcDbTrace
 10
0.0
 20
1.0
 30
0.0
 11
0.0
 21
-1.0
 31
0.0
 12
-1.0
 22
0.0
 32
0.0
 13
0.0
 23
1.0
 33
0.0
  0
ENDBLK
  5
A9
330
A7
100
AcDbEntity
  8
0
100
AcDbBlockEnd
  0
ENDSEC
  0
SECTION
  2
ENTITIES
  0
ARC
  5
B4
330
6C
100
AcDbEntity
  8
Sichtbare Kanten(DIN)
100
AcDbCircle
 10
89.72085126470648
 20
285.9055128972327
 30
0.0
 40
3.0
100
AcDbArc
 50
180.0
 51
0.0
  0
LINE
  5
B5
330
6C
100
AcDbEntity
  8
Sichtbare Kanten(DIN)
100
AcDbLine
 10
86.72085126470648
 20
285.9055128972326
 30
0.0
 11
70.71381091716941
 21
285.9055128972325
 31
0.0
  0
LINE
  5
B6
330
6C
100
AcDbEntity
  8
Sichtbare Kanten(DIN)
100
AcDbLine
 10
68.2067406611053
 20
285.9055128972325
 30
0.0
 11
63.97085126470648
 21
285.9055128972324
 31
0.0
  0
LINE
  5
B7
330
6C
100
AcDbEntity
  8
Sichtbare Kanten(DIN)
100
AcDbLine
 10
63.97085126470648
 20
285.9055128972324
 30
0.0
 11
63.9708512647066
 21
271.9055128972324
 31
0.0
  0
LINE
  5
B8
330
6C
100
AcDbEntity
  8
Sichtbare Kanten(DIN)
100
AcDbLine
 10
63.9708512647066
 20
271.9055128972324
 30
0.0
 11
67.42085126470661
 21
271.9055128972325
 31
0.0
  0
LINE
  5
B9
330
6C
100
AcDbEntity
  8
Sichtbare Kanten(DIN)
100
AcDbLine
 10
67.42085126470661
 20
271.9055128972325
 30
0.0
 11
67.92085126470658
 21
273.9055128972324
 31
0.0
  0
LINE
  5
BA
330
6C
100
AcDbEntity
  8
Sichtbare Kanten(DIN)
100
AcDbLine
 10
67.92085126470658
 20
273.9055128972324
 30
0.0
 11
67.92085126470656
 21
277.0055128972324
 31
0.0
  0
LINE
  5
BB
330
6C
100
AcDbEntity
  8
Sichtbare Kanten(DIN)
100
AcDbLine
 10
67.92085126470656
 20
277.0055128972324
 30
0.0
 11
68.22085126470546
 21
277.0055128972324
 31
0.0
  0
LINE
  5
BC
330
6C
100
AcDbEntity
  8
Sichtbare Kanten(DIN)
100
AcDbLine
 10
68.02085126470706
 20
220.1555128972325
 30
0.0
 11
68.22085126470605
 21
220.1555128972325
 31
0.0
  0
ARC
  5
BD
330
6C
100
AcDbEntity
  8
Sichtbare Kanten(DIN)
100
AcDbCircle
 10
68.98972877879828
 20
214.224123821924
 30
0.0
 40
6.009999999999994
100
AcDbArc
 50
99.27718821635117
 51
221.9632696232416
  0
LINE
  5
BE
330
6C
100
AcDbEntity
  8
Sichtbare Kanten(DIN)
100
AcDbLine
 10
66.92085126470714
 20
210.2055128972324
 30
0.0
 11
64.52085126470715
 21
210.2055128972324
 31
0.0
  0
LINE
  5
BF
330
6C
100
AcDbEntity
  8
Sichtbare Kanten(DIN)
100
AcDbLine
 10
67.92085126470713
 20
211.7055128972324
 30
0.0
 11
66.92085126470714
 21
210.2055128972324
 31
0.0
  0
LINE
  5
C0
330
6C
100
AcDbEntity
  8
Sichtbare Kanten(DIN)
100
AcDbLine
 10
67.92085126470709
 20
215.2555128972324
 30
0.0
 11
67.92085126470713
 21
211.7055128972324
 31
0.0
  0
LINE
  5
C1
330
6C
100
AcDbEntity
  8
Sichtbare Kanten(DIN)
100
AcDbLine
 10
68.22085126470611
 20
215.2555128972324
 30
0.0
 11
67.92085126470709
 21
215.2555128972324
 31
0.0
  0
LINE
  5
C2
330
6C
100
AcDbEntity
  8
Sichtbare Kanten(DIN)
100
AcDbLine
 10
68.02085126470744
 20
175.6555128972324
 30
0.0
 11
68.22085126470655
 21
175.6555128972324
 31
0.0
  0
ARC
  5
C3
330
6C
100
AcDbEntity
  8
Sichtbare Kanten(DIN)
100
AcDbCircle
 10
68.98972877879868
 20
169.724123821924
 30
0.0
 40
6.010000000000006
100
AcDbArc
 50
99.27718821635131
 51
221.9632696232415
  0
LINE
  5
C4
330
6C
100
AcDbEntity
  8
Sichtbare Kanten(DIN)
100
AcDbLine
 10
66.92085126470752
 20
165.7055128972324
 30
0.0
 11
64.52085126470752
 21
165.7055128972324
 31
0.0
  0
LINE
  5
C5
330
6C
100
AcDbEntity
  8
Sichtbare Kanten(DIN)
100
AcDbLine
 10
67.92085126470751
 20
167.2055128972324
 30
0.0
 11
66.92085126470752
 21
165.7055128972324
 31
0.0
  0
LINE
  5
C6
330
6C
100
AcDbEntity
  8
Sichtbare Kanten(DIN)
100
AcDbLine
 10
67.92085126470749
 20
170.7555128972324
 30
0.0
 11
67.92085126470751
 21
167.2055128972324
 31
0.0
  0
LINE
  5
C7
330
6C
100
AcDbEntity
  8
Sichtbare Kanten(DIN)
100
AcDbLine
 10
68.22085126470661
 20
170.7555128972324
 30
0.0
 11
67.92085126470749
 21
170.7555128972324
 31
0.0
  0
LINE
  5
C8
330
6C
100
AcDbEntity
  8
Sichtbare Kanten(DIN)
100
AcDbLine
 10
68.02085126470794
 20
116.6555128972325
 30
0.0
 11
68.22085126470724
 21
116.6555128972325
 31
0.0
  0
ARC
  5
C9
330
6C
100
AcDbEntity
  8
Sichtbare Kanten(DIN)
100
AcDbCircle
 10
68.98972877879915
 20
110.724123821924
 30
0.0
 40
6.009999999999974
100
AcDbArc
 50
99.27718821635108
 51
221.9632696232418
  0
LINE
  5
CA
330
6C
100
AcDbEntity
  8
Sichtbare Kanten(DIN)
100
AcDbLine
 10
66.92085126470804
 20
106.7055128972324
 30
0.0
 11
64.52085126470804
 21
106.7055128972324
 31
0.0
  0
LINE
  5
CB
330
6C
100
AcDbEntity
  8
Sichtbare Kanten(DIN)
100
AcDbLine
 10
67.92085126470801
 20
108.2055128972324
 30
0.0
 11
66.92085126470804
 21
106.7055128972324
 31
0.0
  0
LINE
  5
CC
330
6C
100
AcDbEntity
  8
Sichtbare Kanten(DIN)
100
AcDbLine
 10
67.92085126470798
 20
111.7555128972324
 30
0.0
 11
67.92085126470801
 21
108.2055128972324
 31
0.0
  0
LINE
  5
CD
330
6C
100
AcDbEntity
  8
Sichtbare Kanten(DIN)
100
AcDbLine
 10
68.22085126470728
 20
111.7555128972324
 30
0.0
 11
67.92085126470798
 21
111.7555128972324
 31
0.0
  0
LINE
  5
CE
330
6C
100
AcDbEntity
  8
Sichtbare Kanten(DIN)
100
AcDbLine
 10
68.02085126470837
 20
66.65551289723246
 30
0.0
 11
68.22085126470779
 21
66.65551289723246
 31
0.0
  0
ARC
  5
CF
330
6C
100
AcDbEntity
  8
Sichtbare Kanten(DIN)
100
AcDbCircle
 10
68.98972877879957
 20
60.724123821924
 30
0.0
 40
6.009999999999978
100
AcDbArc
 50
99.27718821635105
 51
221.9632696232417
  0
LINE
  5
D0
330
6C
100
AcDbEntity
  8
Sichtbare Kanten(DIN)
100
AcDbLine
 10
66.92085126470846
 20
56.70551289723242
 30
0.0
 11
64.52085126470847
 21
56.70551289723242
 31
0.0
  0
LINE
  5
D1
330
6C
100
AcDbEntity
  8
Sichtbare Kanten(DIN)
100
AcDbLine
 10
67.92085126470844
 20
58.2055128972324
 30
0.0
 11
66.92085126470846
 21
56.70551289723242
 31
0.0
  0
LINE
  5
D2
330
6C
100
AcDbEntity
  8
Sichtbare Kanten(DIN)
100
AcDbLine
 10
67.92085126470841
 20
61.75551289723244
 30
0.0
 11
67.92085126470844
 21
58.2055128972324
 31
0.0
  0
LINE
  5
D3
330
6C
100
AcDbEntity
  8
Sichtbare Kanten(DIN)
100
AcDbLine
 10
68.22085126470783
 20
61.75551289723244
 30
0.0
 11
67.92085126470841
 21
61.75551289723244
 31
0.0
  0
LINE
  5
D4
330
6C
100
AcDbEntity
  8
Sichtbare Kanten(DIN)
100
AcDbLine
 10
112.330365039227
 20
56.99124223545513
 30
0.0
 11
112.5208512647085
 21
56.70551289723281
 31
0.0
  0
LINE
  5
D5
330
6C
100
AcDbEntity
  8
Sichtbare Kanten(DIN)
100
AcDbLine
 10
112.5208512647085
 20
56.70551289723281
 30
0.0
 11
114.9208512647085
 21
56.70551289723285
 31
0.0
  0
ARC
  5
D6
330
6C
100
AcDbEntity
  8
Sichtbare Kanten(DIN)
100
AcDbCircle
 10
110.4519737506173
 20
60.72412382192432
 30
0.0
 40
6.00999999999999
100
AcDbArc
 50
318.0367303767593
 51
71.78737063349288
  0
LINE
  5
D7
330
6C
100
AcDbEntity
  8
Sichtbare Kanten(DIN)
100
AcDbLine
 10
112.3303650392264
 20
106.9912422354553
 30
0.0
 11
112.5208512647081
 21
106.7055128972328
 31
0.0
  0
LINE
  5
D8
330
6C
100
AcDbEntity
  8
Sichtbare Kanten(DIN)
100
AcDbLine
 10
112.5208512647081
 20
106.7055128972328
 30
0.0
 11
114.9208512647081
 21
106.7055128972328
 31
0.0
  0
ARC
  5
D9
330
6C
100
AcDbEntity
  8
Sichtbare Kanten(DIN)
100
AcDbCircle
 10
110.4519737506169
 20
110.7241238219243
 30
0.0
 40
6.009999999999967
100
AcDbArc
 50
318.0367303767591
 51
71.7873706334948
  0
LINE
  5
DA
330
6C
100
AcDbEntity
  8
Sichtbare Kanten(DIN)
100
AcDbLine
 10
112.3303650392257
 20
165.9912422354556
 30
0.0
 11
112.5208512647075
 21
165.7055128972328
 31
0.0
  0
LINE
  5
DB
330
6C
100
AcDbEntity
  8
Sichtbare Kanten(DIN)
100
AcDbLine
 10
112.5208512647075
 20
165.7055128972328
 30
0.0
 11
114.9208512647075
 21
165.7055128972328
 31
0.0
  0
ARC
  5
DC
330
6C
100
AcDbEntity
  8
Sichtbare Kanten(DIN)
100
AcDbCircle
 10
110.4519737506163
 20
169.7241238219243
 30
0.0
 40
6.01
100
AcDbArc
 50
318.0367303767594
 51
71.78737063349624
  0
LINE
  5
DD
330
6C
100
AcDbEntity
  8
Sichtbare Kanten(DIN)
100
AcDbLine
 10
112.5208512647071
 20
210.2055128972328
 30
0.0
 11
112.3303650392251
 21
210.4912422354558
 31
0.0
  0
LINE
  5
DE
330
6C
100
AcDbEntity
  8
Sichtbare Kanten(DIN)
100
AcDbLine
 10
114.9208512647071
 20
210.2055128972329
 30
0.0
 11
112.5208512647071
 21
210.2055128972328
 31
0.0
  0
ARC
  5
DF
330
6C
100
AcDbEntity
  8
Sichtbare Kanten(DIN)
100
AcDbCircle
 10
110.4519737506159
 20
214.2241238219244
 30
0.0
 40
6.009999999999999
100
AcDbArc
 50
318.0367303767593
 51
71.78737063349768
  0
LINE
  5
E0
330
6C
100
AcDbEntity
  8
Sichtbare Kanten(DIN)
100
AcDbLine
 10
112.3303650392244
 20
271.9055128972328
 30
0.0
 11
115.4708512647066
 21
271.9055128972329
 31
0.0
  0
LINE
  5
E1
330
6C
100
AcDbEntity
  8
Sichtbare Kanten(DIN)
100
AcDbLine
 10
115.4708512647066
 20
271.9055128972329
 30
0.0
 11
115.4708512647065
 21
285.9055128972329
 31
0.0
  0
LINE
  5
E2
330
6C
100
AcDbEntity
  8
Sichtbare Kanten(DIN)
100
AcDbLine
 10
115.4708512647065
 20
285.9055128972329
 30
0.0
 11
112.3444756428221
 21
285.9055128972329
 31
0.0
  0
LINE
  5
E3
330
6C
100
AcDbEntity
  8
Sichtbare Kanten(DIN)
100
AcDbLine
 10
109.8374053867591
 20
285.9055128972329
 30
0.0
 11
92.72085126470647
 21
285.9055128972327
 31
0.0
  0
ARC
  5
E4
330
6C
100
AcDbEntity
  8
Sichtbare Kanten(DIN)
100
AcDbCircle
 10
87.22085126470849
 20
19.97599912271344
 30
0.0
 40
6.49999999999995
100
AcDbArc
 50
90.00000000001049
 51
270.0000000000104
  0
LINE
  5
E5
330
6C
100
AcDbEntity
  8
Sichtbare Kanten(DIN)
100
AcDbLine
 10
87.2208512647086
 20
26.47599912271346
 30
0.0
 11
92.22085126470851
 21
26.47599912271346
 31
0.0
  0
ARC
  5
E6
330
6C
100
AcDbEntity
  8
Sichtbare Kanten(DIN)
100
AcDbCircle
 10
92.22085126470853
 20
19.97599912271347
 30
0.0
 40
6.499999999999985
100
AcDbArc
 50
270.0000000000002
 51
90.00000000000017
  0
LINE
  5
E7
330
6C
100
AcDbEntity
  8
Sichtbare Kanten(DIN)
100
AcDbLine
 10
92.22085126470851
 20
13.47599912271349
 30
0.0
 11
87.2208512647097
 21
13.47599912271349
 31
0.0
  0
LINE
  5
E8
330
6C
100
AcDbEntity
  8
Sichtbare Kanten(DIN)
100
AcDbLine
 10
63.97085126470847
 20
46.030756009973
 30
0.0
 11
63.97085126470849
 21
22.97599912271348
 31
0.0
  0
ARC
  5
E9
330
6C
100
AcDbEntity
  8
Sichtbare Kanten(DIN)
100
AcDbCircle
 10
78.97085126470847
 20
22.97599912271352
 30
0.0
 40
14.99999999999997
100
AcDbArc
 50
180.0
 51
270.0
  0
LINE
  5
EA
330
6C
100
AcDbEntity
  8
Sichtbare Kanten(DIN)
100
AcDbLine
 10
78.97085126470848
 20
7.975999122713446
 30
0.0
 11
100.4708512647085
 21
7.975999122713446
 31
0.0
  0
ARC
  5
EB
330
6C
100
AcDbEntity
  8
Sichtbare Kanten(DIN)
100
AcDbCircle
 10
100.4708512647085
 20
22.97599912271352
 30
0.0
 40
15.0
100
AcDbArc
 50
270.0
 51
0.0
  0
LINE
  5
EC
330
6C
100
AcDbEntity
  8
Sichtbare Kanten(DIN)
100
AcDbLine
 10
115.4708512647085
 20
22.97599912271348
 30
0.0
 11
115.4708512647085
 21
46.03075600997307
 31
0.0
  0
LINE
  5
ED
330
6C
100
AcDbEntity
  8
Sichtbare Kanten(DIN)
100
AcDbLine
 10
115.4708512647086
 20
51.03075600997307
 30
0.0
 11
112.3303650392271
 21
51.03075600997307
 31
0.0
  0
LINE
  5
EE
330
6C
100
AcDbEntity
  8
Sichtbare Kanten(DIN)
100
AcDbLine
 10
115.4708512647086
 20
48.53075600997307
 30
0.0
 11
108.7208512647087
 21
48.53075600997307
 31
0.0
  0
LINE
  5
EF
330
6C
100
AcDbEntity
  8
Sichtbare Kanten(DIN)
100
AcDbLine
 10
115.4708512647086
 20
48.53075600997307
 30
0.0
 11
115.4708512647086
 21
51.03075600997307
 31
0.0
  0
LINE
  5
F0
330
6C
100
AcDbEntity
  8
Sichtbare Kanten(DIN)
100
AcDbLine
 10
68.22085126470796
 20
51.03075600997303
 30
0.0
 11
63.97085126470847
 21
51.030756009973
 31
0.0
  0
LINE
  5
F1
330
6C
100
AcDbEntity
  8
Sichtbare Kanten(DIN)
100
AcDbLine
 10
63.97085126470847
 20
48.530756009973
 30
0.0
 11
63.97085126470847
 21
51.030756009973
 31
0.0
  0
LINE
  5
F2
330
6C
100
AcDbEntity
  8
Sichtbare Kanten(DIN)
100
AcDbLine
 10
70.72085126470833
 20
48.53075600997303
 30
0.0
 11
63.97085126470847
 21
48.530756009973
 31
0.0
  0
LINE
  5
F3
330
6C
100
AcDbEntity
  8
Sichtbare Kanten(DIN)
100
AcDbLine
 10
115.4708512647085
 20
46.03075600997307
 30
0.0
 11
115.4708512647086
 21
48.53075600997308
 31
0.0
  0
LINE
  5
F4
330
6C
100
AcDbEntity
  8
Sichtbare Kanten(DIN)
100
AcDbLine
 10
63.97085126470845
 20
48.530756009973
 30
0.0
 11
63.97085126470847
 21
46.03075600997307
 31
0.0
  0
LINE
  5
F5
330
6C
100
AcDbEntity
  8
Sichtbare Kanten(DIN)
100
AcDbLine
 10
70.7208512647083
 20
48.53075600997303
 30
0.0
 11
70.72085126470833
 21
50.25551289723328
 31
0.0
  0
LINE
  5
F6
330
6C
100
AcDbEntity
  8
Sichtbare Kanten(DIN)
100
AcDbLine
 10
108.7208512647087
 20
50.2555128972337
 30
0.0
 11
108.7208512647087
 21
48.53075600997307
 31
0.0
  0
LINE
  5
F7
330
6C
100
AcDbEntity
  8
Sichtbare Kanten(DIN)
100
AcDbLine
 10
108.7208512647087
 20
48.53075600997307
 30
0.0
 11
70.72085126470833
 21
48.53075600997303
 31
0.0
  0
LINE
  5
F8
330
6C
100
AcDbEntity
  8
Sichtbare Kanten(DIN)
100
AcDbLine
 10
121.1551219264848
 20
288.1402697844917
 30
0.0
 11
116.1551219264852
 21
288.1402697844916
 31
0.0
  0
LINE
  5
F9
330
6C
100
AcDbEntity
  8
Sichtbare Kanten(DIN)
100
AcDbLine
 10
121.1551219264848
 20
288.1402697844916
 30
0.0
 11
121.1551219264848
 21
290.6402697844916
 31
0.0
  0
LINE
  5
FA
330
6C
100
AcDbEntity
  8
Sichtbare Kanten(DIN)
100
AcDbLine
 10
59.39609437743084
 20
290.6402697844746
 30
0.0
 11
64.39609437744879
 21
290.6402697844712
 31
0.0
  0
LINE
  5
FB
330
6C
100
AcDbEntity
  8
Sichtbare Kanten(DIN)
100
AcDbLine
 10
59.39609437743083
 20
290.6402697844746
 30
0.0
 11
59.39609437743087
 21
288.1402697844746
 31
0.0
  0
LINE
  5
FC
330
6C
100
AcDbEntity
  8
Sichtbare Kanten(DIN)
100
AcDbLine
 10
64.39609437744883
 20
288.1402697844713
 30
0.0
 11
59.39609437743088
 21
288.1402697844746
 31
0.0
  0
LINE
  5
FD
330
6C
100
AcDbEntity
  8
Sichtbare Kanten(DIN)
100
AcDbLine
 10
116.1551219264852
 20
290.6402697844916
 30
0.0
 11
121.1551219264847
 21
290.6402697844917
 31
0.0
  0
LINE
  5
FE
330
6C
100
AcDbEntity
  8
Sichtbare Kanten(DIN)
100
AcDbLine
 10
116.1551219264852
 20
288.1402697844916
 30
0.0
 11
114.8303650392253
 21
288.1402697844915
 31
0.0
  0
LINE
  5
FF
330
6C
100
AcDbEntity
  8
Sichtbare Kanten(DIN)
100
AcDbLine
 10
112.3303650392253
 20
285.6402697844916
 30
0.0
 11
112.3303650392253
 21
284.5555128972319
 31
0.0
  0
LINE
  5
100
330
6C
100
AcDbEntity
  8
Sichtbare Kanten(DIN)
100
AcDbLine
 10
114.8303650392253
 20
290.6402697844915
 30
0.0
 11
116.1551219264852
 21
290.6402697844916
 31
0.0
  0
LINE
  5
101
330
6C
100
AcDbEntity
  8
Sichtbare Kanten(DIN)
100
AcDbLine
 10
128.4083532587604
 20
285.755512897233
 30
0.0
 11
115.4708512647076
 21
285.7555128972327
 31
0.0
  0
LINE
  5
102
330
6C
100
AcDbEntity
  8
Sichtbare Kanten(DIN)
100
AcDbLine
 10
63.97085126470805
 20
285.7555128972323
 30
0.0
 11
52.14286304517101
 21
285.7555128972322
 31
0.0
  0
LINE
  5
103
330
6C
100
AcDbEntity
  8
Sichtbare Kanten(DIN)
100
AcDbLine
 10
37.19994257379515
 20
251.7555128972323
 30
0.0
 11
37.19994257379504
 21
270.7555128972322
 31
0.0
  0
LINE
  5
104
330
6C
100
AcDbEntity
  8
Sichtbare Kanten(DIN)
100
AcDbLine
 10
65.50296190783753
 20
236.7555128972327
 30
0.0
 11
52.1428630451713
 21
236.7555128972326
 31
0.0
  0
LINE
  5
105
330
6C
100
AcDbEntity
  8
Sichtbare Kanten(DIN)
100
AcDbLine
 10
36.98205321692587
 20
270.7555128972322
 30
0.0
 11
36.98205321692598
 21
251.7555128972323
 31
0.0
  0
LINE
  5
106
330
6C
100
AcDbEntity
  8
Sichtbare Kanten(DIN)
100
AcDbLine
 10
107.3303650392276
 20
50.25551289723363
 30
0.0
 11
100.975608151968
 21
50.25551289723356
 31
0.0
  0
LINE
  5
107
330
6C
100
AcDbEntity
  8
Sichtbare Kanten(DIN)
100
AcDbLine
 10
107.3303650392254
 20
285.8555128972319
 30
0.0
 11
100.9756081519634
 21
285.8555128972318
 31
0.0
  0
LINE
  5
108
330
6C
100
AcDbEntity
  8
Sichtbare Kanten(DIN)
100
AcDbLine
 10
128.4083532587608
 20
236.7555128972333
 30
0.0
 11
115.0482543960943
 21
236.7555128972331
 31
0.0
  0
LINE
  5
109
330
6C
100
AcDbEntity
  8
Sichtbare Kanten(DIN)
100
AcDbLine
 10
143.5691630870059
 20
251.7555128972333
 30
0.0
 11
143.5691630870058
 21
270.7555128972331
 31
0.0
  0
LINE
  5
10A
330
6C
100
AcDbEntity
  8
Sichtbare Kanten(DIN)
100
AcDbLine
 10
143.3512737301366
 20
270.7555128972332
 30
0.0
 11
143.3512737301368
 21
251.7555128972333
 31
0.0
  0
LINE
  5
10B
330
6C
100
AcDbEntity
  8
Sichtbare Kanten(DIN)
100
AcDbLine
 10
79.57560815196362
 20
285.8555128972314
 30
0.0
 11
73.22085126470682
 21
285.8555128972314
 31
0.0
  0
LINE
  5
10C
330
6C
100
AcDbEntity
  8
Sichtbare Kanten(DIN)
100
AcDbLine
 10
68.22085126470685
 20
284.5555128972314
 30
0.0
 11
68.22085126470684
 21
285.6402697844714
 31
0.0
  0
LINE
  5
10D
330
6C
100
AcDbEntity
  8
Sichtbare Kanten(DIN)
100
AcDbLine
 10
79.57560815196824
 20
50.25551289723333
 30
0.0
 11
73.22085126470873
 21
50.25551289723326
 31
0.0
  0
LINE
  5
10E
330
6C
100
AcDbEntity
  8
Sichtbare Kanten(DIN)
100
AcDbLine
 10
64.39609437744889
 20
290.6402697844712
 30
0.0
 11
65.72085126470689
 21
290.6402697844713
 31
0.0
  0
LINE
  5
10F
330
6C
100
AcDbEntity
  8
Sichtbare Kanten(DIN)
100
AcDbLine
 10
65.72085126470688
 20
288.1402697844712
 30
0.0
 11
64.39609437744886
 21
288.1402697844712
 31
0.0
  0
ARC
  5
110
330
6C
100
AcDbEntity
  8
Sichtbare Kanten(DIN)
100
AcDbCircle
 10
114.8303650392253
 20
285.6402697844917
 30
0.0
 40
2.499999999999945
100
AcDbArc
 50
89.99999999999714
 51
180.0
  0
ARC
  5
111
330
6C
100
AcDbEntity
  8
Sichtbare Kanten(DIN)
100
AcDbCircle
 10
114.8303650392253
 20
285.6402697844917
 30
0.0
 40
4.999999999999943
100
AcDbArc
 50
89.99999999999898
 51
177.5327331637694
  0
LINE
  5
112
330
6C
100
AcDbEntity
  8
Sichtbare Kanten(DIN)
100
AcDbLine
 10
112.3303650392253
 20
284.555512897232
 30
0.0
 11
112.3303650392275
 21
50.25551289723374
 31
0.0
  0
LINE
  5
113
330
6C
100
AcDbEntity
  8
Sichtbare Kanten(DIN)
100
AcDbLine
 10
111.6726089161446
 20
284.5555128972317
 30
0.0
 11
111.6726089161446
 21
285.8555128972319
 31
0.0
  0
LINE
  5
114
330
6C
100
AcDbEntity
  8
Sichtbare Kanten(DIN)
100
AcDbLine
 10
107.3303650392254
 20
285.8555128972318
 30
0.0
 11
111.6726089161446
 21
285.8555128972319
 31
0.0
  0
LINE
  5
115
330
6C
100
AcDbEntity
  8
Sichtbare Kanten(DIN)
100
AcDbLine
 10
112.3303650392275
 20
50.25551289723376
 30
0.0
 11
107.3303650392275
 21
50.25551289723363
 31
0.0
  0
LINE
  5
116
330
6C
100
AcDbEntity
  8
Sichtbare Kanten(DIN)
100
AcDbLine
 10
111.6726089161446
 20
284.5555128972319
 30
0.0
 11
112.3303650392253
 21
284.555512897232
 31
0.0
  0
LINE
  5
117
330
6C
100
AcDbEntity
  8
Sichtbare Kanten(DIN)
100
AcDbLine
 10
128.6262426156295
 20
285.755512897233
 30
0.0
 11
128.4083532587604
 21
285.755512897233
 31
0.0
  0
ELLIPSE
  5
118
330
6C
100
AcDbEntity
  8
Sichtbare Kanten(DIN)
100
AcDbEllipse
 10
52.14286304517106
 20
270.7555128972323
 30
0.0
 11
-0.0000000000001276
 21
14.99999999999985
 31
0.0
210
0.0
220
0.0
230
1.0
 40
0.9961946980917439
 41
0.0
 42
1.570796326794901
  0
ELLIPSE
  5
119
330
6C
100
AcDbEntity
  8
Sichtbare Kanten(DIN)
100
AcDbEllipse
 10
52.14286304517116
 20
251.7555128972324
 30
0.0
 11
0.0000000000001099
 21
-14.99999999999985
 31
0.0
210
0.0
220
0.0
230
1.0
 40
0.9961946980917439
 41
4.712388980384687
 42
6.283185307179577
  0
ELLIPSE
  5
11A
330
6C
100
AcDbEntity
  8
Sichtbare Kanten(DIN)
100
AcDbEllipse
 10
51.92497368830199
 20
251.7555128972325
 30
0.0
 11
0.0000000000000568
 21
-14.99999999999987
 31
0.0
210
0.0
220
0.0
230
1.0
 40
0.9961946980917439
 41
4.712388980384695
 42
6.283185307179588
  0
ELLIPSE
  5
11B
330
6C
100
AcDbEntity
  8
Sichtbare Kanten(DIN)
100
AcDbEllipse
 10
51.92497368830188
 20
270.7555128972324
 30
0.0
 11
-0.0000000000000568
 21
14.99999999999985
 31
0.0
210
0.0
220
0.0
230
1.0
 40
0.9961946980917439
 41
0.0
 42
1.5707963267949
  0
LINE
  5
11C
330
6C
100
AcDbEntity
  8
Sichtbare Kanten(DIN)
100
AcDbLine
 10
51.92497368830212
 20
236.7555128972326
 30
0.0
 11
52.1428630451713
 21
236.7555128972326
 31
0.0
  0
LINE
  5
11D
330
6C
100
AcDbEntity
  8
Sichtbare Kanten(DIN)
100
AcDbLine
 10
52.14286304517102
 20
285.7555128972322
 30
0.0
 11
51.92497368830185
 21
285.7555128972322
 31
0.0
  0
LINE
  5
11E
330
6C
100
AcDbEntity
  8
Sichtbare Kanten(DIN)
100
AcDbLine
 10
128.4083532587608
 20
236.7555128972333
 30
0.0
 11
128.62624261563
 21
236.7555128972333
 31
0.0
  0
ELLIPSE
  5
11F
330
6C
100
AcDbEntity
  8
Sichtbare Kanten(DIN)
100
AcDbEllipse
 10
128.6262426156296
 20
270.755512897233
 30
0.0
 11
-0.0000000000001991
 21
14.99999999999992
 31
0.0
210
0.0
220
0.0
230
1.0
 40
0.9961946980917451
 41
4.712388980384695
 42
6.283185307179582
  0
ELLIPSE
  5
120
330
6C
100
AcDbEntity
  8
Sichtbare Kanten(DIN)
100
AcDbEllipse
 10
128.6262426156299
 20
251.7555128972332
 30
0.0
 11
0.0000000000001187
 21
-14.99999999999985
 31
0.0
210
0.0
220
0.0
230
1.0
 40
0.9961946980917456
 41
0.0
 42
1.5707963267949
  0
ELLIPSE
  5
121
330
6C
100
AcDbEntity
  8
Sichtbare Kanten(DIN)
100
AcDbEllipse
 10
128.4083532587607
 20
251.7555128972332
 30
0.0
 11
0.0000000000001989
 21
-14.99999999999985
 31
0.0
210
0.0
220
0.0
230
1.0
 40
0.9961946980917455
 41
0.0
 42
1.570796326794901
  0
ELLIPSE
  5
122
330
6C
100
AcDbEntity
  8
Sichtbare Kanten(DIN)
100
AcDbEllipse
 10
128.4083532587605
 20
270.755512897233
 30
0.0
 11
-0.0000000000001183
 21
14.99999999999992
 31
0.0
210
0.0
220
0.0
230
1.0
 40
0.9961946980917455
 41
4.712388980384693
 42
6.283185307179583
  0
ARC
  5
123
330
6C
100
AcDbEntity
  8
Sichtbare Kanten(DIN)
100
AcDbCircle
 10
65.72085126470695
 20
285.6402697844714
 30
0.0
 40
4.999999999999927
100
AcDbArc
 50
2.467266836460817
 51
90.00000000000047
  0
ARC
  5
124
330
6C
100
AcDbEntity
  8
Sichtbare Kanten(DIN)
100
AcDbCircle
 10
65.72085126470685
 20
285.6402697844712
 30
0.0
 40
2.500000000000005
100
AcDbArc
 50
0.0
 51
90.0
  0
LINE
  5
125
330
6C
100
AcDbEntity
  8
Sichtbare Kanten(DIN)
100
AcDbLine
 10
70.72085126470691
 20
249.855512897232
 30
0.0
 11
70.72085126470693
 21
254.0555128972319
 31
0.0
  0
LINE
  5
126
330
6C
100
AcDbEntity
  8
Sichtbare Kanten(DIN)
100
AcDbLine
 10
70.72085126470819
 20
91.25551289723325
 30
0.0
 11
70.72085126470819
 21
95.45551289723318
 31
0.0
  0
ARC
  5
127
330
6C
100
AcDbEntity
  8
Sichtbare Kanten(DIN)
100
AcDbCircle
 10
92.77560815196778
 20
91.25551289723317
 30
0.0
 40
4.199999999999977
100
AcDbArc
 50
0.0
 51
90.00000000000047
  0
LINE
  5
128
330
6C
100
AcDbEntity
  8
Sichtbare Kanten(DIN)
100
AcDbLine
 10
68.22085126470695
 20
254.0555128972319
 30
0.0
 11
68.22085126470693
 21
249.855512897232
 31
0.0
  0
LINE
  5
129
330
6C
100
AcDbEntity
  8
Sichtbare Kanten(DIN)
100
AcDbLine
 10
68.2208512647082
 20
95.45551289723315
 30
0.0
 11
68.2208512647082
 21
91.25551289723324
 31
0.0
  0
LINE
  5
12A
330
6C
100
AcDbEntity
  8
Sichtbare Kanten(DIN)
100
AcDbLine
 10
70.72085126470691
 20
249.8555128972321
 30
0.0
 11
70.72085126470698
 21
240.6555128972319
 31
0.0
  0
LINE
  5
12B
330
6C
100
AcDbEntity
  8
Sichtbare Kanten(DIN)
100
AcDbLine
 10
90.37560815196389
 20
240.655512897232
 30
0.0
 11
73.22085126470717
 21
240.6555128972318
 31
0.0
  0
LINE
  5
12C
330
6C
100
AcDbEntity
  8
Sichtbare Kanten(DIN)
100
AcDbLine
 10
96.97560815196355
 20
281.8555128972318
 30
0.0
 11
96.97560815196382
 21
247.255512897232
 31
0.0
  0
LINE
  5
12D
330
6C
100
AcDbEntity
  8
Sichtbare Kanten(DIN)
100
AcDbLine
 10
73.22085126470709
 20
254.0555128972317
 30
0.0
 11
79.7756081519639
 21
254.0555128972317
 31
0.0
  0
LINE
  5
12E
330
6C
100
AcDbEntity
  8
Sichtbare Kanten(DIN)
100
AcDbLine
 10
83.57560815196386
 20
257.8555128972317
 30
0.0
 11
83.57560815196363
 21
281.8555128972316
 31
0.0
  0
LINE
  5
12F
330
6C
100
AcDbEntity
  8
Sichtbare Kanten(DIN)
100
AcDbLine
 10
68.220851264707
 20
240.6555128972318
 30
0.0
 11
68.22085126470693
 21
249.855512897232
 31
0.0
  0
LINE
  5
130
330
6C
100
AcDbEntity
  8
Sichtbare Kanten(DIN)
100
AcDbLine
 10
70.72085126470817
 20
91.25551289723325
 30
0.0
 11
70.72085126470824
 21
82.05551289723306
 31
0.0
  0
LINE
  5
131
330
6C
100
AcDbEntity
  8
Sichtbare Kanten(DIN)
100
AcDbLine
 10
73.22085126470835
 20
95.4555128972329
 30
0.0
 11
92.77560815196778
 21
95.45551289723311
 31
0.0
  0
LINE
  5
132
330
6C
100
AcDbEntity
  8
Sichtbare Kanten(DIN)
100
AcDbLine
 10
96.9756081519678
 20
91.25551289723318
 30
0.0
 11
96.97560815196808
 21
54.25551289723348
 31
0.0
  0
LINE
  5
133
330
6C
100
AcDbEntity
  8
Sichtbare Kanten(DIN)
100
AcDbLine
 10
68.22085126470826
 20
82.05551289723306
 30
0.0
 11
68.22085126470821
 21
91.25551289723325
 31
0.0
  0
LINE
  5
134
330
6C
100
AcDbEntity
  8
Sichtbare Kanten(DIN)
100
AcDbLine
 10
81.77560815196796
 20
82.05551289723311
 30
0.0
 11
73.22085126470847
 21
82.05551289723301
 31
0.0
  0
LINE
  5
135
330
6C
100
AcDbEntity
  8
Sichtbare Kanten(DIN)
100
AcDbLine
 10
83.57560815196817
 20
54.25551289723337
 30
0.0
 11
83.57560815196796
 21
80.25551289723313
 31
0.0
  0
LINE
  5
136
330
6C
100
AcDbEntity
  8
Sichtbare Kanten(DIN)
100
AcDbLine
 10
65.50296190783743
 20
236.7555128972327
 30
0.0
 11
68.22085126470665
 21
236.7555128972327
 31
0.0
  0
ELLIPSE
  5
137
330
6C
100
AcDbEntity
  8
Sichtbare Kanten(DIN)
100
AcDbEllipse
 10
54.33449138096751
 20
254.7555128972325
 30
0.0
 11
0.0000000000003231
 21
-6.499999999999936
 31
0.0
210
0.0
220
0.0
230
1.0
 40
0.9961946980917442
 41
4.7123889803847
 42
7.853981633974493
  0
LINE
  5
138
330
6C
100
AcDbEntity
  8
Sichtbare Kanten(DIN)
100
AcDbLine
 10
47.85922584337123
 20
254.7555128972324
 30
0.0
 11
47.85922584337116
 21
267.7555128972323
 31
0.0
  0
ELLIPSE
  5
139
330
6C
100
AcDbEntity
  8
Sichtbare Kanten(DIN)
100
AcDbEllipse
 10
54.33449138096742
 20
267.7555128972323
 30
0.0
 11
-0.0000000000000046
 21
6.499999999999953
 31
0.0
210
0.0
220
0.0
230
1.0
 40
0.9961946980917442
 41
4.7123889803847
 42
7.853981633974493
  0
LINE
  5
13A
330
6C
100
AcDbEntity
  8
Sichtbare Kanten(DIN)
100
AcDbLine
 10
60.80975691856372
 20
267.7555128972324
 30
0.0
 11
60.80975691856379
 21
254.7555128972328
 31
0.0
  0
ELLIPSE
  5
13B
330
6C
100
AcDbEntity
  8
Sichtbare Kanten(DIN)
100
AcDbEllipse
 10
54.11660202409834
 20
254.7555128972325
 30
0.0
 11
-0.0000000000035113
 21
-6.499999999999915
 31
0.0
210
0.0
220
0.0
230
1.0
 40
0.9961946980917442
 41
0.0168255368561308
 42
1.5707963267955
  0
LINE
  5
13C
330
6C
100
AcDbEntity
  8
Sichtbare Kanten(DIN)
100
AcDbLine
 10
60.59186756169463
 20
254.7555128972328
 30
0.0
 11
60.59186756169456
 21
267.7555128972325
 31
0.0
  0
ELLIPSE
  5
13D
330
6C
100
AcDbEntity
  8
Sichtbare Kanten(DIN)
100
AcDbEllipse
 10
54.11660202409826
 20
267.7555128972325
 30
0.0
 11
-0.00000000000004
 21
6.499999999999954
 31
0.0
210
0.0
220
0.0
230
1.0
 40
0.996194698091744
 41
4.7123889803847
 42
6.266359770323659
  0
ELLIPSE
  5
13E
330
6C
100
AcDbEntity
  8
Sichtbare Kanten(DIN)
100
AcDbEllipse
 10
126.6338532194464
 20
254.7555128972332
 30
0.0
 11
-0.000000000000243
 21
-6.499999999999953
 31
0.0
210
0.0
220
0.0
230
1.0
 40
0.9961946980917453
 41
4.712388980384699
 42
6.26635977032403
  0
ELLIPSE
  5
13F
330
6C
100
AcDbEntity
  8
Sichtbare Kanten(DIN)
100
AcDbEllipse
 10
126.6338532194462
 20
267.7555128972332
 30
0.0
 11
0.0000000000018513
 21
6.49999999999988
 31
0.0
210
0.0
220
0.0
230
1.0
 40
0.996194698091746
 41
0.016825536856201
 42
1.570796326795207
  0
LINE
  5
140
330
6C
100
AcDbEntity
  8
Sichtbare Kanten(DIN)
100
AcDbLine
 10
120.1585876818499
 20
267.7555128972331
 30
0.0
 11
120.1585876818501
 21
254.7555128972335
 31
0.0
  0
ELLIPSE
  5
141
330
6C
100
AcDbEntity
  8
Sichtbare Kanten(DIN)
100
AcDbEllipse
 10
126.4159638625772
 20
254.7555128972331
 30
0.0
 11
0.0000000000000402
 21
-6.49999999999994
 31
0.0
210
0.0
220
0.0
230
1.0
 40
0.9961946980917453
 41
4.7123889803847
 42
7.853981633974493
  0
LINE
  5
142
330
6C
100
AcDbEntity
  8
Sichtbare Kanten(DIN)
100
AcDbLine
 10
132.8912294001734
 20
267.7555128972331
 30
0.0
 11
132.8912294001736
 21
254.7555128972331
 31
0.0
  0
ELLIPSE
  5
143
330
6C
100
AcDbEntity
  8
Sichtbare Kanten(DIN)
100
AcDbEllipse
 10
126.4159638625771
 20
267.755512897233
 30
0.0
 11
-0.0000000000000755
 21
6.499999999999968
 31
0.0
210
0.0
220
0.0
230
1.0
 40
0.9961946980917453
 41
4.7123889803847
 42
7.853981633974493
  0
LINE
  5
144
330
6C
100
AcDbEntity
  8
Sichtbare Kanten(DIN)
100
AcDbLine
 10
119.9406983249809
 20
254.7555128972334
 30
0.0
 11
119.9406983249808
 21
267.755512897233
 31
0.0
  0
LINE
  5
145
330
6C
100
AcDbEntity
  8
Sichtbare Kanten(DIN)
100
AcDbLine
 10
73.22085126470835
 20
95.45551289723286
 30
0.0
 11
68.22085126470835
 21
95.45551289723292
 31
0.0
  0
LINE
  5
146
330
6C
100
AcDbEntity
  8
Sichtbare Kanten(DIN)
100
AcDbLine
 10
68.22085126470721
 20
240.6555128972318
 30
0.0
 11
73.22085126470721
 21
240.6555128972318
 31
0.0
  0
LINE
  5
147
330
6C
100
AcDbEntity
  8
Sichtbare Kanten(DIN)
100
AcDbLine
 10
73.22085126470708
 20
254.0555128972319
 30
0.0
 11
68.22085126470708
 21
254.0555128972317
 31
0.0
  0
LINE
  5
148
330
6C
100
AcDbEntity
  8
Sichtbare Kanten(DIN)
100
AcDbLine
 10
68.87860738778417
 20
285.8555128972314
 30
0.0
 11
73.22085126470688
 21
285.8555128972314
 31
0.0
  0
LINE
  5
149
330
6C
100
AcDbEntity
  8
Sichtbare Kanten(DIN)
100
AcDbLine
 10
68.22085126470686
 20
284.5555128972314
 30
0.0
 11
68.8786073877842
 21
284.5555128972314
 31
0.0
  0
LINE
  5
14A
330
6C
100
AcDbEntity
  8
Sichtbare Kanten(DIN)
100
AcDbLine
 10
68.22085126470847
 20
82.05551289723301
 30
0.0
 11
73.22085126470844
 21
82.05551289723301
 31
0.0
  0
LINE
  5
14B
330
6C
100
AcDbEntity
  8
Sichtbare Kanten(DIN)
100
AcDbLine
 10
68.2208512647087
 20
50.25551289723324
 30
0.0
 11
68.22085126470847
 21
82.05551289723301
 31
0.0
  0
LINE
  5
14C
330
6C
100
AcDbEntity
  8
Sichtbare Kanten(DIN)
100
AcDbLine
 10
68.22085126470833
 20
95.45551289723292
 30
0.0
 11
68.22085126470717
 21
240.6555128972318
 31
0.0
  0
LINE
  5
14D
330
6C
100
AcDbEntity
  8
Sichtbare Kanten(DIN)
100
AcDbLine
 10
68.2208512647071
 20
254.0555128972317
 30
0.0
 11
68.22085126470688
 21
284.5555128972314
 31
0.0
  0
LINE
  5
14E
330
6C
100
AcDbEntity
  8
Sichtbare Kanten(DIN)
100
AcDbLine
 10
73.22085126470871
 20
50.25551289723325
 30
0.0
 11
68.22085126470871
 21
50.25551289723325
 31
0.0
  0
LINE
  5
14F
330
6C
100
AcDbEntity
  8
Sichtbare Kanten(DIN)
100
AcDbLine
 10
68.87860738778417
 20
285.8555128972319
 30
0.0
 11
68.87860738778421
 21
284.5555128972314
 31
0.0
  0
ARC
  5
150
330
6C
100
AcDbEntity
  8
Sichtbare Kanten(DIN)
100
AcDbCircle
 10
100.975608151968
 20
54.25551289723355
 30
0.0
 40
3.99999999999997
100
AcDbArc
 50
180.0
 51
270.0000000000002
  0
ARC
  5
151
330
6C
100
AcDbEntity
  8
Sichtbare Kanten(DIN)
100
AcDbCircle
 10
100.9756081519635
 20
281.8555128972318
 30
0.0
 40
3.999999999999944
100
AcDbArc
 50
90.00000000000024
 51
180.0
  0
ARC
  5
152
330
6C
100
AcDbEntity
  8
Sichtbare Kanten(DIN)
100
AcDbCircle
 10
79.57560815196366
 20
281.8555128972316
 30
0.0
 40
3.999999999999955
100
AcDbArc
 50
0.0
 51
90.00000000000076
  0
ARC
  5
153
330
6C
100
AcDbEntity
  8
Sichtbare Kanten(DIN)
100
AcDbCircle
 10
79.5756081519682
 20
54.2555128972333
 30
0.0
 40
3.99999999999998
100
AcDbArc
 50
270.0000000000006
 51
0.0
  0
ARC
  5
154
330
6C
100
AcDbEntity
  8
Sichtbare Kanten(DIN)
100
AcDbCircle
 10
90.37560815196385
 20
247.2555128972319
 30
0.0
 40
6.599999999999951
100
AcDbArc
 50
270.0000000000003
 51
0.0
  0
LINE
  5
155
330
6C
100
AcDbEntity
  8
Sichtbare Kanten(DIN)
100
AcDbLine
 10
112.3303650392252
 20
236.7555128972331
 30
0.0
 11
115.0482543960943
 21
236.7555128972332
 31
0.0
  0
ARC
  5
156
330
6C
100
AcDbEntity
  8
Sichtbare Kanten(DIN)
100
AcDbCircle
 10
79.77560815196383
 20
257.8555128972317
 30
0.0
 40
3.800000000000003
100
AcDbArc
 50
270.0000000000009
 51
0.0
  0
ARC
  5
157
330
6C
100
AcDbEntity
  8
Sichtbare Kanten(DIN)
100
AcDbCircle
 10
81.77560815196798
 20
80.25551289723313
 30
0.0
 40
1.799999999999974
100
AcDbArc
 50
0.0
 51
90.0000000000017
  0
LINE
  5
158
330
6C
100
AcDbEntity
  8
Sichtbare Kanten(DIN)
100
AcDbLine
 10
248.2844837727019
 20
285.9055128972324
 30
0.0
 11
248.2844837727019
 21
271.9055128972324
 31
0.0
  0
LINE
  5
159
330
6C
100
AcDbEntity
  8
Sichtbare Kanten(DIN)
100
AcDbLine
 10
248.2844837727031
 20
220.1555128972325
 30
0.0
 11
248.2844837727021
 21
210.2055128972324
 31
0.0
  0
LINE
  5
15A
330
6C
100
AcDbEntity
  8
Sichtbare Kanten(DIN)
100
AcDbLine
 10
248.2844837727031
 20
175.6555128972324
 30
0.0
 11
248.2844837727021
 21
165.7055128972324
 31
0.0
  0
LINE
  5
15B
330
6C
100
AcDbEntity
  8
Sichtbare Kanten(DIN)
100
AcDbLine
 10
248.2844837727031
 20
116.6555128972324
 30
0.0
 11
248.2844837727021
 21
106.7055128972324
 31
0.0
  0
LINE
  5
15C
330
6C
100
AcDbEntity
  8
Sichtbare Kanten(DIN)
100
AcDbLine
 10
248.2844837727031
 20
66.65551289723243
 30
0.0
 11
248.2844837727021
 21
56.70551289723242
 31
0.0
  0
LINE
  5
15D
330
6C
100
AcDbEntity
  8
Sichtbare Kanten(DIN)
100
AcDbLine
 10
248.2844837727019
 20
285.9055128972324
 30
0.0
 11
245.7844837727019
 21
285.9055128972324
 31
0.0
  0
LINE
  5
15E
330
6C
100
AcDbEntity
  8
Sichtbare Kanten(DIN)
100
AcDbLine
 10
212.994969998187
 20
7.975999122713545
 30
0.0
 11
212.9949699981826
 21
22.97599912271348
 31
0.0
  0
LINE
  5
15F
330
6C
100
AcDbEntity
  8
Sichtbare Kanten(DIN)
100
AcDbLine
 10
212.9949699981826
 20
46.030756009973
 30
0.0
 11
212.9949699981826
 21
22.97599912271348
 31
0.0
  0
LINE
  5
160
330
6C
100
AcDbEntity
  8
Sichtbare Kanten(DIN)
100
AcDbLine
 10
215.4949699981826
 20
46.030756009973
 30
0.0
 11
215.4949699981826
 21
22.97599912271348
 31
0.0
  0
LINE
  5
161
330
6C
100
AcDbEntity
  8
Sichtbare Kanten(DIN)
100
AcDbLine
 10
215.494969998187
 20
7.975999122713545
 30
0.0
 11
215.4949699981826
 21
22.97599912271348
 31
0.0
  0
LINE
  5
162
330
6C
100
AcDbEntity
  8
Sichtbare Kanten(DIN)
100
AcDbLine
 10
215.494969998187
 20
7.975999122713446
 30
0.0
 11
212.994969998187
 21
7.975999122713446
 31
0.0
  0
LINE
  5
163
330
6C
100
AcDbEntity
  8
Sichtbare Kanten(DIN)
100
AcDbLine
 10
245.784483772702
 20
56.70551289723243
 30
0.0
 11
245.784483772703
 21
66.65551289723243
 31
0.0
  0
LINE
  5
164
330
6C
100
AcDbEntity
  8
Sichtbare Kanten(DIN)
100
AcDbLine
 10
245.7844837727038
 20
83.25551289723378
 30
0.0
 11
245.7844837727038
 21
66.65551289723246
 31
0.0
  0
LINE
  5
165
330
6C
100
AcDbEntity
  8
Sichtbare Kanten(DIN)
100
AcDbLine
 10
245.784483772702
 20
106.7055128972324
 30
0.0
 11
245.784483772703
 21
116.6555128972324
 31
0.0
  0
LINE
  5
166
330
6C
100
AcDbEntity
  8
Sichtbare Kanten(DIN)
100
AcDbLine
 10
245.7844837727038
 20
133.2555128972338
 30
0.0
 11
245.7844837727038
 21
116.6555128972325
 31
0.0
  0
LINE
  5
167
330
6C
100
AcDbEntity
  8
Sichtbare Kanten(DIN)
100
AcDbLine
 10
245.784483772702
 20
165.7055128972324
 30
0.0
 11
245.784483772703
 21
175.6555128972324
 31
0.0
  0
LINE
  5
168
330
6C
100
AcDbEntity
  8
Sichtbare Kanten(DIN)
100
AcDbLine
 10
245.7844837727038
 20
192.2555128972337
 30
0.0
 11
245.7844837727038
 21
175.6555128972324
 31
0.0
  0
LINE
  5
169
330
6C
100
AcDbEntity
  8
Sichtbare Kanten(DIN)
100
AcDbLine
 10
245.784483772702
 20
210.2055128972324
 30
0.0
 11
245.784483772703
 21
220.1555128972325
 31
0.0
  0
LINE
  5
16A
330
6C
100
AcDbEntity
  8
Sichtbare Kanten(DIN)
100
AcDbLine
 10
245.7844837727038
 20
236.7555128972338
 30
0.0
 11
245.7844837727038
 21
220.1555128972325
 31
0.0
  0
LINE
  5
16B
330
6C
100
AcDbEntity
  8
Sichtbare Kanten(DIN)
100
AcDbLine
 10
245.7844837727019
 20
285.9055128972324
 30
0.0
 11
245.7844837727019
 21
271.9055128972324
 31
0.0
  0
LINE
  5
16C
330
6C
100
AcDbEntity
  8
Sichtbare Kanten(DIN)
100
AcDbLine
 10
241.5844837727036
 20
51.03075600997303
 30
0.0
 11
235.0497268854441
 21
51.03075600997303
 31
0.0
  0
LINE
  5
16D
330
6C
100
AcDbEntity
  8
Sichtbare Kanten(DIN)
100
AcDbLine
 10
243.2844837727038
 20
48.53075600997303
 30
0.0
 11
235.0497268854441
 21
48.53075600997303
 31
0.0
  0
LINE
  5
16E
330
6C
100
AcDbEntity
  8
Sichtbare Kanten(DIN)
100
AcDbLine
 10
248.2844837727019
 20
271.9055128972324
 30
0.0
 11
245.7844837727019
 21
271.9055128972324
 31
0.0
  0
LINE
  5
16F
330
6C
100
AcDbEntity
  8
Sichtbare Kanten(DIN)
100
AcDbLine
 10
248.284483772702
 20
165.7055128972324
 30
0.0
 11
245.784483772702
 21
165.7055128972324
 31
0.0
  0
LINE
  5
170
330
6C
100
AcDbEntity
  8
Sichtbare Kanten(DIN)
100
AcDbLine
 10
248.284483772703
 20
175.6555128972324
 30
0.0
 11
245.784483772703
 21
175.6555128972324
 31
0.0
  0
LINE
  5
171
330
6C
100
AcDbEntity
  8
Sichtbare Kanten(DIN)
100
AcDbLine
 10
248.284483772702
 20
56.70551289723242
 30
0.0
 11
245.784483772702
 21
56.70551289723242
 31
0.0
  0
LINE
  5
172
330
6C
100
AcDbEntity
  8
Sichtbare Kanten(DIN)
100
AcDbLine
 10
248.284483772703
 20
66.65551289723246
 30
0.0
 11
245.784483772703
 21
66.65551289723246
 31
0.0
  0
LINE
  5
173
330
6C
100
AcDbEntity
  8
Sichtbare Kanten(DIN)
100
AcDbLine
 10
248.284483772702
 20
106.7055128972324
 30
0.0
 11
245.784483772702
 21
106.7055128972324
 31
0.0
  0
LINE
  5
174
330
6C
100
AcDbEntity
  8
Sichtbare Kanten(DIN)
100
AcDbLine
 10
248.2844837727031
 20
116.6555128972325
 30
0.0
 11
245.7844837727031
 21
116.6555128972325
 31
0.0
  0
LINE
  5
175
330
6C
100
AcDbEntity
  8
Sichtbare Kanten(DIN)
100
AcDbLine
 10
248.284483772703
 20
220.1555128972325
 30
0.0
 11
245.784483772703
 21
220.1555128972325
 31
0.0
  0
LINE
  5
176
330
6C
100
AcDbEntity
  8
Sichtbare Kanten(DIN)
100
AcDbLine
 10
248.284483772702
 20
210.2055128972324
 30
0.0
 11
245.784483772702
 21
210.2055128972324
 31
0.0
  0
LINE
  5
177
330
6C
100
AcDbEntity
  8
Sichtbare Kanten(DIN)
100
AcDbLine
 10
235.0497268854422
 20
48.530756009973
 30
0.0
 11
235.0497268854422
 21
51.030756009973
 31
0.0
  0
LINE
  5
178
330
6C
100
AcDbEntity
  8
Sichtbare Kanten(DIN)
100
AcDbLine
 10
235.0497268854422
 20
51.030756009973
 30
0.0
 11
217.9949699981825
 21
51.030756009973
 31
0.0
  0
LINE
  5
179
330
6C
100
AcDbEntity
  8
Sichtbare Kanten(DIN)
100
AcDbLine
 10
235.0497268854422
 20
48.530756009973
 30
0.0
 11
217.9949699981825
 21
48.530756009973
 31
0.0
  0
ARC
  5
17A
330
6C
100
AcDbEntity
  8
Sichtbare Kanten(DIN)
100
AcDbCircle
 10
217.9949699981825
 20
46.03075600997296
 30
0.0
 40
2.500000000000035
100
AcDbArc
 50
90.00000000000079
 51
180.0
  0
ARC
  5
17B
330
6C
100
AcDbEntity
  8
Sichtbare Kanten(DIN)
100
AcDbCircle
 10
217.9949699981825
 20
46.030756009973
 30
0.0
 40
4.999999999999992
100
AcDbArc
 50
90.0
 51
180.0
  0
ARC
  5
17C
330
6C
100
AcDbEntity
  8
Sichtbare Kanten(DIN)
100
AcDbCircle
 10
243.2844837727038
 20
53.53075600997321
 30
0.0
 40
5.000000000000173
100
AcDbArc
 50
270.0
 51
319.0766631234411
  0
LINE
  5
17D
330
6C
100
AcDbEntity
  8
Sichtbare Kanten(DIN)
100
AcDbLine
 10
219.21335150282
 20
285.7170864337288
 30
0.0
 11
219.21335150282
 21
285.6402697845149
 31
0.0
  0
LINE
  5
17E
330
6C
100
AcDbEntity
  8
Sichtbare Kanten(DIN)
100
AcDbLine
 10
219.2133515028201
 20
285.7170864337289
 30
0.0
 11
219.2133515028201
 21
285.7171227217863
 31
0.0
  0
LINE
  5
17F
330
6C
100
AcDbEntity
  8
Sichtbare Kanten(DIN)
100
AcDbLine
 10
219.2133515028205
 20
285.7555128972324
 30
0.0
 11
219.2133515028209
 21
285.7939030829509
 31
0.0
  0
LINE
  5
180
330
6C
100
AcDbEntity
  8
Sichtbare Kanten(DIN)
100
AcDbLine
 10
219.2133515028209
 20
285.7939030829509
 30
0.0
 11
224.034483772704
 21
285.7939030829559
 31
0.0
  0
LINE
  5
181
330
6C
100
AcDbEntity
  8
Sichtbare Kanten(DIN)
100
AcDbLine
 10
224.0344837727024
 20
285.7170864337338
 30
0.0
 11
219.2133515028201
 21
285.7170864337289
 31
0.0
  0
SPLINE
  5
182
330
6C
100
AcDbEntity
  8
Sichtbare Kanten(DIN)
100
AcDbSpline
210
0.0
220
0.0
230
1.0
 70
     8
 71
     3
 72
    10
 73
     6
 74
     0
 42
0.0000000001
 43
0.0000000001
 40
0.0
 40
0.0
 40
0.0
 40
0.0
 40
0.0991381451580472
 40
0.0991381451580472
 40
0.1889589207770239
 40
0.1889589207770239
 40
0.1889589207770239
 40
0.1889589207770239
 10
249.407154246517
 20
285.6402697844945
 30
0.0
 10
249.4705807863432
 20
285.9645863049475
 30
0.0
 10
249.5338575088604
 20
286.2881348601071
 30
0.0
 10
249.654749350406
 20
286.8946393875781
 30
0.0
 10
249.7120918416523
 20
287.177315452326
 30
0.0
 10
249.769534203736
 20
287.4510939046459
 30
0.0
  0
SPLINE
  5
183
330
6C
100
AcDbEntity
  8
Sichtbare Kanten(DIN)
100
AcDbSpline
210
0.0
220
0.0
230
1.0
 70
     8
 71
     3
 72
    10
 73
     6
 74
     0
 42
0.0000000001
 43
0.0000000001
 40
0.0
 40
0.0
 40
0.0
 40
0.0
 40
0.0522363853715291
 40
0.0522363853715291
 40
0.1044727707440723
 40
0.1044727707440723
 40
0.1044727707440723
 40
0.1044727707440723
 10
249.7874136648114
 20
286.5881361520006
 30
0.0
 10
249.7239871460628
 20
286.4380851807321
 30
0.0
 10
249.6607104059413
 20
286.2824076512032
 30
0.0
 10
249.5338575053887
 20
285.9642023136016
 30
0.0
 10
249.4705807652664
 20
285.8024280357839
 30
0.0
 10
249.4071542465163
 20
285.6402697844944
 30
0.0
  0
SPLINE
  5
184
330
6C
100
AcDbEntity
  8
Sichtbare Kanten(DIN)
100
AcDbSpline
210
0.0
220
0.0
230
1.0
 70
     8
 71
     3
 72
    32
 73
    28
 74
     0
 42
0.0000000001
 43
0.0000000001
 40
0.0
 40
0.0
 40
0.0
 40
0.0
 40
0.0421772812297643
 40
0.0421772812297643
 40
0.0777364785084678
 40
0.0777364785084678
 40
0.1183070298911952
 40
0.1183070298911952
 40
0.1706333271826172
 40
0.1706333271826172
 40
0.2468693545513699
 40
0.2468693545513699
 40
0.3193159007594871
 40
0.3193159007594871
 40
0.3837977087943979
 40
0.3837977087943979
 40
0.4243236734211134
 40
0.4243236734211134
 40
0.4907661085748441
 40
0.4907661085748441
 40
0.539406135445863
 40
0.539406135445863
 40
0.5791706810626587
 40
0.5791706810626587
 40
0.5996242400025419
 40
0.5996242400025419
 40
0.6237547782821772
 40
0.6237547782821772
 40
0.6237547782821772
 40
0.6237547782821772
 10
243.9815538806042
 20
286.588136152001
 30
0.0
 10
243.9305364506739
 20
286.7093624335927
 30
0.0
 10
243.8888761284672
 20
286.8542091670649
 30
0.0
 10
243.8813734665591
 20
287.1382343684414
 30
0.0
 10
243.9050692086803
 20
287.2578345659131
 30
0.0
 10
244.008521605617
 20
287.48676217196
 30
0.0
 10
244.0935216487293
 20
287.5877019469839
 30
0.0
 10
244.3375669474029
 20
287.7779144886205
 30
0.0
 10
244.5169317862705
 20
287.8599308209076
 30
0.0
 10
245.0559549326634
 20
288.0107814281815
 30
0.0
 10
245.4492599107263
 20
288.0542113349585
 30
0.0
 10
246.3191629333926
 20
288.0993671299043
 30
0.0
 10
246.7650691853052
 20
288.1034922759186
 30
0.0
 10
247.5903898202079
 20
288.092764293294
 30
0.0
 10
247.9422652200309
 20
288.078949605893
 30
0.0
 10
248.4438215203775
 20
288.0337176272685
 30
0.0
 10
248.6327476835064
 20
288.009662791919
 30
0.0
 10
249.1035385304869
 20
287.9153517903811
 30
0.0
 10
249.3351935166093
 20
287.8308273316246
 30
0.0
 10
249.6354099457993
 20
287.6291900469923
 30
0.0
 10
249.7378879677223
 20
287.5224391733596
 30
0.0
 10
249.858112144479
 20
287.2801312651029
 30
0.0
 10
249.8859019734713
 20
287.1572553681649
 30
0.0
 10
249.8836755609533
 20
286.9535493368918
 30
0.0
 10
249.8751207363555
 20
286.8820949583985
 30
0.0
 10
249.8404519530406
 20
286.7256417717265
 30
0.0
 10
249.8133553221013
 20
286.6497780390162
 30
0.0
 10
249.7874136648114
 20
286.5881361520006
 30
0.0
  0
SPLINE
  5
185
330
6C
100
AcDbEntity
  8
Sichtbare Kanten(DIN)
100
AcDbSpline
210
0.0
220
0.0
230
1.0
 70
     8
 71
     3
 72
    10
 73
     6
 74
     0
 42
0.0000000001
 43
0.0000000001
 40
0.0093173695456352
 40
0.0093173695456352
 40
0.0093173695456352
 40
0.0093173695456352
 40
0.0991381451577607
 40
0.0991381451577607
 40
0.1982762903230118
 40
0.1982762903230118
 40
0.1982762903230118
 40
0.1982762903230118
 10
243.9994333416807
 20
287.4510939046498
 30
0.0
 10
244.0568757037601
 20
287.1773154523509
 30
0.0
 10
244.1142181950019
 20
286.8946393876252
 30
0.0
 10
244.2351100365474
 20
286.288134860156
 30
0.0
 10
244.2983867590689
 20
285.9645863049737
 30
0.0
 10
244.3618132988995
 20
285.6402697844978
 30
0.0
  0
SPLINE
  5
186
330
6C
100
AcDbEntity
  8
Sichtbare Kanten(DIN)
100
AcDbSpline
210
0.0
220
0.0
230
1.0
 70
     8
 71
     3
 72
    10
 73
     6
 74
     0
 42
0.0000000001
 43
0.0000000001
 40
0.0
 40
0.0
 40
0.0
 40
0.0
 40
0.0522363853713536
 40
0.0522363853713536
 40
0.1044727707436154
 40
0.1044727707436154
 40
0.1044727707436154
 40
0.1044727707436154
 10
244.3618132988988
 20
285.6402697844978
 30
0.0
 10
244.2983867801499
 20
285.8024280357838
 30
0.0
 10
244.2351100400288
 20
285.964202313598
 30
0.0
 10
244.1082571394765
 20
286.2824076511988
 30
0.0
 10
244.044980399354
 20
286.4380851807301
 30
0.0
 10
243.9815538806042
 20
286.588136152001
 30
0.0
  0
LINE
  5
187
330
6C
100
AcDbEntity
  8
Sichtbare Kanten(DIN)
100
AcDbLine
 10
283.2844837727055
 20
285.6402697844716
 30
0.0
 11
283.2844837727058
 21
288.1402697844712
 31
0.0
  0
LINE
  5
188
330
6C
100
AcDbEntity
  8
Sichtbare Kanten(DIN)
100
AcDbLine
 10
224.0344837727027
 20
288.1402697845116
 30
0.0
 11
224.0344837727017
 21
285.7170864337338
 31
0.0
  0
LINE
  5
189
330
6C
100
AcDbEntity
  8
Sichtbare Kanten(DIN)
100
AcDbLine
 10
219.2133515028201
 20
285.7555128972324
 30
0.0
 11
219.2133515028201
 21
285.7171227217863
 31
0.0
  0
LINE
  5
18A
330
6C
100
AcDbEntity
  8
Sichtbare Kanten(DIN)
100
AcDbLine
 10
249.4071542465162
 20
285.6402697844944
 30
0.0
 11
248.2844837727029
 21
281.3348819481468
 31
0.0
  0
LINE
  5
18B
330
6C
100
AcDbEntity
  8
Sichtbare Kanten(DIN)
100
AcDbLine
 10
245.6094837727079
 20
280.8555128972319
 30
0.0
 11
244.3618132988988
 21
285.6402697844978
 31
0.0
  0
LINE
  5
18C
330
6C
100
AcDbEntity
  8
Sichtbare Kanten(DIN)
100
AcDbLine
 10
245.7844837727029
 20
276.855512897232
 30
0.0
 11
245.6094837727079
 21
276.855512897232
 31
0.0
  0
LINE
  5
18D
330
6C
100
AcDbEntity
  8
Sichtbare Kanten(DIN)
100
AcDbLine
 10
245.6094837727079
 20
276.855512897232
 30
0.0
 11
245.6094837727079
 21
280.8555128972319
 31
0.0
  0
LINE
  5
18E
330
6C
100
AcDbEntity
  8
Sichtbare Kanten(DIN)
100
AcDbLine
 10
214.2133515028194
 20
285.7555128972324
 30
0.0
 11
214.2323780123605
 21
285.7555128972324
 31
0.0
  0
LINE
  5
18F
330
6C
100
AcDbEntity
  8
Sichtbare Kanten(DIN)
100
AcDbLine
 10
214.23237801236
 20
236.7555128972327
 30
0.0
 11
214.2133515028189
 21
236.7555128972327
 31
0.0
  0
LINE
  5
190
330
6C
100
AcDbEntity
  8
Sichtbare Kanten(DIN)
100
AcDbLine
 10
219.2133515028201
 20
285.7555128972324
 30
0.0
 11
217.8917219516597
 21
285.7555128972324
 31
0.0
  0
LINE
  5
191
330
6C
100
AcDbEntity
  8
Sichtbare Kanten(DIN)
100
AcDbLine
 10
217.8917219516592
 20
236.7555128972327
 30
0.0
 11
219.2133515028196
 21
236.7555128972327
 31
0.0
  0
LINE
  5
192
330
6C
100
AcDbEntity
  8
Sichtbare Kanten(DIN)
100
AcDbLine
 10
214.2133515028194
 20
285.7555128972326
 30
0.0
 11
214.2133515028189
 21
236.7555128972333
 31
0.0
  0
ELLIPSE
  5
193
330
6C
100
AcDbEntity
  8
Sichtbare Kanten(DIN)
100
AcDbEllipse
 10
217.8917219516549
 20
270.7555128972323
 30
0.0
 11
0.0000000000001567
 21
14.99999999999985
 31
0.0
210
0.0
220
0.0
230
1.0
 40
0.087155742747372
 41
4.712388980384666
 42
6.283185307181143
  0
ELLIPSE
  5
194
330
6C
100
AcDbEntity
  8
Sichtbare Kanten(DIN)
100
AcDbEllipse
 10
217.8917219516546
 20
251.7555128972324
 30
0.0
 11
-0.0000000000001552
 21
-14.99999999999985
 31
0.0
210
0.0
220
0.0
230
1.0
 40
0.087155742747372
 41
0.0000000000028144
 42
1.57079632679629
  0
ELLIPSE
  5
195
330
6C
100
AcDbEntity
  8
Sichtbare Kanten(DIN)
100
AcDbEllipse
 10
215.4012352064253
 20
251.7555128972325
 30
0.0
 11
-0.0000000000001505
 21
-14.99999999999987
 31
0.0
210
0.0
220
0.0
230
1.0
 40
0.087155742747372
 41
0.0
 42
1.570796326794883
  0
ELLIPSE
  5
196
330
6C
100
AcDbEntity
  8
Sichtbare Kanten(DIN)
100
AcDbEllipse
 10
215.4012352064254
 20
270.7555128972324
 30
0.0
 11
0.0000000000001505
 21
14.99999999999985
 31
0.0
210
0.0
220
0.0
230
1.0
 40
0.087155742747372
 41
4.712388980385611
 42
6.283185307181443
  0
LINE
  5
197
330
6C
100
AcDbEntity
  8
Sichtbare Kanten(DIN)
100
AcDbLine
 10
215.4012352064251
 20
236.7555128972326
 30
0.0
 11
217.8917219516545
 21
236.7555128972326
 31
0.0
  0
LINE
  5
198
330
6C
100
AcDbEntity
  8
Sichtbare Kanten(DIN)
100
AcDbLine
 10
217.891721951655
 20
285.7555128972322
 30
0.0
 11
215.4012352064256
 21
285.7555128972322
 31
0.0
  0
LINE
  5
199
330
6C
100
AcDbEntity
  8
Sichtbare Kanten(DIN)
100
AcDbLine
 10
219.1990580928652
 20
251.7555128972323
 30
0.0
 11
219.1990580928654
 21
270.7555128972322
 31
0.0
  0
LINE
  5
19A
330
6C
100
AcDbEntity
  8
Sichtbare Kanten(DIN)
100
AcDbLine
 10
215.4012352064251
 20
236.7555128972326
 30
0.0
 11
214.23237801236
 21
236.7555128972327
 31
0.0
  0
LINE
  5
19B
330
6C
100
AcDbEntity
  8
Sichtbare Kanten(DIN)
100
AcDbLine
 10
216.708571347636
 20
270.7555128972322
 30
0.0
 11
216.7085713476358
 21
251.7555128972323
 31
0.0
  0
LINE
  5
19C
330
6C
100
AcDbEntity
  8
Sichtbare Kanten(DIN)
100
AcDbLine
 10
215.4012352064256
 20
285.7555128972322
 30
0.0
 11
214.2323780123605
 21
285.7555128972324
 31
0.0
  0
LINE
  5
19D
330
6C
100
AcDbEntity
  8
Sichtbare Kanten(DIN)
100
AcDbLine
 10
241.5844837727027
 20
50.25551289723382
 30
0.0
 11
241.5844837727028
 21
71.25551289723367
 31
0.0
  0
LINE
  5
19E
330
6C
100
AcDbEntity
  8
Sichtbare Kanten(DIN)
100
AcDbLine
 10
241.5844837727031
 20
84.25551289723358
 30
0.0
 11
241.5844837727035
 21
121.2555128972333
 31
0.0
  0
LINE
  5
19F
330
6C
100
AcDbEntity
  8
Sichtbare Kanten(DIN)
100
AcDbLine
 10
241.5844837727044
 20
193.2555128972327
 30
0.0
 11
241.5844837727048
 21
224.7555128972325
 31
0.0
  0
LINE
  5
1A0
330
6C
100
AcDbEntity
  8
Sichtbare Kanten(DIN)
100
AcDbLine
 10
241.5844837727037
 20
134.2555128972332
 30
0.0
 11
241.5844837727042
 21
180.2555128972329
 31
0.0
  0
LINE
  5
1A1
330
6C
100
AcDbEntity
  8
Sichtbare Kanten(DIN)
100
AcDbLine
 10
283.839240659965
 20
284.5555128972314
 30
0.0
 11
283.2844837726999
 21
284.5555128972314
 31
0.0
  0
LINE
  5
1A2
330
6C
100
AcDbEntity
  8
Sichtbare Kanten(DIN)
100
AcDbLine
 10
248.284483772705
 20
236.7555128972323
 30
0.0
 11
219.2133515028195
 21
236.7555128972327
 31
0.0
  0
LINE
  5
1A3
330
6C
100
AcDbEntity
  8
Sichtbare Kanten(DIN)
100
AcDbLine
 10
283.8392406599622
 20
50.25551289723324
 30
0.0
 11
241.5844837727027
 21
50.25551289723381
 31
0.0
  0
LINE
  5
1A4
330
6C
100
AcDbEntity
  8
Sichtbare Kanten(DIN)
100
AcDbLine
 10
283.2844837726999
 20
284.5555128972314
 30
0.0
 11
283.2844837727055
 21
285.6402697844714
 31
0.0
  0
LINE
  5
1A5
330
6C
100
AcDbEntity
  8
Sichtbare Kanten(DIN)
100
AcDbLine
 10
229.0344837726966
 20
288.1402697845081
 30
0.0
 11
278.2844837727263
 21
288.1402697844746
 31
0.0
  0
LINE
  5
1A6
330
6C
100
AcDbEntity
  8
Sichtbare Kanten(DIN)
100
AcDbLine
 10
278.284483772728
 20
290.6402697844746
 30
0.0
 11
229.0344837726983
 21
290.6402697845081
 31
0.0
  0
ELLIPSE
  5
1A7
330
6C
100
AcDbEntity
  8
Sichtbare Kanten(DIN)
100
AcDbEllipse
 10
215.2094925723815
 20
254.7555128972326
 30
0.0
 11
-0.0000000000000697
 21
-6.499999999999971
 31
0.0
210
0.0
220
0.0
230
1.0
 40
0.087155742747372
 41
4.712388980384657
 42
7.85398163397445
  0
LINE
  5
1A8
330
6C
100
AcDbEntity
  8
Sichtbare Kanten(DIN)
100
AcDbLine
 10
214.6429802445236
 20
254.7555128972328
 30
0.0
 11
214.6429802445238
 21
267.7555128972325
 31
0.0
  0
ELLIPSE
  5
1A9
330
6C
100
AcDbEntity
  8
Sichtbare Kanten(DIN)
100
AcDbEllipse
 10
215.2094925723816
 20
267.7555128972324
 30
0.0
 11
0.0000000000000697
 21
6.499999999999953
 31
0.0
210
0.0
220
0.0
230
1.0
 40
0.087155742747372
 41
4.712388980384657
 42
7.85398163397445
  0
LINE
  5
1AA
330
6C
100
AcDbEntity
  8
Sichtbare Kanten(DIN)
100
AcDbLine
 10
215.7760049002396
 20
267.7555128972323
 30
0.0
 11
215.7760049002394
 21
254.7555128972324
 31
0.0
  0
LINE
  5
1AB
330
6C
100
AcDbEntity
  8
Sichtbare Kanten(DIN)
100
AcDbLine
 10
288.8392406599642
 20
95.45551289723286
 30
0.0
 11
283.8392406599627
 21
95.45551289723292
 31
0.0
  0
LINE
  5
1AC
330
6C
100
AcDbEntity
  8
Sichtbare Kanten(DIN)
100
AcDbLine
 10
283.8392406599644
 20
240.6555128972318
 30
0.0
 11
288.8392406599659
 21
240.6555128972318
 31
0.0
  0
LINE
  5
1AD
330
6C
100
AcDbEntity
  8
Sichtbare Kanten(DIN)
100
AcDbLine
 10
288.8392406599659
 20
240.6555128972318
 30
0.0
 11
288.8392406599642
 21
95.4555128972329
 31
0.0
  0
LINE
  5
1AE
330
6C
100
AcDbEntity
  8
Sichtbare Kanten(DIN)
100
AcDbLine
 10
288.8392406599664
 20
285.8555128972314
 30
0.0
 11
288.839240659966
 21
254.0555128972317
 31
0.0
  0
LINE
  5
1AF
330
6C
100
AcDbEntity
  8
Sichtbare Kanten(DIN)
100
AcDbLine
 10
288.839240659966
 20
254.0555128972319
 30
0.0
 11
283.8392406599646
 21
254.0555128972317
 31
0.0
  0
LINE
  5
1B0
330
6C
100
AcDbEntity
  8
Sichtbare Kanten(DIN)
100
AcDbLine
 10
285.0786879272313
 20
285.8555128972318
 30
0.0
 11
286.3181351944961
 21
285.8555128972319
 31
0.0
  0
LINE
  5
1B1
330
6C
100
AcDbEntity
  8
Sichtbare Kanten(DIN)
100
AcDbLine
 10
286.3181351944962
 20
285.8555128972314
 30
0.0
 11
288.8392406599664
 21
285.8555128972314
 31
0.0
  0
LINE
  5
1B2
330
6C
100
AcDbEntity
  8
Sichtbare Kanten(DIN)
100
AcDbLine
 10
283.839240659965
 20
284.5555128972314
 30
0.0
 11
286.3181351944961
 21
284.5555128972314
 31
0.0
  0
LINE
  5
1B3
330
6C
100
AcDbEntity
  8
Sichtbare Kanten(DIN)
100
AcDbLine
 10
283.8392406599626
 20
82.05551289723301
 30
0.0
 11
288.8392406599639
 21
82.05551289723301
 31
0.0
  0
LINE
  5
1B4
330
6C
100
AcDbEntity
  8
Sichtbare Kanten(DIN)
100
AcDbLine
 10
288.8392406599636
 20
50.25551289723325
 30
0.0
 11
283.8392406599622
 21
50.25551289723325
 31
0.0
  0
LINE
  5
1B5
330
6C
100
AcDbEntity
  8
Sichtbare Kanten(DIN)
100
AcDbLine
 10
288.8392406599639
 20
82.05551289723301
 30
0.0
 11
288.8392406599636
 21
50.25551289723324
 31
0.0
  0
LINE
  5
1B6
330
6C
100
AcDbEntity
  8
Sichtbare Kanten(DIN)
100
AcDbLine
 10
286.3181351944961
 20
285.8555128972319
 30
0.0
 11
286.3181351944961
 21
284.5555128972314
 31
0.0
  0
LINE
  5
1B7
330
6C
100
AcDbEntity
  8
Sichtbare Kanten(DIN)
100
AcDbLine
 10
285.0786879272312
 20
284.5555128972316
 30
0.0
 11
285.0786879272312
 21
285.8555128972318
 31
0.0
  0
LINE
  5
1B8
330
6C
100
AcDbEntity
  8
Sichtbare Kanten(DIN)
100
AcDbLine
 10
266.0844837727032
 20
95.45551289723313
 30
0.0
 11
283.8392406599627
 21
95.45551289723292
 31
0.0
  0
LINE
  5
1B9
330
6C
100
AcDbEntity
  8
Sichtbare Kanten(DIN)
100
AcDbLine
 10
286.3392406599709
 20
82.05551289723306
 30
0.0
 11
286.3392406599709
 21
91.25551289723322
 31
0.0
  0
LINE
  5
1BA
330
6C
100
AcDbEntity
  8
Sichtbare Kanten(DIN)
100
AcDbLine
 10
288.8392406599709
 20
91.25551289723318
 30
0.0
 11
288.8392406599709
 21
82.05551289723304
 31
0.0
  0
LINE
  5
1BB
330
6C
100
AcDbEntity
  8
Sichtbare Kanten(DIN)
100
AcDbLine
 10
261.8844837727029
 20
75.65551289723337
 30
0.0
 11
261.8844837727031
 21
91.25551289723325
 31
0.0
  0
LINE
  5
1BC
330
6C
100
AcDbEntity
  8
Sichtbare Kanten(DIN)
100
AcDbLine
 10
268.6844837727029
 20
69.05551289723333
 30
0.0
 11
268.4844837727029
 21
69.05551289723333
 31
0.0
  0
LINE
  5
1BD
330
6C
100
AcDbEntity
  8
Sichtbare Kanten(DIN)
100
AcDbLine
 10
275.284483772703
 20
80.05551289723316
 30
0.0
 11
275.284483772703
 21
75.65551289723322
 31
0.0
  0
LINE
  5
1BE
330
6C
100
AcDbEntity
  8
Sichtbare Kanten(DIN)
100
AcDbLine
 10
283.8392406599626
 20
82.05551289723301
 30
0.0
 11
277.284483772703
 21
82.05551289723308
 31
0.0
  0
LINE
  5
1BF
330
6C
100
AcDbEntity
  8
Sichtbare Kanten(DIN)
100
AcDbLine
 10
283.8392406599644
 20
240.6555128972318
 30
0.0
 11
277.0844837727022
 21
240.6555128972319
 31
0.0
  0
LINE
  5
1C0
330
6C
100
AcDbEntity
  8
Sichtbare Kanten(DIN)
100
AcDbLine
 10
286.3392406599728
 20
247.255512897232
 30
0.0
 11
286.3392406599729
 21
254.0555128972318
 31
0.0
  0
LINE
  5
1C1
330
6C
100
AcDbEntity
  8
Sichtbare Kanten(DIN)
100
AcDbLine
 10
288.8392406599729
 20
254.0555128972317
 30
0.0
 11
288.8392406599728
 21
247.255512897232
 31
0.0
  0
LINE
  5
1C2
330
6C
100
AcDbEntity
  8
Sichtbare Kanten(DIN)
100
AcDbLine
 10
265.8844837727023
 20
254.0555128972319
 30
0.0
 11
283.8392406599646
 21
254.0555128972317
 31
0.0
  0
LINE
  5
1C3
330
6C
100
AcDbEntity
  8
Sichtbare Kanten(DIN)
100
AcDbLine
 10
261.6844837727021
 20
234.2555128972321
 30
0.0
 11
261.6844837727023
 21
249.855512897232
 31
0.0
  0
LINE
  5
1C4
330
6C
100
AcDbEntity
  8
Sichtbare Kanten(DIN)
100
AcDbLine
 10
268.484483772702
 20
227.655512897232
 30
0.0
 11
268.284483772702
 21
227.655512897232
 31
0.0
  0
LINE
  5
1C5
330
6C
100
AcDbEntity
  8
Sichtbare Kanten(DIN)
100
AcDbLine
 10
275.0844837727022
 20
238.655512897232
 30
0.0
 11
275.0844837727021
 21
234.255512897232
 31
0.0
  0
LINE
  5
1C6
330
6C
100
AcDbEntity
  8
Sichtbare Kanten(DIN)
100
AcDbLine
 10
286.3392406599728
 20
247.255512897232
 30
0.0
 11
286.3392406599707
 21
240.655512897232
 31
0.0
  0
LINE
  5
1C7
330
6C
100
AcDbEntity
  8
Sichtbare Kanten(DIN)
100
AcDbLine
 10
288.8392406599708
 20
240.6555128972319
 30
0.0
 11
288.8392406599728
 21
247.255512897232
 31
0.0
  0
ARC
  5
1C8
330
6C
100
AcDbEntity
  8
Sichtbare Kanten(DIN)
100
AcDbCircle
 10
268.4844837727029
 20
75.65551289723328
 30
0.0
 40
6.599999999999985
100
AcDbArc
 50
180.0
 51
269.9999999999994
  0
ARC
  5
1C9
330
6C
100
AcDbEntity
  8
Sichtbare Kanten(DIN)
100
AcDbCircle
 10
268.6844837727029
 20
75.65551289723329
 30
0.0
 40
6.6
100
AcDbArc
 50
270.0
 51
0.0
  0
ARC
  5
1CA
330
6C
100
AcDbEntity
  8
Sichtbare Kanten(DIN)
100
AcDbCircle
 10
268.2844837727022
 20
234.2555128972321
 30
0.0
 40
6.600000000000037
100
AcDbArc
 50
180.0
 51
269.9999999999988
  0
ARC
  5
1CB
330
6C
100
AcDbEntity
  8
Sichtbare Kanten(DIN)
100
AcDbCircle
 10
268.4844837727021
 20
234.2555128972321
 30
0.0
 40
6.599999999999987
100
AcDbArc
 50
269.9999999999994
 51
0.0
  0
LINE
  5
1CC
330
6C
100
AcDbEntity
  8
Sichtbare Kanten(DIN)
100
AcDbLine
 10
286.3392406599698
 20
95.45551289723315
 30
0.0
 11
286.3392406599709
 21
91.25551289723324
 31
0.0
  0
LINE
  5
1CD
330
6C
100
AcDbEntity
  8
Sichtbare Kanten(DIN)
100
AcDbLine
 10
288.8392406599709
 20
91.2555128972332
 30
0.0
 11
288.8392406599698
 21
95.45551289723313
 31
0.0
  0
ARC
  5
1CE
330
6C
100
AcDbEntity
  8
Sichtbare Kanten(DIN)
100
AcDbCircle
 10
265.8844837727023
 20
249.855512897232
 30
0.0
 40
4.199999999999938
100
AcDbArc
 50
89.99999999999856
 51
180.0
  0
ARC
  5
1CF
330
6C
100
AcDbEntity
  8
Sichtbare Kanten(DIN)
100
AcDbCircle
 10
266.0844837727032
 20
91.25551289723317
 30
0.0
 40
4.200000000000007
100
AcDbArc
 50
89.99999999999952
 51
180.0
  0
ARC
  5
1D0
330
6C
100
AcDbEntity
  8
Sichtbare Kanten(DIN)
100
AcDbCircle
 10
277.0844837727021
 20
238.6555128972319
 30
0.0
 40
1.999999999999986
100
AcDbArc
 50
89.99999999999797
 51
180.0
  0
ARC
  5
1D1
330
6C
100
AcDbEntity
  8
Sichtbare Kanten(DIN)
100
AcDbCircle
 10
277.284483772703
 20
80.05551289723312
 30
0.0
 40
1.999999999999984
100
AcDbArc
 50
90.0
 51
180.0
  0
LINE
  5
1D2
330
6C
100
AcDbEntity
  8
Sichtbare Kanten(DIN)
100
AcDbLine
 10
248.2844837727031
 20
83.2555128972335
 30
0.0
 11
248.2844837727031
 21
66.65551289723234
 31
0.0
  0
LINE
  5
1D3
330
6C
100
AcDbEntity
  8
Sichtbare Kanten(DIN)
100
AcDbLine
 10
245.784483772703
 20
61.75551289723371
 30
0.0
 11
245.4344837727028
 21
61.75551289723371
 31
0.0
  0
LINE
  5
1D4
330
6C
100
AcDbEntity
  8
Sichtbare Kanten(DIN)
100
AcDbLine
 10
245.4344837727028
 20
61.75551289723371
 30
0.0
 11
245.4344837727029
 21
67.25551289723369
 31
0.0
  0
LINE
  5
1D5
330
6C
100
AcDbEntity
  8
Sichtbare Kanten(DIN)
100
AcDbLine
 10
245.4344837727029
 20
67.25551289723369
 30
0.0
 11
245.5844837727028
 21
67.25551289723364
 31
0.0
  0
LINE
  5
1D6
330
6C
100
AcDbEntity
  8
Sichtbare Kanten(DIN)
100
AcDbLine
 10
245.5844837727028
 20
67.25551289723364
 30
0.0
 11
245.4217748123671
 21
70.36018480971953
 31
0.0
  0
ARC
  5
1D7
330
6C
100
AcDbEntity
  8
Sichtbare Kanten(DIN)
100
AcDbCircle
 10
243.424515742858
 20
70.25551289723363
 30
0.0
 40
2.000000000000018
100
AcDbArc
 50
2.999999999999436
 51
89.99999999999797
  0
LINE
  5
1D8
330
6C
100
AcDbEntity
  8
Sichtbare Kanten(DIN)
100
AcDbLine
 10
243.424515742858
 20
72.25551289723362
 30
0.0
 11
242.5844837727028
 21
72.25551289723362
 31
0.0
  0
ARC
  5
1D9
330
6C
100
AcDbEntity
  8
Sichtbare Kanten(DIN)
100
AcDbCircle
 10
242.5844837727028
 20
71.25551289723367
 30
0.0
 40
0.9999999999999856
100
AcDbArc
 50
89.99999999999797
 51
180.0
  0
ARC
  5
1DA
330
6C
100
AcDbEntity
  8
Sichtbare Kanten(DIN)
100
AcDbCircle
 10
242.5844837727031
 20
84.25551289723356
 30
0.0
 40
0.9999999999999847
100
AcDbArc
 50
180.0
 51
270.0
  0
LINE
  5
1DB
330
6C
100
AcDbEntity
  8
Sichtbare Kanten(DIN)
100
AcDbLine
 10
242.5844837727031
 20
83.25551289723357
 30
0.0
 11
248.2844837727031
 21
83.2555128972335
 31
0.0
  0
LINE
  5
1DC
330
6C
100
AcDbEntity
  8
Sichtbare Kanten(DIN)
100
AcDbLine
 10
248.2844837727037
 20
133.2555128972331
 30
0.0
 11
248.2844837727037
 21
116.6555128972319
 31
0.0
  0
LINE
  5
1DD
330
6C
100
AcDbEntity
  8
Sichtbare Kanten(DIN)
100
AcDbLine
 10
245.784483772703
 20
111.7555128972333
 30
0.0
 11
245.4344837727035
 21
111.7555128972333
 31
0.0
  0
LINE
  5
1DE
330
6C
100
AcDbEntity
  8
Sichtbare Kanten(DIN)
100
AcDbLine
 10
245.4344837727035
 20
111.7555128972333
 30
0.0
 11
245.4344837727035
 21
117.2555128972333
 31
0.0
  0
LINE
  5
1DF
330
6C
100
AcDbEntity
  8
Sichtbare Kanten(DIN)
100
AcDbLine
 10
245.4344837727035
 20
117.2555128972333
 30
0.0
 11
245.5844837727035
 21
117.2555128972333
 31
0.0
  0
LINE
  5
1E0
330
6C
100
AcDbEntity
  8
Sichtbare Kanten(DIN)
100
AcDbLine
 10
245.5844837727035
 20
117.2555128972333
 30
0.0
 11
245.4217748123677
 21
120.3601848097191
 31
0.0
  0
ARC
  5
1E1
330
6C
100
AcDbEntity
  8
Sichtbare Kanten(DIN)
100
AcDbCircle
 10
243.4245157428586
 20
120.2555128972332
 30
0.0
 40
2.000000000000025
100
AcDbArc
 50
2.999999999999801
 51
89.99999999999898
  0
LINE
  5
1E2
330
6C
100
AcDbEntity
  8
Sichtbare Kanten(DIN)
100
AcDbLine
 10
243.4245157428586
 20
122.2555128972332
 30
0.0
 11
242.5844837727035
 21
122.2555128972332
 31
0.0
  0
ARC
  5
1E3
330
6C
100
AcDbEntity
  8
Sichtbare Kanten(DIN)
100
AcDbCircle
 10
242.5844837727035
 20
121.2555128972332
 30
0.0
 40
1.000000000000003
100
AcDbArc
 50
90.0
 51
180.0
  0
ARC
  5
1E4
330
6C
100
AcDbEntity
  8
Sichtbare Kanten(DIN)
100
AcDbCircle
 10
242.5844837727037
 20
134.2555128972332
 30
0.0
 40
1.000000000000017
100
AcDbArc
 50
180.0
 51
269.999999999998
  0
LINE
  5
1E5
330
6C
100
AcDbEntity
  8
Sichtbare Kanten(DIN)
100
AcDbLine
 10
242.5844837727037
 20
133.2555128972332
 30
0.0
 11
248.2844837727037
 21
133.2555128972331
 31
0.0
  0
LINE
  5
1E6
330
6C
100
AcDbEntity
  8
Sichtbare Kanten(DIN)
100
AcDbLine
 10
248.2844837727044
 20
192.2555128972327
 30
0.0
 11
248.2844837727044
 21
175.6555128972315
 31
0.0
  0
LINE
  5
1E7
330
6C
100
AcDbEntity
  8
Sichtbare Kanten(DIN)
100
AcDbLine
 10
245.784483772703
 20
170.7555128972328
 30
0.0
 11
245.4344837727041
 21
170.7555128972328
 31
0.0
  0
LINE
  5
1E8
330
6C
100
AcDbEntity
  8
Sichtbare Kanten(DIN)
100
AcDbLine
 10
245.4344837727041
 20
170.7555128972328
 30
0.0
 11
245.4344837727043
 21
176.2555128972328
 31
0.0
  0
LINE
  5
1E9
330
6C
100
AcDbEntity
  8
Sichtbare Kanten(DIN)
100
AcDbLine
 10
245.4344837727042
 20
176.2555128972328
 30
0.0
 11
245.5844837727042
 21
176.2555128972328
 31
0.0
  0
LINE
  5
1EA
330
6C
100
AcDbEntity
  8
Sichtbare Kanten(DIN)
100
AcDbLine
 10
245.5844837727042
 20
176.2555128972328
 30
0.0
 11
245.4217748123685
 21
179.3601848097187
 31
0.0
  0
ARC
  5
1EB
330
6C
100
AcDbEntity
  8
Sichtbare Kanten(DIN)
100
AcDbCircle
 10
243.4245157428593
 20
179.2555128972328
 30
0.0
 40
1.999999999999999
100
AcDbArc
 50
2.999999999999436
 51
90.0
  0
LINE
  5
1EC
330
6C
100
AcDbEntity
  8
Sichtbare Kanten(DIN)
100
AcDbLine
 10
243.4245157428593
 20
181.2555128972328
 30
0.0
 11
242.5844837727042
 21
181.2555128972328
 31
0.0
  0
ARC
  5
1ED
330
6C
100
AcDbEntity
  8
Sichtbare Kanten(DIN)
100
AcDbCircle
 10
242.5844837727042
 20
180.2555128972328
 30
0.0
 40
1.000000000000011
100
AcDbArc
 50
90.0
 51
180.0
  0
ARC
  5
1EE
330
6C
100
AcDbEntity
  8
Sichtbare Kanten(DIN)
100
AcDbCircle
 10
242.5844837727044
 20
193.2555128972328
 30
0.0
 40
0.9999999999999996
100
AcDbArc
 50
180.0
 51
270.0
  0
LINE
  5
1EF
330
6C
100
AcDbEntity
  8
Sichtbare Kanten(DIN)
100
AcDbLine
 10
242.5844837727044
 20
192.2555128972327
 30
0.0
 11
248.2844837727044
 21
192.2555128972327
 31
0.0
  0
LINE
  5
1F0
330
6C
100
AcDbEntity
  8
Sichtbare Kanten(DIN)
100
AcDbLine
 10
248.284483772705
 20
236.7555128972323
 30
0.0
 11
248.284483772705
 21
220.1555128972311
 31
0.0
  0
LINE
  5
1F1
330
6C
100
AcDbEntity
  8
Sichtbare Kanten(DIN)
100
AcDbLine
 10
245.7844837727029
 20
215.2555128972325
 30
0.0
 11
245.4344837727047
 21
215.2555128972325
 31
0.0
  0
LINE
  5
1F2
330
6C
100
AcDbEntity
  8
Sichtbare Kanten(DIN)
100
AcDbLine
 10
245.4344837727047
 20
215.2555128972325
 30
0.0
 11
245.4344837727048
 21
220.7555128972325
 31
0.0
  0
LINE
  5
1F3
330
6C
100
AcDbEntity
  8
Sichtbare Kanten(DIN)
100
AcDbLine
 10
245.4344837727048
 20
220.7555128972325
 30
0.0
 11
245.5844837727048
 21
220.7555128972325
 31
0.0
  0
LINE
  5
1F4
330
6C
100
AcDbEntity
  8
Sichtbare Kanten(DIN)
100
AcDbLine
 10
245.5844837727048
 20
220.7555128972325
 30
0.0
 11
245.421774812369
 21
223.8601848097184
 31
0.0
  0
ARC
  5
1F5
330
6C
100
AcDbEntity
  8
Sichtbare Kanten(DIN)
100
AcDbCircle
 10
243.4245157428599
 20
223.7555128972326
 30
0.0
 40
1.999999999999988
100
AcDbArc
 50
2.999999999998342
 51
89.99999999999898
  0
LINE
  5
1F6
330
6C
100
AcDbEntity
  8
Sichtbare Kanten(DIN)
100
AcDbLine
 10
243.4245157428599
 20
225.7555128972325
 30
0.0
 11
242.5844837727047
 21
225.7555128972325
 31
0.0
  0
ARC
  5
1F7
330
6C
100
AcDbEntity
  8
Sichtbare Kanten(DIN)
100
AcDbCircle
 10
242.5844837727047
 20
224.7555128972326
 30
0.0
 40
0.999999999999941
100
AcDbArc
 50
89.99999999999797
 51
180.0
  0
LINE
  5
1F8
330
6C
100
AcDbEntity
  8
Sichtbare Kanten(DIN)
100
AcDbLine
 10
229.0344837726966
 20
288.1402697845081
 30
0.0
 11
224.0344837727013
 21
288.1402697845116
 31
0.0
  0
LINE
  5
1F9
330
6C
100
AcDbEntity
  8
Sichtbare Kanten(DIN)
100
AcDbLine
 10
224.0344837727031
 20
290.6402697845115
 30
0.0
 11
229.0344837726983
 21
290.6402697845081
 31
0.0
  0
LINE
  5
1FA
330
6C
100
AcDbEntity
  8
Sichtbare Kanten(DIN)
100
AcDbLine
 10
224.0344837727031
 20
290.6402697845115
 30
0.0
 11
224.0344837727014
 21
288.1402697845114
 31
0.0
  0
LINE
  5
1FB
330
6C
100
AcDbEntity
  8
Sichtbare Kanten(DIN)
100
AcDbLine
 10
278.284483772728
 20
290.6402697844746
 30
0.0
 11
283.2844837727328
 21
290.6402697844712
 31
0.0
  0
LINE
  5
1FC
330
6C
100
AcDbEntity
  8
Sichtbare Kanten(DIN)
100
AcDbLine
 10
283.2844837727311
 20
288.1402697844713
 30
0.0
 11
278.2844837727263
 21
288.1402697844746
 31
0.0
  0
LINE
  5
1FD
330
6C
100
AcDbEntity
  8
Sichtbare Kanten(DIN)
100
AcDbLine
 10
283.2844837727013
 20
288.1402697844712
 30
0.0
 11
283.284483772703
 21
290.6402697844712
 31
0.0
  0
LINE
  5
1FE
330
6C
100
AcDbEntity
  8
Sichtbare Kanten(DIN)
100
AcDbLine
 10
92.72085126464478
 20
-88.81694781754857
 30
0.0
 11
92.7208512646448
 21
-91.31694781754852
 31
0.0
  0
LINE
  5
1FF
330
6C
100
AcDbEntity
  8
Sichtbare Kanten(DIN)
100
AcDbLine
 10
86.72085126464478
 20
-88.81694781754857
 30
0.0
 11
92.72085126464478
 21
-88.81694781754854
 31
0.0
  0
LINE
  5
200
330
6C
100
AcDbEntity
  8
Sichtbare Kanten(DIN)
100
AcDbLine
 10
86.7208512646448
 20
-91.31694781754857
 30
0.0
 11
86.72085126464478
 21
-88.81694781754857
 31
0.0
  0
LINE
  5
201
330
6C
100
AcDbEntity
  8
Sichtbare Kanten(DIN)
100
AcDbLine
 10
92.72085126464482
 20
-91.31694781754854
 30
0.0
 11
86.7208512646448
 21
-91.31694781754857
 31
0.0
  0
LINE
  5
202
330
6C
100
AcDbEntity
  8
Sichtbare Kanten(DIN)
100
AcDbLine
 10
86.7208512646448
 20
-91.31694781754857
 30
0.0
 11
67.06663382754221
 21
-91.31694781754873
 31
0.0
  0
LINE
  5
203
330
6C
100
AcDbEntity
  8
Sichtbare Kanten(DIN)
100
AcDbLine
 10
113.4845824762679
 20
-91.31694781754838
 30
0.0
 11
92.7208512646448
 21
-91.31694781754852
 31
0.0
  0
LINE
  5
204
330
6C
100
AcDbEntity
  8
Sichtbare Kanten(DIN)
100
AcDbLine
 10
86.72085126464478
 20
-88.81694781754857
 30
0.0
 11
66.88887188363421
 21
-88.81694781754875
 31
0.0
  0
LINE
  5
205
330
6C
100
AcDbEntity
  8
Sichtbare Kanten(DIN)
100
AcDbLine
 10
113.6623444201781
 20
-88.81694781754838
 30
0.0
 11
92.72085126464478
 21
-88.81694781754857
 31
0.0
  0
LINE
  5
206
330
6C
100
AcDbEntity
  8
Sichtbare Kanten(DIN)
100
AcDbLine
 10
108.720851264647
 20
-78.08219093035862
 30
0.0
 11
108.720851264647
 21
-86.31694781761808
 31
0.0
  0
LINE
  5
207
330
6C
100
AcDbEntity
  8
Sichtbare Kanten(DIN)
100
AcDbLine
 10
109.8303650391621
 20
-78.08219093035865
 30
0.0
 11
108.720851264647
 21
-78.08219093035862
 31
0.0
  0
LINE
  5
208
330
6C
100
AcDbEntity
  8
Sichtbare Kanten(DIN)
100
AcDbLine
 10
63.9708512646468
 20
-67.0850638070213
 30
0.0
 11
63.9708512646468
 21
-61.02743404309912
 31
0.0
  0
LINE
  5
209
330
6C
100
AcDbEntity
  8
Sichtbare Kanten(DIN)
100
AcDbLine
 10
115.4708512646469
 20
-61.02743404309912
 30
0.0
 11
115.4708512646469
 21
-67.06694781762035
 31
0.0
  0
LINE
  5
20A
330
6C
100
AcDbEntity
  8
Sichtbare Kanten(DIN)
100
AcDbLine
 10
115.470851264647
 20
-59.79230123775128
 30
0.0
 11
115.470851264647
 21
-61.02743404309915
 31
0.0
  0
LINE
  5
20B
330
6C
100
AcDbEntity
  8
Sichtbare Kanten(DIN)
100
AcDbLine
 10
115.4708512646469
 20
-56.02743404310064
 30
0.0
 11
115.4708512646469
 21
-57.28275164389334
 31
0.0
  0
LINE
  5
20C
330
6C
100
AcDbEntity
  8
Sichtbare Kanten(DIN)
100
AcDbLine
 10
63.9708512646468
 20
-56.02743404310063
 30
0.0
 11
115.4708512646469
 21
-56.02743404310064
 31
0.0
  0
LINE
  5
20D
330
6C
100
AcDbEntity
  8
Sichtbare Kanten(DIN)
100
AcDbLine
 10
63.97085126464678
 20
-57.37982152118938
 30
0.0
 11
63.9708512646468
 21
-56.02743404310063
 31
0.0
  0
LINE
  5
20E
330
6C
100
AcDbEntity
  8
Sichtbare Kanten(DIN)
100
AcDbLine
 10
63.97085126464678
 20
-61.02743404309913
 30
0.0
 11
63.97085126464678
 21
-59.88937111504732
 31
0.0
  0
LINE
  5
20F
330
6C
100
AcDbEntity
  8
Sichtbare Kanten(DIN)
100
AcDbLine
 10
108.720851264647
 20
-88.81694781761735
 30
0.0
 11
108.720851264647
 21
-86.3169478176181
 31
0.0
  0
ARC
  5
210
330
6C
100
AcDbEntity
  8
Sichtbare Kanten(DIN)
100
AcDbCircle
 10
121.1551219264228
 20
-81.31694781754852
 30
0.0
 40
2.999999999999998
100
AcDbArc
 50
89.99999999999898
 51
269.999999999999
  0
LINE
  5
211
330
6C
100
AcDbEntity
  8
Sichtbare Kanten(DIN)
100
AcDbLine
 10
121.1551219264227
 20
-84.31694781754851
 30
0.0
 11
121.1551219264231
 21
-121.3169478175484
 31
0.0
  0
LINE
  5
212
330
6C
100
AcDbEntity
  8
Sichtbare Kanten(DIN)
100
AcDbLine
 10
121.1551219264227
 20
-72.06694781754904
 30
0.0
 11
121.1551219264227
 21
-78.31694781754854
 31
0.0
  0
LINE
  5
213
330
6C
100
AcDbEntity
  8
Sichtbare Kanten(DIN)
100
AcDbLine
 10
114.8303650391636
 20
-126.3169478175485
 30
0.0
 11
116.1551219264235
 21
-126.3169478175484
 31
0.0
  0
LINE
  5
214
330
6C
100
AcDbEntity
  8
Sichtbare Kanten(DIN)
100
AcDbLine
 10
112.3303650391637
 20
-126.3169478175508
 30
0.0
 11
112.3303650391637
 21
-126.8717047048106
 31
0.0
  0
LINE
  5
215
330
6C
100
AcDbEntity
  8
Sichtbare Kanten(DIN)
100
AcDbLine
 10
128.4083532586987
 20
-60.92418599650485
 30
0.0
 11
115.0482543960322
 21
-59.75532880243605
 31
0.0
  0
LINE
  5
216
330
6C
100
AcDbEntity
  8
Sichtbare Kanten(DIN)
100
AcDbLine
 10
115.2661437529014
 20
-57.26484205720667
 30
0.0
 11
128.6262426155678
 21
-58.4336992512755
 31
0.0
  0
LINE
  5
217
330
6C
100
AcDbEntity
  8
Sichtbare Kanten(DIN)
100
AcDbLine
 10
70.72085126464516
 20
-126.3169478175459
 30
0.0
 11
70.72085126464516
 21
-126.871704704811
 31
0.0
  0
LINE
  5
218
330
6C
100
AcDbEntity
  8
Sichtbare Kanten(DIN)
100
AcDbLine
 10
65.50296190777547
 20
-59.75532880243647
 30
0.0
 11
52.14286304510935
 21
-60.92418599650546
 31
0.0
  0
LINE
  5
219
330
6C
100
AcDbEntity
  8
Sichtbare Kanten(DIN)
100
AcDbLine
 10
51.92497368824017
 20
-58.4336992512761
 30
0.0
 11
65.2850725509063
 21
-57.26484205720709
 31
0.0
  0
LINE
  5
21A
330
6C
100
AcDbEntity
  8
Sichtbare Kanten(DIN)
100
AcDbLine
 10
100.9756081519018
 20
-129.3717047048103
 30
0.0
 11
107.3303650391637
 21
-129.3717047048103
 31
0.0
  0
LINE
  5
21B
330
6C
100
AcDbEntity
  8
Sichtbare Kanten(DIN)
100
AcDbLine
 10
107.3303650391637
 20
-131.8717047048102
 30
0.0
 11
100.9756081519018
 21
-131.8717047048103
 31
0.0
  0
LINE
  5
21C
330
6C
100
AcDbEntity
  8
Sichtbare Kanten(DIN)
100
AcDbLine
 10
109.8303650391637
 20
-126.8717047048106
 30
0.0
 11
109.8303650391637
 21
-126.3169478175508
 31
0.0
  0
LINE
  5
21D
330
6C
100
AcDbEntity
  8
Sichtbare Kanten(DIN)
100
AcDbLine
 10
79.57560815190195
 20
-131.8717047048105
 30
0.0
 11
73.22085126464514
 21
-131.8717047048105
 31
0.0
  0
LINE
  5
21E
330
6C
100
AcDbEntity
  8
Sichtbare Kanten(DIN)
100
AcDbLine
 10
73.22085126464514
 20
-129.3717047048106
 30
0.0
 11
79.57560815190191
 21
-129.3717047048105
 31
0.0
  0
LINE
  5
21F
330
6C
100
AcDbEntity
  8
Sichtbare Kanten(DIN)
100
AcDbLine
 10
68.22085126464521
 20
-126.871704704811
 30
0.0
 11
68.22085126464518
 21
-126.316947817546
 31
0.0
  0
LINE
  5
220
330
6C
100
AcDbEntity
  8
Sichtbare Kanten(DIN)
100
AcDbLine
 10
64.39609437738721
 20
-126.3169478175483
 30
0.0
 11
65.72085126464521
 21
-126.3169478175492
 31
0.0
  0
LINE
  5
221
330
6C
100
AcDbEntity
  8
Sichtbare Kanten(DIN)
100
AcDbLine
 10
59.39609437736915
 20
-121.3169478175748
 30
0.0
 11
59.39609437740163
 21
-72.06694781754513
 31
0.0
  0
LINE
  5
222
330
6C
100
AcDbEntity
  8
Sichtbare Kanten(DIN)
100
AcDbLine
 10
65.72085126464465
 20
-67.06694781754932
 30
0.0
 11
64.39609437740492
 21
-67.06694781754845
 31
0.0
  0
LINE
  5
223
330
6C
100
AcDbEntity
  8
Sichtbare Kanten(DIN)
100
AcDbLine
 10
116.1551219264227
 20
-67.06694781754912
 30
0.0
 11
114.8303650391631
 21
-67.06694781754912
 31
0.0
  0
LINE
  5
224
330
6C
100
AcDbEntity
  8
Sichtbare Kanten(DIN)
100
AcDbLine
 10
112.3315454773699
 20
-62.24581554766536
 30
0.0
 11
112.3303650391631
 21
-62.24581554766536
 31
0.0
  0
LINE
  5
225
330
6C
100
AcDbEntity
  8
Sichtbare Kanten(DIN)
100
AcDbLine
 10
109.8316933130977
 20
-62.2458155476655
 30
0.0
 11
109.8327259155768
 21
-62.24581554766546
 31
0.0
  0
LINE
  5
226
330
6C
100
AcDbEntity
  8
Sichtbare Kanten(DIN)
100
AcDbLine
 10
111.0815456446141
 20
-62.24581554766533
 30
0.0
 11
109.8327259155768
 21
-62.2458155476653
 31
0.0
  0
SPLINE
  5
227
330
6C
100
AcDbEntity
  8
Sichtbare Kanten(DIN)
100
AcDbSpline
210
0.0
220
0.0
230
1.0
 70
     8
 71
     3
 72
    10
 73
     6
 74
     0
 42
0.0000000001
 43
0.0000000001
 40
0.0
 40
0.0
 40
0.0
 40
0.0
 40
0.0991381451582825
 40
0.0991381451582825
 40
0.1982762903239814
 40
0.1982762903239814
 40
0.1982762903239814
 40
0.1982762903239814
 10
110.2036818430295
 20
-92.81987770965663
 30
0.0
 10
110.0807183541633
 20
-92.75645116983049
 30
0.0
 10
109.9872444436551
 20
-92.69317444731306
 30
0.0
 10
109.8619194008251
 20
-92.56632155371368
 30
0.0
 10
109.8303650391634
 20
-92.50304483119165
 30
0.0
 10
109.8303650391634
 20
-92.43961829136082
 30
0.0
  0
LINE
  5
228
330
6C
100
AcDbEntity
  8
Sichtbare Kanten(DIN)
100
AcDbLine
 10
111.080359311957
 20
-92.43961829136081
 30
0.0
 11
112.2293018987528
 21
-92.43961829136081
 31
0.0
  0
LINE
  5
229
330
6C
100
AcDbEntity
  8
Sichtbare Kanten(DIN)
100
AcDbLine
 10
109.8303650391634
 20
-92.43961829136081
 30
0.0
 11
111.080359311957
 21
-92.43961829136081
 31
0.0
  0
LINE
  5
22A
330
6C
100
AcDbEntity
  8
Sichtbare Kanten(DIN)
100
AcDbLine
 10
109.8327259155768
 20
-67.06694781755055
 30
0.0
 11
109.8327259155768
 21
-62.2458155476653
 31
0.0
  0
LINE
  5
22B
330
6C
100
AcDbEntity
  8
Sichtbare Kanten(DIN)
100
AcDbLine
 10
112.3315454773699
 20
-62.24581554766536
 30
0.0
 11
112.33154547737
 21
-67.06694781755055
 31
0.0
  0
SPLINE
  5
22C
330
6C
100
AcDbEntity
  8
Sichtbare Kanten(DIN)
100
AcDbSpline
210
0.0
220
0.0
230
1.0
 70
     8
 71
     3
 72
    10
 73
     6
 74
     0
 42
0.0000000001
 43
0.0000000001
 40
0.0
 40
0.0
 40
0.0
 40
0.0
 40
0.0991381451581371
 40
0.0991381451581371
 40
0.1982762903235587
 40
0.1982762903235587
 40
0.1982762903235587
 40
0.1982762903235587
 10
109.8303650391634
 20
-87.39427734374572
 30
0.0
 10
109.8303650391634
 20
-87.33085080391937
 30
0.0
 10
109.8619194008203
 20
-87.26757408140205
 30
0.0
 10
109.9872444436408
 20
-87.14072118780238
 30
0.0
 10
110.0807183541534
 20
-87.07744446528042
 30
0.0
 10
110.2036818430285
 20
-87.01401792544931
 30
0.0
  0
LINE
  5
22D
330
6C
100
AcDbEntity
  8
Sichtbare Kanten(DIN)
100
AcDbLine
 10
111.0803593119461
 20
-87.3942773437457
 30
0.0
 11
109.8303650391634
 21
-87.39427734374572
 31
0.0
  0
LINE
  5
22E
330
6C
100
AcDbEntity
  8
Sichtbare Kanten(DIN)
100
AcDbLine
 10
112.2293018987525
 20
-87.3942773437457
 30
0.0
 11
111.0803593119461
 21
-87.39427734374572
 31
0.0
  0
SPLINE
  5
22F
330
6C
100
AcDbEntity
  8
Sichtbare Kanten(DIN)
100
AcDbSpline
210
0.0
220
0.0
230
1.0
 70
     8
 71
     3
 72
    34
 73
    30
 74
     0
 42
0.0000000001
 43
0.0000000001
 40
0.0
 40
0.0
 40
0.0
 40
0.0
 40
0.0648284199628826
 40
0.0648284199628826
 40
0.1942810935433459
 40
0.1942810935433459
 40
0.3430516683635264
 40
0.3430516683635264
 40
0.4872369157525741
 40
0.4872369157525741
 40
0.5858729980768712
 40
0.5858729980768712
 40
0.6914866567640345
 40
0.6914866567640345
 40
0.752837422847996
 40
0.752837422847996
 40
0.7860472972056562
 40
0.7860472972056562
 40
0.8384580921125104
 40
0.8384580921125104
 40
0.9129525703037696
 40
0.9129525703037696
 40
1.00125070044688
 40
1.00125070044688
 40
1.072652154328696
 40
1.072652154328696
 40
1.108328241931133
 40
1.108328241931133
 40
1.144254699355634
 40
1.144254699355634
 40
1.144254699355634
 40
1.144254699355634
 10
110.2036818430285
 20
-87.01401792544931
 30
0.0
 10
110.2841108061787
 20
-86.9728218265824
 30
0.0
 10
110.3771696644616
 20
-86.94464859122838
 30
0.0
 10
110.6975239350601
 20
-86.89980272559481
 30
0.0
 10
110.9597564907599
 20
-86.92196533591314
 30
0.0
 10
111.5995243362315
 20
-87.08409937128861
 30
0.0
 10
111.968963712901
 20
-87.23652718024306
 30
0.0
 10
112.6693572545776
 20
-87.65647598608218
 30
0.0
 10
112.9944020537272
 20
-87.91692274107479
 30
0.0
 10
113.4458321970828
 20
-88.44013011120301
 30
0.0
 10
113.6029779941373
 20
-88.67685900250865
 30
0.0
 10
113.8445501713904
 20
-89.21403821978618
 30
0.0
 10
113.9191335366946
 20
-89.51048587881949
 30
0.0
 10
113.9404808599305
 20
-89.99238403742067
 30
0.0
 10
113.9317041366694
 20
-90.24234918979033
 30
0.0
 10
113.8050144203105
 20
-90.69959673971261
 30
0.0
 10
113.7442853227916
 20
-90.85429065916006
 30
0.0
 10
113.5517347229344
 20
-91.23676258443754
 30
0.0
 10
113.4016800066499
 20
-91.45005707102505
 30
0.0
 10
112.988067866011
 20
-91.91575942867045
 30
0.0
 10
112.7090645727727
 20
-92.14127462055811
 30
0.0
 10
112.0799556879641
 20
-92.54160108623494
 30
0.0
 10
111.7343393042623
 20
-92.69480852342741
 30
0.0
 10
111.1577100347227
 20
-92.87105792075752
 30
0.0
 10
110.9209530539331
 20
-92.91196995308906
 30
0.0
 10
110.6128573502144
 20
-92.91880343450376
 30
0.0
 10
110.5185159039366
 20
-92.91190255058129
 30
0.0
 10
110.3470920492385
 20
-92.87977622520484
 30
0.0
 10
110.2708164546922
 20
-92.85426437822863
 30
0.0
 10
110.2036818430295
 20
-92.81987770965663
 30
0.0
  0
LINE
  5
230
330
6C
100
AcDbEntity
  8
Sichtbare Kanten(DIN)
100
AcDbLine
 10
109.8303650391637
 20
-126.3169478175504
 30
0.0
 11
109.8303650391634
 21
-92.43961829136082
 31
0.0
  0
LINE
  5
231
330
6C
100
AcDbEntity
  8
Sichtbare Kanten(DIN)
100
AcDbLine
 10
114.8303650391637
 20
-126.3169478175485
 30
0.0
 11
109.8303650391637
 21
-126.3169478175502
 31
0.0
  0
LINE
  5
232
330
6C
100
AcDbEntity
  8
Sichtbare Kanten(DIN)
100
AcDbLine
 10
109.8327259155768
 20
-67.06694781755071
 30
0.0
 11
114.8303650391631
 21
-67.06694781754913
 31
0.0
  0
LINE
  5
233
330
6C
100
AcDbEntity
  8
Sichtbare Kanten(DIN)
100
AcDbLine
 10
109.8303650391634
 20
-87.39427734374572
 30
0.0
 11
109.8303650391631
 21
-62.24581554766546
 31
0.0
  0
LINE
  5
234
330
6C
100
AcDbEntity
  8
Sichtbare Kanten(DIN)
100
AcDbLine
 10
109.8303650391631
 20
-62.2458155476654
 30
0.0
 11
109.8316933130977
 21
-62.24581554766533
 31
0.0
  0
LINE
  5
235
330
6C
100
AcDbEntity
  8
Sichtbare Kanten(DIN)
100
AcDbLine
 10
111.0815456446141
 20
-62.24581554766533
 30
0.0
 11
112.3303650391631
 21
-62.2458155476654
 31
0.0
  0
LINE
  5
236
330
6C
100
AcDbEntity
  8
Sichtbare Kanten(DIN)
100
AcDbLine
 10
112.3303650391633
 20
-87.45322579153782
 30
0.0
 11
112.3303650391634
 21
-88.64194781755465
 31
0.0
  0
LINE
  5
237
330
6C
100
AcDbEntity
  8
Sichtbare Kanten(DIN)
100
AcDbLine
 10
112.3303650391634
 20
-88.64194781755578
 30
0.0
 11
112.3303650391634
 21
-88.81694781755088
 31
0.0
  0
LINE
  5
238
330
6C
100
AcDbEntity
  8
Sichtbare Kanten(DIN)
100
AcDbLine
 10
112.3303650391634
 20
-91.31694781754953
 30
0.0
 11
112.3303650391634
 21
-92.3806698435689
 31
0.0
  0
LINE
  5
239
330
6C
100
AcDbEntity
  8
Sichtbare Kanten(DIN)
100
AcDbLine
 10
70.72085126464486
 20
-91.31694781754987
 30
0.0
 11
70.72085126464486
 21
-92.43961829136194
 31
0.0
  0
LINE
  5
23A
330
6C
100
AcDbEntity
  8
Sichtbare Kanten(DIN)
100
AcDbLine
 10
68.22085126464489
 20
-92.38066984356755
 30
0.0
 11
68.22085126464492
 21
-91.3169478175499
 31
0.0
  0
LINE
  5
23B
330
6C
100
AcDbEntity
  8
Sichtbare Kanten(DIN)
100
AcDbLine
 10
70.72085126464483
 20
-87.39427734374448
 30
0.0
 11
70.72085126464485
 21
-88.64194781755504
 31
0.0
  0
LINE
  5
23C
330
6C
100
AcDbEntity
  8
Sichtbare Kanten(DIN)
100
AcDbLine
 10
70.72085126464492
 20
-88.64194781755619
 30
0.0
 11
70.72085126464492
 21
-88.81694781755122
 31
0.0
  0
LINE
  5
23D
330
6C
100
AcDbEntity
  8
Sichtbare Kanten(DIN)
100
AcDbLine
 10
109.8303650391634
 20
-88.64194781755465
 30
0.0
 11
109.8303650391634
 21
-87.39427734374572
 31
0.0
  0
LINE
  5
23E
330
6C
100
AcDbEntity
  8
Sichtbare Kanten(DIN)
100
AcDbLine
 10
112.3303650391634
 20
-88.64194781755463
 30
0.0
 11
109.8303650391634
 21
-88.64194781755465
 31
0.0
  0
LINE
  5
23F
330
6C
100
AcDbEntity
  8
Sichtbare Kanten(DIN)
100
AcDbLine
 10
109.8303650391634
 20
-88.8169478175509
 30
0.0
 11
109.8303650391634
 21
-88.6419478175558
 31
0.0
  0
LINE
  5
240
330
6C
100
AcDbEntity
  8
Sichtbare Kanten(DIN)
100
AcDbLine
 10
109.8303650391634
 20
-92.43961829136081
 30
0.0
 11
109.8303650391634
 21
-91.31694781754957
 31
0.0
  0
LINE
  5
241
330
6C
100
AcDbEntity
  8
Sichtbare Kanten(DIN)
100
AcDbLine
 10
68.22085126464486
 20
-88.64194781755507
 30
0.0
 11
68.22085126464485
 21
-87.45322579154285
 31
0.0
  0
LINE
  5
242
330
6C
100
AcDbEntity
  8
Sichtbare Kanten(DIN)
100
AcDbLine
 10
68.22085126464486
 20
-88.64194781755507
 30
0.0
 11
70.72085126464485
 21
-88.64194781755504
 31
0.0
  0
LINE
  5
243
330
6C
100
AcDbEntity
  8
Sichtbare Kanten(DIN)
100
AcDbLine
 10
68.22085126464489
 20
-88.8169478175512
 30
0.0
 11
68.22085126464492
 21
-88.64194781755621
 31
0.0
  0
ARC
  5
244
330
6C
100
AcDbEntity
  8
Sichtbare Kanten(DIN)
100
AcDbCircle
 10
114.8303650391631
 20
-62.24581554766538
 30
0.0
 40
2.499999999999999
100
AcDbArc
 50
85.00000000000062
 51
180.0
  0
ARC
  5
245
330
6C
100
AcDbEntity
  8
Sichtbare Kanten(DIN)
100
AcDbCircle
 10
114.8303650391631
 20
-62.24581554766537
 30
0.0
 40
4.999999999999979
100
AcDbArc
 50
85.0000000000006
 51
180.0
  0
LINE
  5
246
330
6C
100
AcDbEntity
  8
Sichtbare Kanten(DIN)
100
AcDbLine
 10
68.21967082643848
 20
-62.24581554766574
 30
0.0
 11
68.22085126464459
 21
-62.24581554766574
 31
0.0
  0
LINE
  5
247
330
6C
100
AcDbEntity
  8
Sichtbare Kanten(DIN)
100
AcDbLine
 10
69.46967065935834
 20
-62.24581554766576
 30
0.0
 11
70.71849038823202
 21
-62.24581554766576
 31
0.0
  0
LINE
  5
248
330
6C
100
AcDbEntity
  8
Sichtbare Kanten(DIN)
100
AcDbLine
 10
70.71849038823204
 20
-62.2458155476656
 30
0.0
 11
70.71952299071059
 21
-62.24581554766562
 31
0.0
  0
LINE
  5
249
330
6C
100
AcDbEntity
  8
Sichtbare Kanten(DIN)
100
AcDbLine
 10
70.71849038823202
 20
-62.24581554766576
 30
0.0
 11
70.71849038823181
 21
-67.06694781754888
 31
0.0
  0
LINE
  5
24A
330
6C
100
AcDbEntity
  8
Sichtbare Kanten(DIN)
100
AcDbLine
 10
68.21967082643826
 20
-67.06694781754814
 30
0.0
 11
68.21967082643848
 21
-62.24581554766574
 31
0.0
  0
SPLINE
  5
24B
330
6C
100
AcDbEntity
  8
Sichtbare Kanten(DIN)
100
AcDbSpline
210
0.0
220
0.0
230
1.0
 70
     8
 71
     3
 72
    10
 73
     6
 74
     0
 42
0.0000000001
 43
0.0000000001
 40
0.0
 40
0.0
 40
0.0
 40
0.0
 40
0.0991381451580472
 40
0.0991381451580472
 40
0.198276290323437
 40
0.198276290323437
 40
0.198276290323437
 40
0.198276290323437
 10
70.72085126464486
 20
-92.43961829136196
 30
0.0
 10
70.72085126464485
 20
-92.5030448311881
 30
0.0
 10
70.68929690298793
 20
-92.56632155370519
 30
0.0
 10
70.56397186016752
 20
-92.69317444730473
 30
0.0
 10
70.4704979496549
 20
-92.75645116982666
 30
0.0
 10
70.34753446078008
 20
-92.81987770965733
 30
0.0
  0
LINE
  5
24C
330
6C
100
AcDbEntity
  8
Sichtbare Kanten(DIN)
100
AcDbLine
 10
69.47085699186146
 20
-92.43961829136198
 30
0.0
 11
70.72085126464486
 21
-92.43961829136194
 31
0.0
  0
LINE
  5
24D
330
6C
100
AcDbEntity
  8
Sichtbare Kanten(DIN)
100
AcDbLine
 10
68.32191440505967
 20
-92.43961829136196
 30
0.0
 11
69.47085699186146
 21
-92.43961829136196
 31
0.0
  0
SPLINE
  5
24E
330
6C
100
AcDbEntity
  8
Sichtbare Kanten(DIN)
100
AcDbSpline
210
0.0
220
0.0
230
1.0
 70
     8
 71
     3
 72
    34
 73
    30
 74
     0
 42
0.0000000001
 43
0.0000000001
 40
0.0
 40
0.0
 40
0.0
 40
0.0
 40
0.0648284199630507
 40
0.0648284199630507
 40
0.194281093543927
 40
0.194281093543927
 40
0.3430516683678367
 40
0.3430516683678367
 40
0.487236915768349
 40
0.487236915768349
 40
0.5787962133597591
 40
0.5787962133597591
 40
0.6371921602870279
 40
0.6371921602870279
 40
0.7224478469579699
 40
0.7224478469579699
 40
0.8157317392871522
 40
0.8157317392871522
 40
0.9176984735883575
 40
0.9176984735883575
 40
1.004879389756537
 40
1.004879389756537
 40
1.144721949440918
 40
1.144721949440918
 40
1.284676434272357
 40
1.284676434272357
 40
1.354240755200455
 40
1.354240755200455
 40
1.424112600809449
 40
1.424112600809449
 40
1.424112600809449
 40
1.424112600809449
 10
70.34753446078017
 20
-92.81987770965731
 30
0.0
 10
70.2671054976298
 20
-92.86107380852422
 30
0.0
 10
70.17404663934683
 20
-92.88924704387794
 30
0.0
 10
69.85369236874875
 20
-92.93409290951082
 30
0.0
 10
69.59145981304917
 20
-92.91193029919218
 30
0.0
 10
68.95169196756956
 20
-92.74979626381385
 30
0.0
 10
68.58225259089865
 20
-92.5973684548558
 30
0.0
 10
67.88185904921459
 20
-92.17741964900973
 30
0.0
 10
67.55681425006861
 20
-91.91697289401162
 30
0.0
 10
67.11854058665898
 20
-91.40901387929972
 30
0.0
 10
66.97067295857866
 20
-91.19060579214801
 30
0.0
 10
66.78405962769859
 20
-90.79964099124827
 30
0.0
 10
66.72617393822921
 20
-90.64103461761659
 30
0.0
 10
66.62576947577403
 20
-90.23699032752658
 30
0.0
 10
66.60423072482082
 20
-89.99142923008353
 30
0.0
 10
66.64305947332019
 20
-89.47583010803297
 30
0.0
 10
66.71070866453414
 20
-89.21401103003592
 30
0.0
 10
66.93546730195297
 20
-88.69655321387662
 30
0.0
 10
67.09696604252335
 20
-88.45033627624703
 30
0.0
 10
67.44870897551445
 20
-88.04183703111808
 30
0.0
 10
67.62909470024943
 20
-87.87502786893401
 30
0.0
 10
68.12104513036389
 20
-87.49387308694361
 30
0.0
 10
68.45412231959295
 20
-87.30530393251809
 30
0.0
 10
69.11754133627887
 20
-87.03021264383858
 30
0.0
 10
69.42840002965168
 20
-86.95092916039346
 30
0.0
 10
69.82976787963901
 20
-86.91306466448617
 30
0.0
 10
69.95154528819935
 20
-86.91413469501979
 30
0.0
 10
70.17019144963159
 20
-86.94350936638819
 30
0.0
 10
70.2654077936976
 20
-86.97195225452302
 30
0.0
 10
70.34753446078297
 20
-87.01401792544999
 30
0.0
  0
SPLINE
  5
24F
330
6C
100
AcDbEntity
  8
Sichtbare Kanten(DIN)
100
AcDbSpline
210
0.0
220
0.0
230
1.0
 70
     8
 71
     3
 72
    10
 73
     6
 74
     0
 42
0.0000000001
 43
0.0000000001
 40
0.0
 40
0.0
 40
0.0
 40
0.0
 40
0.0991381451577607
 40
0.0991381451577607
 40
0.1982762903230118
 40
0.1982762903230118
 40
0.1982762903230118
 40
0.1982762903230118
 10
70.34753446078297
 20
-87.01401792545
 30
0.0
 10
70.47049794964781
 20
-87.07744446527591
 30
0.0
 10
70.56397186015495
 20
-87.14072118779297
 30
0.0
 10
70.68929690298347
 20
-87.26757408139221
 30
0.0
 10
70.72085126464479
 20
-87.33085080391376
 30
0.0
 10
70.72085126464481
 20
-87.39427734374448
 30
0.0
  0
LINE
  5
250
330
6C
100
AcDbEntity
  8
Sichtbare Kanten(DIN)
100
AcDbLine
 10
69.47085699186366
 20
-87.39427734374448
 30
0.0
 11
68.32191440506616
 21
-87.3942773437445
 31
0.0
  0
LINE
  5
251
330
6C
100
AcDbEntity
  8
Sichtbare Kanten(DIN)
100
AcDbLine
 10
70.72085126464483
 20
-87.39427734374448
 30
0.0
 11
69.47085699186366
 21
-87.39427734374448
 31
0.0
  0
LINE
  5
252
330
6C
100
AcDbEntity
  8
Sichtbare Kanten(DIN)
100
AcDbLine
 10
65.72085126464473
 20
-67.06694781754932
 30
0.0
 11
70.71849038823183
 21
-67.0669478175474
 31
0.0
  0
LINE
  5
253
330
6C
100
AcDbEntity
  8
Sichtbare Kanten(DIN)
100
AcDbLine
 10
70.72085126464519
 20
-126.3169478175512
 30
0.0
 11
65.72085126464521
 21
-126.3169478175519
 31
0.0
  0
LINE
  5
254
330
6C
100
AcDbEntity
  8
Sichtbare Kanten(DIN)
100
AcDbLine
 10
70.72085126464486
 20
-92.43961829136194
 30
0.0
 11
70.72085126464518
 21
-126.3169478175512
 31
0.0
  0
LINE
  5
255
330
6C
100
AcDbEntity
  8
Sichtbare Kanten(DIN)
100
AcDbLine
 10
70.72085126464459
 20
-62.24581554766579
 30
0.0
 11
70.72085126464481
 21
-87.39427734374448
 31
0.0
  0
LINE
  5
256
330
6C
100
AcDbEntity
  8
Sichtbare Kanten(DIN)
100
AcDbLine
 10
70.71952299071059
 20
-62.24581554766577
 30
0.0
 11
70.72085126464457
 21
-62.24581554766576
 31
0.0
  0
LINE
  5
257
330
6C
100
AcDbEntity
  8
Sichtbare Kanten(DIN)
100
AcDbLine
 10
68.22085126464461
 20
-62.24581554766576
 30
0.0
 11
69.46967065935834
 21
-62.24581554766576
 31
0.0
  0
ARC
  5
258
330
6C
100
AcDbEntity
  8
Sichtbare Kanten(DIN)
100
AcDbCircle
 10
65.72085126464461
 20
-62.24581554766581
 30
0.0
 40
4.999999999999984
100
AcDbArc
 50
0.0
 51
95.00000000000049
  0
ARC
  5
259
330
6C
100
AcDbEntity
  8
Sichtbare Kanten(DIN)
100
AcDbCircle
 10
65.72085126464457
 20
-62.24581554766584
 30
0.0
 40
2.500000000000017
100
AcDbArc
 50
0.0
 51
94.99999999999976
  0
LINE
  5
25A
330
6C
100
AcDbEntity
  8
Sichtbare Kanten(DIN)
100
AcDbLine
 10
52.14286304510934
 20
-60.92418599650546
 30
0.0
 11
37.19994257373337
 21
-62.23152213772475
 31
0.0
  0
LINE
  5
25B
330
6C
100
AcDbEntity
  8
Sichtbare Kanten(DIN)
100
AcDbLine
 10
36.9820532168642
 20
-59.7410353924954
 30
0.0
 11
51.92497368824016
 21
-58.4336992512761
 31
0.0
  0
LINE
  5
25C
330
6C
100
AcDbEntity
  8
Sichtbare Kanten(DIN)
100
AcDbLine
 10
36.98205321686419
 20
-59.7410353924954
 30
0.0
 11
37.19994257373337
 21
-62.23152213772475
 31
0.0
  0
LINE
  5
25D
330
6C
100
AcDbEntity
  8
Sichtbare Kanten(DIN)
100
AcDbLine
 10
128.6262426155678
 20
-58.43369925127548
 30
0.0
 11
143.5691630869441
 21
-59.74103539249454
 31
0.0
  0
LINE
  5
25E
330
6C
100
AcDbEntity
  8
Sichtbare Kanten(DIN)
100
AcDbLine
 10
143.351273730075
 20
-62.23152213772388
 30
0.0
 11
128.4083532586987
 21
-60.92418599650485
 31
0.0
  0
LINE
  5
25F
330
6C
100
AcDbEntity
  8
Sichtbare Kanten(DIN)
100
AcDbLine
 10
143.351273730075
 20
-62.23152213772388
 30
0.0
 11
143.5691630869441
 21
-59.74103539249451
 31
0.0
  0
LINE
  5
260
330
6C
100
AcDbEntity
  8
Sichtbare Kanten(DIN)
100
AcDbLine
 10
90.37560815190222
 20
-131.8717047048233
 30
0.0
 11
83.57560815190188
 21
-131.8717047048233
 31
0.0
  0
LINE
  5
261
330
6C
100
AcDbEntity
  8
Sichtbare Kanten(DIN)
100
AcDbLine
 10
83.57560815190186
 20
-129.3717047048233
 30
0.0
 11
90.37560815190222
 21
-129.3717047048233
 31
0.0
  0
LINE
  5
262
330
6C
100
AcDbEntity
  8
Sichtbare Kanten(DIN)
100
AcDbLine
 10
96.97560815190209
 20
-129.3717047048214
 30
0.0
 11
90.3756081519022
 21
-129.3717047048233
 31
0.0
  0
LINE
  5
263
330
6C
100
AcDbEntity
  8
Sichtbare Kanten(DIN)
100
AcDbLine
 10
90.37560815190223
 20
-131.8717047048233
 30
0.0
 11
96.97560815190215
 21
-131.8717047048214
 31
0.0
  0
LINE
  5
264
330
6C
100
AcDbEntity
  8
Sichtbare Kanten(DIN)
100
AcDbLine
 10
96.97560815190184
 20
-129.3717047048115
 30
0.0
 11
100.9756081519018
 21
-129.3717047048103
 31
0.0
  0
LINE
  5
265
330
6C
100
AcDbEntity
  8
Sichtbare Kanten(DIN)
100
AcDbLine
 10
100.9756081519018
 20
-131.8717047048103
 30
0.0
 11
96.97560815190186
 21
-131.8717047048115
 31
0.0
  0
LINE
  5
266
330
6C
100
AcDbEntity
  8
Sichtbare Kanten(DIN)
100
AcDbLine
 10
96.97560815190186
 20
-129.3717047048115
 30
0.0
 11
96.97560815190186
 21
-131.8717047048115
 31
0.0
  0
LINE
  5
267
330
6C
100
AcDbEntity
  8
Sichtbare Kanten(DIN)
100
AcDbLine
 10
83.57560815190195
 20
-131.8717047048116
 30
0.0
 11
79.57560815190193
 21
-131.8717047048105
 31
0.0
  0
LINE
  5
268
330
6C
100
AcDbEntity
  8
Sichtbare Kanten(DIN)
100
AcDbLine
 10
79.57560815190193
 20
-129.3717047048105
 30
0.0
 11
83.5756081519019
 21
-129.3717047048116
 31
0.0
  0
LINE
  5
269
330
6C
100
AcDbEntity
  8
Sichtbare Kanten(DIN)
100
AcDbLine
 10
83.57560815190195
 20
-131.8717047048116
 30
0.0
 11
83.5756081519019
 21
-129.3717047048116
 31
0.0
  0
LINE
  5
26A
330
6C
100
AcDbEntity
  8
Sichtbare Kanten(DIN)
100
AcDbLine
 10
109.5014869776234
 20
-128.1111519720787
 30
0.0
 11
111.6726089160829
 21
-129.3505992393472
 31
0.0
  0
ARC
  5
26B
330
6C
100
AcDbEntity
  8
Sichtbare Kanten(DIN)
100
AcDbCircle
 10
107.3303650391637
 20
-126.8717047048106
 30
0.0
 40
2.499999999999942
100
AcDbArc
 50
330.2788745368251
 51
0.0
  0
ARC
  5
26C
330
6C
100
AcDbEntity
  8
Sichtbare Kanten(DIN)
100
AcDbCircle
 10
107.3303650391637
 20
-126.8717047048103
 30
0.0
 40
2.50000000000001
100
AcDbArc
 50
270.0000000000008
 51
330.2788745368271
  0
ARC
  5
26D
330
6C
100
AcDbEntity
  8
Sichtbare Kanten(DIN)
100
AcDbCircle
 10
107.3303650391637
 20
-126.8717047048103
 30
0.0
 40
4.999999999999941
100
AcDbArc
 50
270.0000000000002
 51
330.2788745368267
  0
ARC
  5
26E
330
6C
100
AcDbEntity
  8
Sichtbare Kanten(DIN)
100
AcDbCircle
 10
107.3303650391636
 20
-126.8717047048106
 30
0.0
 40
5.000000000000085
100
AcDbArc
 50
330.2788745368269
 51
0.0
  0
ARC
  5
26F
330
6C
100
AcDbEntity
  8
Sichtbare Kanten(DIN)
100
AcDbCircle
 10
73.22085126464514
 20
-126.8717047048106
 30
0.0
 40
2.500000000000009
100
AcDbArc
 50
209.7211254630955
 51
270.0000000000008
  0
LINE
  5
270
330
6C
100
AcDbEntity
  8
Sichtbare Kanten(DIN)
100
AcDbLine
 10
71.0497293261838
 20
-128.1111519720761
 30
0.0
 11
68.87860738772248
 21
-129.3505992393416
 31
0.0
  0
ARC
  5
271
330
6C
100
AcDbEntity
  8
Sichtbare Kanten(DIN)
100
AcDbCircle
 10
73.22085126464512
 20
-126.8717047048106
 30
0.0
 40
4.999999999999965
100
AcDbArc
 50
209.7211254630954
 51
270.0000000000011
  0
ARC
  5
272
330
6C
100
AcDbEntity
  8
Sichtbare Kanten(DIN)
100
AcDbCircle
 10
73.220851264645
 20
-126.871704704811
 30
0.0
 40
4.999999999999841
100
AcDbArc
 50
180.0
 51
209.7211254630963
  0
ARC
  5
273
330
6C
100
AcDbEntity
  8
Sichtbare Kanten(DIN)
100
AcDbCircle
 10
73.22085126464543
 20
-126.8717047048108
 30
0.0
 40
2.500000000000297
100
AcDbArc
 50
180.0
 51
209.7211254630937
  0
ARC
  5
274
330
6C
100
AcDbEntity
  8
Sichtbare Kanten(DIN)
100
AcDbCircle
 10
64.39609437740163
 20
-72.06694781754845
 30
0.0
 40
4.999999999999994
100
AcDbArc
 50
89.99999999996214
 51
180.0
  0
ARC
  5
275
330
6C
100
AcDbEntity
  8
Sichtbare Kanten(DIN)
100
AcDbCircle
 10
64.39609437736912
 20
-121.3169478175781
 30
0.0
 40
4.999999999999987
100
AcDbArc
 50
180.0
 51
270.0000000002061
  0
ARC
  5
276
330
6C
100
AcDbEntity
  8
Sichtbare Kanten(DIN)
100
AcDbCircle
 10
116.1551219264227
 20
-72.06694781754908
 30
0.0
 40
4.999999999999985
100
AcDbArc
 50
0.0
 51
90.00000000000062
  0
ARC
  5
277
330
6C
100
AcDbEntity
  8
Sichtbare Kanten(DIN)
100
AcDbCircle
 10
116.1551219264231
 20
-121.3169478175485
 30
0.0
 40
4.999999999999988
100
AcDbArc
 50
270.0000000000049
 51
0.0
  0
ENDSEC
  0
SECTION
  2
OBJECTS
  0
DICTIONARY
  5
C
330
0
100
AcDbDictionary
281
     1
  3
ACAD_COLOR
350
63
  3
ACAD_GROUP
350
D
  3
ACAD_LAYOUT
350
62
  3
ACAD_MATERIAL
350
10
  3
ACAD_MLEADERSTYLE
350
66
  3
ACAD_MLINESTYLE
350
5F
  3
ACAD_PLOTSETTINGS
350
61
  3
ACAD_PLOTSTYLENAME
350
E
  3
ACAD_SCALELIST
350
42
  3
ACAD_TABLESTYLE
350
64
  3
ACAD_VISUALSTYLE
350
29
  3
ACDB_RECOMPOSE_DATA
350
287
  3
AcDbVariableDictionary
350
278
  3
DWGPROPS
350
288
  0
DICTIONARY
  5
63
102
{ACAD_REACTORS
330
C
102
}
330
C
100
AcDbDictionary
281
     1
  0
DICTIONARY
  5
D
102
{ACAD_REACTORS
330
C
102
}
330
C
100
AcDbDictionary
281
     1
  0
DICTIONARY
  5
62
102
{ACAD_REACTORS
330
C
102
}
330
C
100
AcDbDictionary
281
     1
  3
Layout1
350
6B
  3
Layout2
350
73
  3
Model
350
6F
  0
DICTIONARY
  5
10
102
{ACAD_REACTORS
330
C
102
}
330
C
100
AcDbDictionary
281
     1
  3
ByBlock
350
19
  3
ByLayer
350
11
  3
Global
350
21
  0
DICTIONARY
  5
66
102
{ACAD_REACTORS
330
C
102
}
330
C
100
AcDbDictionary
281
     1
  3
Standard
350
67
  0
DICTIONARY
  5
5F
102
{ACAD_REACTORS
330
C
102
}
330
C
100
AcDbDictionary
281
     1
  3
Standard
350
60
  0
DICTIONARY
  5
61
102
{ACAD_REACTORS
330
C
102
}
330
C
100
AcDbDictionary
281
     1
  0
ACDBDICTIONARYWDFLT
  5
E
102
{ACAD_REACTORS
330
C
102
}
330
C
100
AcDbDictionary
281
     1
  3
Normal
350
F
100
AcDbDictionaryWithDefault
340
F
  0
DICTIONARY
  5
42
102
{ACAD_REACTORS
330
C
102
}
330
C
100
AcDbDictionary
281
     1
  3
A0
350
43
  3
A1
350
44
  3
A2
350
45
  3
A3
350
46
  3
A4
350
47
  3
A5
350
48
  3
A6
350
49
  3
A7
350
4A
  3
A8
350
4B
  3
A9
350
4C
  3
B0
350
4D
  3
B1
350
4E
  3
B2
350
4F
  3
B3
350
50
  3
B4
350
51
  3
B5
350
52
  3
B6
350
53
  0
DICTIONARY
  5
64
102
{ACAD_REACTORS
330
C
102
}
330
C
100
AcDbDictionary
281
     1
  3
Standard
350
65
  0
DICTIONARY
  5
29
102
{ACAD_REACTORS
330
C
102
}
330
C
100
AcDbDictionary
281
     1
  3
2dWireframe
350
2F
  3
Basic
350
2E
  3
Brighten
350
35
  3
ColorChange
350
39
  3
Conceptual
350
32
  3
Dim
350
34
  3
EdgeColorOff
350
41
  3
Facepattern
350
38
  3
Flat
350
2A
  3
FlatWithEdges
350
2B
  3
Gouraud
350
2C
  3
GouraudWithEdges
350
2D
  3
Hidden
350
31
  3
JitterOff
350
3F
  3
Linepattern
350
37
  3
OverhangOff
350
40
  3
Realistic
350
33
  3
Shaded
350
3E
  3
Shaded with edges
350
3D
  3
Shades of Gray
350
3A
  3
Sketchy
350
3B
  3
Thicken
350
36
  3
Wireframe
350
30
  3
X-Ray
350
3C
  0
XRECORD
  5
287
102
{ACAD_REACTORS
330
C
102
}
330
C
100
AcDbXrecord
280
     1
 90
        1
330
65
  0
DICTIONARY
  5
278
102
{ACAD_REACTORS
330
C
102
}
330
C
100
AcDbDictionary
281
     1
  3
CANNOSCALE
350
27C
  3
CMLEADERSTYLE
350
27A
  3
CTABLESTYLE
350
279
  3
DIMASSOC
350
283
  3
HIDETEXT
350
282
  3
INDEXCTL
350
281
  3
LAYEREVAL
350
27E
  3
LAYERNOTIFY
350
27F
  3
LIGHTINGUNITS
350
27D
  3
MSLTSCALE
350
27B
  3
SORTENTS
350
280
  3
XCLIPFRAME
350
284
  0
XRECORD
  5
288
102
{ACAD_REACTORS
330
C
102
}
330
C
100
AcDbXrecord
280
     1
  1
DWGPROPS COOKIE
  2

  3

  4
S.Rübsamen
  6

  7

  8

  9

300
Manager=
301
Firma=
302
Kategorie=
303
Bauteilnummer=
304
Bezeichnung=
305
Projekt=
306
Konstrukteur=S.Rübsamen
307
Ingenieur=
308
Bevollmächtigter=
309
Kostenstelle=
 40
0.000015462962963
 41
2455798.502858542
 42
2455798.502858542
  1

 90
       34
300
Zulieferer=
300
Benutzerstatus=
300
Konstruktionsstatus=InBearbeitung
300
Kontrolliert von=
300
Konstruktion genehmigt von=
300
Fertigung genehmigt von=
300
Gewicht=
300
Oberfläche=
300
Oberfläche_2=roh
300
Werkstoff=Edelstahl V2A
300
Zeichnungs_Nr.=
300
Benennung2=
300
Benennung3=
300
Werkstoff_DIN=1.4301 / ASTM 304
300
Oberfläche_3=
300
ZeichnungsNr Index=
300
Änderung_a=
300
Änderung_b=
300
Datum_a=
300
Datum_b=
300
Status_a=
300
Status_b=
300
Name_a=
300
Name_b=
  0
LAYOUT
  5
6B
102
{ACAD_XDICTIONARY
360
2BE
102
}
102
{ACAD_REACTORS
330
62
102
}
330
62
100
AcDbPlotSettings
  1

  2

  4

  6

 40
0.0
 41
0.0
 42
0.0
 43
0.0
 44
0.0
 45
0.0
 46
0.0
 47
0.0
 48
0.0
 49
0.0
140
0.0
141
0.0
142
1.0
143
1.0
 70
   688
 72
     0
 73
     0
 74
     5
  7

 75
    16
147
1.0
148
0.0
149
0.0
100
AcDbLayout
  1
Layout1
 70
     1
 71
     1
 10
0.0
 20
0.0
 11
12.0
 21
9.0
 12
0.0
 22
0.0
 32
0.0
 14
0.0
 24
0.0
 34
0.0
 15
0.0
 25
0.0
 35
0.0
146
0.0
 13
0.0
 23
0.0
 33
0.0
 16
1.0
 26
0.0
 36
0.0
 17
0.0
 27
1.0
 37
0.0
 76
     0
330
68
  0
LAYOUT
  5
73
102
{ACAD_XDICTIONARY
360
2C2
102
}
102
{ACAD_REACTORS
330
62
102
}
330
62
100
AcDbPlotSettings
  1

  2

  4

  6

 40
0.0
 41
0.0
 42
0.0
 43
0.0
 44
0.0
 45
0.0
 46
0.0
 47
0.0
 48
0.0
 49
0.0
140
0.0
141
0.0
142
1.0
143
1.0
 70
   688
 72
     0
 73
     0
 74
     5
  7

 75
    16
147
1.0
148
0.0
149
0.0
100
AcDbLayout
  1
Layout2
 70
     1
 71
     2
 10
0.0
 20
0.0
 11
12.0
 21
9.0
 12
0.0
 22
0.0
 32
0.0
 14
0.0
 24
0.0
 34
0.0
 15
0.0
 25
0.0
 35
0.0
146
0.0
 13
0.0
 23
0.0
 33
0.0
 16
1.0
 26
0.0
 36
0.0
 17
0.0
 27
1.0
 37
0.0
 76
     0
330
70
  0
LAYOUT
  5
6F
102
{ACAD_XDICTIONARY
360
2C0
102
}
102
{ACAD_REACTORS
330
62
102
}
330
62
100
AcDbPlotSettings
  1

  2

  4

  6

 40
0.0
 41
0.0
 42
0.0
 43
0.0
 44
0.0
 45
0.0
 46
0.0
 47
0.0
 48
0.0
 49
0.0
140
0.0
141
0.0
142
1.0
143
1.0
 70
  1712
 72
     0
 73
     0
 74
     0
  7

 75
     0
147
1.0
148
0.0
149
0.0
100
AcDbLayout
  1
Model
 70
     1
 71
     0
 10
0.0
 20
0.0
 11
12.0
 21
9.0
 12
0.0
 22
0.0
 32
0.0
 14
0.0
 24
0.0
 34
0.0
 15
0.0
 25
0.0
 35
0.0
146
0.0
 13
0.0
 23
0.0
 33
0.0
 16
1.0
 26
0.0
 36
0.0
 17
0.0
 27
1.0
 37
0.0
 76
     0
330
6C
  0
MATERIAL
  5
19
102
{ACAD_XDICTIONARY
360
1A
102
}
102
{ACAD_REACTORS
330
10
102
}
330
10
100
AcDbMaterial
  1
ByBlock
 72
     0
 43
0.0208333333333333
 43
0.0
 43
0.0
 43
0.0
 43
0.0
 43
0.0208333333333333
 43
0.0
 43
0.0
 43
0.0
 43
0.0
 43
1.0
 43
0.0
 43
0.0
 43
0.0
 43
0.0
 43
1.0
 77
     0
 47
0.0208333333333333
 47
0.0
 47
0.0
 47
0.0
 47
0.0
 47
0.0208333333333333
 47
0.0
 47
0.0
 47
0.0
 47
0.0
 47
1.0
 47
0.0
 47
0.0
 47
0.0
 47
0.0
 47
1.0
171
     0
 49
0.0208333333333333
 49
0.0
 49
0.0
 49
0.0
 49
0.0
 49
0.0208333333333333
 49
0.0
 49
0.0
 49
0.0
 49
0.0
 49
1.0
 49
0.0
 49
0.0
 49
0.0
 49
0.0
 49
1.0
175
     0
142
0.0208333333333333
142
0.0
142
0.0
142
0.0
142
0.0
142
0.0208333333333333
142
0.0
142
0.0
142
0.0
142
0.0
142
1.0
142
0.0
142
0.0
142
0.0
142
0.0
142
1.0
179
     0
144
0.0208333333333333
144
0.0
144
0.0
144
0.0
144
0.0
144
0.0208333333333333
144
0.0
144
0.0
144
0.0
144
0.0
144
1.0
144
0.0
144
0.0
144
0.0
144
0.0
144
1.0
147
0.0208333333333333
147
0.0
147
0.0
147
0.0
147
0.0
147
0.0208333333333333
147
0.0
147
0.0
147
0.0
147
0.0
147
1.0
147
0.0
147
0.0
147
0.0
147
0.0
147
1.0
  0
MATERIAL
  5
11
102
{ACAD_XDICTIONARY
360
12
102
}
102
{ACAD_REACTORS
330
10
102
}
330
10
100
AcDbMaterial
  1
ByLayer
 72
     0
 43
0.0208333333333333
 43
0.0
 43
0.0
 43
0.0
 43
0.0
 43
0.0208333333333333
 43
0.0
 43
0.0
 43
0.0
 43
0.0
 43
1.0
 43
0.0
 43
0.0
 43
0.0
 43
0.0
 43
1.0
 77
     0
 47
0.0208333333333333
 47
0.0
 47
0.0
 47
0.0
 47
0.0
 47
0.0208333333333333
 47
0.0
 47
0.0
 47
0.0
 47
0.0
 47
1.0
 47
0.0
 47
0.0
 47
0.0
 47
0.0
 47
1.0
171
     0
 49
0.0208333333333333
 49
0.0
 49
0.0
 49
0.0
 49
0.0
 49
0.0208333333333333
 49
0.0
 49
0.0
 49
0.0
 49
0.0
 49
1.0
 49
0.0
 49
0.0
 49
0.0
 49
0.0
 49
1.0
175
     0
142
0.0208333333333333
142
0.0
142
0.0
142
0.0
142
0.0
142
0.0208333333333333
142
0.0
142
0.0
142
0.0
142
0.0
142
1.0
142
0.0
142
0.0
142
0.0
142
0.0
142
1.0
179
     0
144
0.0208333333333333
144
0.0
144
0.0
144
0.0
144
0.0
144
0.0208333333333333
144
0.0
144
0.0
144
0.0
144
0.0
144
1.0
144
0.0
144
0.0
144
0.0
144
0.0
144
1.0
147
0.0208333333333333
147
0.0
147
0.0
147
0.0
147
0.0
147
0.0208333333333333
147
0.0
147
0.0
147
0.0
147
0.0
147
1.0
147
0.0
147
0.0
147
0.0
147
0.0
147
1.0
  0
MATERIAL
  5
21
102
{ACAD_XDICTIONARY
360
22
102
}
102
{ACAD_REACTORS
330
10
102
}
330
10
100
AcDbMaterial
  1
Global
 72
     0
 43
0.0208333333333333
 43
0.0
 43
0.0
 43
0.0
 43
0.0
 43
0.0208333333333333
 43
0.0
 43
0.0
 43
0.0
 43
0.0
 43
1.0
 43
0.0
 43
0.0
 43
0.0
 43
0.0
 43
1.0
 77
     0
 47
0.0208333333333333
 47
0.0
 47
0.0
 47
0.0
 47
0.0
 47
0.0208333333333333
 47
0.0
 47
0.0
 47
0.0
 47
0.0
 47
1.0
 47
0.0
 47
0.0
 47
0.0
 47
0.0
 47
1.0
171
     0
 49
0.0208333333333333
 49
0.0
 49
0.0
 49
0.0
 49
0.0
 49
0.0208333333333333
 49
0.0
 49
0.0
 49
0.0
 49
0.0
 49
1.0
 49
0.0
 49
0.0
 49
0.0
 49
0.0
 49
1.0
175
     0
142
0.0208333333333333
142
0.0
142
0.0
142
0.0
142
0.0
142
0.0208333333333333
142
0.0
142
0.0
142
0.0
142
0.0
142
1.0
142
0.0
142
0.0
142
0.0
142
0.0
142
1.0
179
     0
144
0.0208333333333333
144
0.0
144
0.0
144
0.0
144
0.0
144
0.0208333333333333
144
0.0
144
0.0
144
0.0
144
0.0
144
1.0
144
0.0
144
0.0
144
0.0
144
0.0
144
1.0
147
0.0208333333333333
147
0.0
147
0.0
147
0.0
147
0.0
147
0.0208333333333333
147
0.0
147
0.0
147
0.0
147
0.0
147
1.0
147
0.0
147
0.0
147
0.0
147
0.0
147
1.0
  0
MLEADERSTYLE
  5
67
102
{ACAD_REACTORS
330
66
102
}
330
66
100
AcDbMLeaderStyle
170
     2
171
     1
172
     0
 90
        2
 40
0.0
 41
0.0
173
     1
 91
-1056964608
340
5B
 92
       -2
290
     1
 42
0.09
291
     1
 43
0.36
  3
Standard
 44
0.18
300

342
55
174
     1
178
     6
175
     1
176
     0
 93
-1056964608
 45
0.18
292
     0
297
     0
 46
0.18
 94
-1056964608
 47
1.0
 49
1.0
140
1.0
293
     1
141
0.0
294
     1
177
     0
142
1.0
295
     0
296
     0
143
0.125
1001
ACAD_MLEADERVER
1070
     2
  0
MLINESTYLE
  5
60
102
{ACAD_REACTORS
330
5F
102
}
330
5F
100
AcDbMlineStyle
  2
STANDARD
 70
     0
  3

 62
   256
 51
90.0
 52
90.0
 71
     2
 49
0.5
 62
   256
  6
BYLAYER
 49
-0.5
 62
   256
  6
BYLAYER
  0
ACDBPLACEHOLDER
  5
F
102
{ACAD_REACTORS
330
E
102
}
330
E
  0
SCALE
  5
43
102
{ACAD_REACTORS
330
42
102
}
330
42
100
AcDbScale
 70
     0
300
1:1
140
1.0
141
1.0
290
     1
  0
SCALE
  5
44
102
{ACAD_REACTORS
330
42
102
}
330
42
100
AcDbScale
 70
     0
300
1/128" = 1'-0"
140
0.0078125
141
12.0
290
     0
  0
SCALE
  5
45
102
{ACAD_REACTORS
330
42
102
}
330
42
100
AcDbScale
 70
     0
300
1/64" = 1'-0"
140
0.015625
141
12.0
290
     0
  0
SCALE
  5
46
102
{ACAD_REACTORS
330
42
102
}
330
42
100
AcDbScale
 70
     0
300
1/32" = 1'-0"
140
0.03125
141
12.0
290
     0
  0
SCALE
  5
47
102
{ACAD_REACTORS
330
42
102
}
330
42
100
AcDbScale
 70
     0
300
1/16" = 1'-0"
140
0.0625
141
12.0
290
     0
  0
SCALE
  5
48
102
{ACAD_REACTORS
330
42
102
}
330
42
100
AcDbScale
 70
     0
300
3/32" = 1'-0"
140
0.09375
141
12.0
290
     0
  0
SCALE
  5
49
102
{ACAD_REACTORS
330
42
102
}
330
42
100
AcDbScale
 70
     0
300
1/8" = 1'-0"
140
0.125
141
12.0
290
     0
  0
SCALE
  5
4A
102
{ACAD_REACTORS
330
42
102
}
330
42
100
AcDbScale
 70
     0
300
3/16" = 1'-0"
140
0.1875
141
12.0
290
     0
  0
SCALE
  5
4B
102
{ACAD_REACTORS
330
42
102
}
330
42
100
AcDbScale
 70
     0
300
1/4" = 1'-0"
140
0.25
141
12.0
290
     0
  0
SCALE
  5
4C
102
{ACAD_REACTORS
330
42
102
}
330
42
100
AcDbScale
 70
     0
300
3/8" = 1'-0"
140
0.375
141
12.0
290
     0
  0
SCALE
  5
4D
102
{ACAD_REACTORS
330
42
102
}
330
42
100
AcDbScale
 70
     0
300
1/2" = 1'-0"
140
0.5
141
12.0
290
     0
  0
SCALE
  5
4E
102
{ACAD_REACTORS
330
42
102
}
330
42
100
AcDbScale
 70
     0
300
3/4" = 1'-0"
140
0.75
141
12.0
290
     0
  0
SCALE
  5
4F
102
{ACAD_REACTORS
330
42
102
}
330
42
100
AcDbScale
 70
     0
300
1" = 1'-0"
140
1.0
141
12.0
290
     0
  0
SCALE
  5
50
102
{ACAD_REACTORS
330
42
102
}
330
42
100
AcDbScale
 70
     0
300
1-1/2" = 1'-0"
140
1.5
141
12.0
290
     0
  0
SCALE
  5
51
102
{ACAD_REACTORS
330
42
102
}
330
42
100
AcDbScale
 70
     0
300
3" = 1'-0"
140
3.0
141
12.0
290
     0
  0
SCALE
  5
52
102
{ACAD_REACTORS
330
42
102
}
330
42
100
AcDbScale
 70
     0
300
6" = 1'-0"
140
6.0
141
12.0
290
     0
  0
SCALE
  5
53
102
{ACAD_REACTORS
330
42
102
}
330
42
100
AcDbScale
 70
     0
300
1'-0" = 1'-0"
140
12.0
141
12.0
290
     0
  0
TABLESTYLE
  5
65
102
{ACAD_XDICTIONARY
360
285
102
}
102
{ACAD_REACTORS
330
64
102
}
330
64
100
AcDbTableStyle
  3
Standard
 70
     0
 71
     0
 40
0.06
 41
0.06
280
     0
281
     0
  7
Standard
140
0.18
170
     2
 62
     0
 63
     7
283
     0
274
    -2
284
     1
 64
     0
275
    -2
285
     1
 65
     0
276
    -2
286
     1
 66
     0
277
    -2
287
     1
 67
     0
278
    -2
288
     1
 68
     0
279
    -2
289
     1
 69
     0
  7
Standard
140
0.25
170
     5
 62
     0
 63
     7
283
     0
274
    -2
284
     1
 64
     0
275
    -2
285
     1
 65
     0
276
    -2
286
     1
 66
     0
277
    -2
287
     1
 67
     0
278
    -2
288
     1
 68
     0
279
    -2
289
     1
 69
     0
  7
Standard
140
0.18
170
     5
 62
     0
 63
     7
283
     0
274
    -2
284
     1
 64
     0
275
    -2
285
     1
 65
     0
276
    -2
286
     1
 66
     0
277
    -2
287
     1
 67
     0
278
    -2
288
     1
 68
     0
279
    -2
289
     1
 69
     0
  0
VISUALSTYLE
  5
2F
102
{ACAD_XDICTIONARY
360
296
102
}
102
{ACAD_REACTORS
330
29
102
}
330
29
100
AcDbVisualStyle
  2
2dWireframe
 70
     4
 71
     0
 72
     2
 73
     0
 90
        0
 40
-0.6
 41
-30.0
 62
     5
 63
     7
 74
     1
 91
        4
 64
     7
 65
   257
 75
     1
175
     1
 42
1.0
 92
        0
 66
   257
 43
1.0
 76
     1
 77
     6
 78
     2
 67
     7
 79
     5
170
     0
171
     0
290
     0
174
     0
 93
        1
 44
0.0
173
     0
291
     0
 45
0.0
1001
ACAD
1000
AcDbSavedByObjectVersion
1070
     0
  0
VISUALSTYLE
  5
2E
102
{ACAD_XDICTIONARY
360
294
102
}
102
{ACAD_REACTORS
330
29
102
}
330
29
100
AcDbVisualStyle
  2
Basic
 70
     7
 71
     1
 72
     0
 73
     1
 90
        0
 40
-0.6
 41
-30.0
 62
     5
 63
     7
 74
     0
 91
        4
 64
     7
 65
   257
 75
     1
175
     1
 42
1.0
 92
        8
 66
     7
 43
1.0
 76
     1
 77
     6
 78
     2
 67
     7
 79
     5
170
     0
171
     0
290
     0
174
     0
 93
        1
 44
0.0
173
     0
291
     1
 45
0.0
1001
ACAD
1000
AcDbSavedByObjectVersion
1070
     0
  0
VISUALSTYLE
  5
35
102
{ACAD_XDICTIONARY
360
2A2
102
}
102
{ACAD_REACTORS
330
29
102
}
330
29
100
AcDbVisualStyle
  2
Brighten
 70
    12
 71
     2
 72
     2
 73
     0
 90
        0
 40
-0.6
 41
-30.0
 62
     5
 63
     7
 74
     1
 91
        4
 64
     7
 65
   257
 75
     1
175
     1
 42
1.0
 92
        8
 66
     7
 43
1.0
 76
     1
 77
     6
 78
     2
 67
     7
 79
     5
170
     0
171
     0
290
     0
174
     0
 93
        1
 44
50.0
173
     0
291
     1
 45
0.0
1001
ACAD
1000
AcDbSavedByObjectVersion
1070
     0
  0
VISUALSTYLE
  5
39
102
{ACAD_XDICTIONARY
360
2AA
102
}
102
{ACAD_REACTORS
330
29
102
}
330
29
100
AcDbVisualStyle
  2
ColorChange
 70
    16
 71
     2
 72
     2
 73
     3
 90
        0
 40
-0.6
 41
-30.0
 62
     5
 63
     8
 74
     1
 91
        4
 64
     7
 65
   257
 75
     1
175
     1
 42
1.0
 92
        8
 66
     8
 43
1.0
 76
     1
 77
     6
 78
     2
 67
     7
 79
     5
170
     0
171
     0
290
     0
174
     0
 93
        1
 44
0.0
173
     0
291
     1
 45
0.0
1001
ACAD
1000
AcDbSavedByObjectVersion
1070
     0
  0
VISUALSTYLE
  5
32
102
{ACAD_XDICTIONARY
360
29C
102
}
102
{ACAD_REACTORS
330
29
102
}
330
29
100
AcDbVisualStyle
  2
Conceptual
 70
     9
 71
     3
 72
     2
 73
     0
 90
        0
 40
-0.6
 41
-30.0
 62
     5
 63
     7
 74
     2
 91
        2
 64
     7
 65
   257
 75
     1
175
     1
 42
179.0
 92
        8
 66
     7
 43
1.0
 76
     1
 77
     6
 78
     2
 67
     7
 79
     3
170
     0
171
     0
290
     0
174
     0
 93
        1
 44
0.0
173
     0
291
     0
 45
0.0
1001
ACAD
1000
AcDbSavedByObjectVersion
1070
     0
  0
VISUALSTYLE
  5
34
102
{ACAD_XDICTIONARY
360
2A0
102
}
102
{ACAD_REACTORS
330
29
102
}
330
29
100
AcDbVisualStyle
  2
Dim
 70
    11
 71
     2
 72
     2
 73
     0
 90
        0
 40
-0.6
 41
-30.0
 62
     5
 63
     7
 74
     1
 91
        4
 64
     7
 65
   257
 75
     1
175
     1
 42
1.0
 92
        8
 66
     7
 43
1.0
 76
     1
 77
     6
 78
     2
 67
     7
 79
     5
170
     0
171
     0
290
     0
174
     0
 93
        1
 44
-50.0
173
     0
291
     1
 45
0.0
1001
ACAD
1000
AcDbSavedByObjectVersion
1070
     0
  0
VISUALSTYLE
  5
41
102
{ACAD_XDICTIONARY
360
2BA
102
}
102
{ACAD_REACTORS
330
29
102
}
330
29
100
AcDbVisualStyle
  2
EdgeColorOff
 70
    22
 71
     2
 72
     2
 73
     0
 90
        0
 40
-0.6
 41
-30.0
 62
     5
 63
     7
 74
     1
 91
        4
 64
     7
 65
   257
 75
     1
175
     1
 42
1.0
 92
        8
 66
     7
 43
1.0
 76
     1
 77
     6
 78
     2
 67
     7
 79
     5
170
     0
171
     0
290
     0
174
     0
 93
        1
 44
0.0
173
     0
291
     1
 45
0.0
1001
ACAD
1000
AcDbSavedByObjectVersion
1070
     0
  0
VISUALSTYLE
  5
38
102
{ACAD_XDICTIONARY
360
2A8
102
}
102
{ACAD_REACTORS
330
29
102
}
330
29
100
AcDbVisualStyle
  2
Facepattern
 70
    15
 71
     2
 72
     2
 73
     0
 90
        0
 40
-0.6
 41
-30.0
 62
     5
 63
     7
 74
     1
 91
        4
 64
     7
 65
   257
 75
     1
175
     1
 42
1.0
 92
        8
 66
     7
 43
1.0
 76
     1
 77
     6
 78
     2
 67
     7
 79
     5
170
     0
171
     0
290
     0
174
     0
 93
        1
 44
0.0
173
     0
291
     1
 45
0.0
1001
ACAD
1000
AcDbSavedByObjectVersion
1070
     0
  0
VISUALSTYLE
  5
2A
102
{ACAD_XDICTIONARY
360
28C
102
}
102
{ACAD_REACTORS
330
29
102
}
330
29
100
AcDbVisualStyle
  2
Flat
 70
     0
 71
     2
 72
     1
 73
     1
 90
        2
 40
-0.6
 41
30.0
 62
     5
 63
     7
 74
     0
 91
        0
 64
     7
 65
   257
 75
     1
175
     1
 42
1.0
 92
        8
 66
     7
 43
1.0
 76
     1
 77
     6
 78
     2
 67
     7
 79
     5
170
     0
171
     0
290
     0
174
     0
 93
       13
 44
0.0
173
     0
291
     1
 45
0.0
1001
ACAD
1000
AcDbSavedByObjectVersion
1070
     0
  0
VISUALSTYLE
  5
2B
102
{ACAD_XDICTIONARY
360
28E
102
}
102
{ACAD_REACTORS
330
29
102
}
330
29
100
AcDbVisualStyle
  2
FlatWithEdges
 70
     1
 71
     2
 72
     1
 73
     1
 90
        2
 40
-0.6
 41
30.0
 62
     5
 63
     7
 74
     1
 91
        0
 64
     7
 65
   257
 75
     1
175
     1
 42
1.0
 92
        0
 66
   257
 43
1.0
 76
     1
 77
     6
 78
     2
 67
     7
 79
     5
170
     0
171
     0
290
     0
174
     0
 93
       13
 44
0.0
173
     0
291
     1
 45
0.0
1001
ACAD
1000
AcDbSavedByObjectVersion
1070
     0
  0
VISUALSTYLE
  5
2C
102
{ACAD_XDICTIONARY
360
290
102
}
102
{ACAD_REACTORS
330
29
102
}
330
29
100
AcDbVisualStyle
  2
Gouraud
 70
     2
 71
     2
 72
     2
 73
     1
 90
        2
 40
-0.6
 41
30.0
 62
     5
 63
     7
 74
     0
 91
        0
 64
     7
 65
   257
 75
     1
175
     1
 42
1.0
 92
        0
 66
     7
 43
1.0
 76
     1
 77
     6
 78
     2
 67
     7
 79
     5
170
     0
171
     0
290
     0
174
     0
 93
       13
 44
0.0
173
     0
291
     1
 45
0.0
1001
ACAD
1000
AcDbSavedByObjectVersion
1070
     0
  0
VISUALSTYLE
  5
2D
102
{ACAD_XDICTIONARY
360
292
102
}
102
{ACAD_REACTORS
330
29
102
}
330
29
100
AcDbVisualStyle
  2
GouraudWithEdges
 70
     3
 71
     2
 72
     2
 73
     1
 90
        2
 40
-0.6
 41
30.0
 62
     5
 63
     7
 74
     1
 91
        0
 64
     7
 65
   257
 75
     1
175
     1
 42
1.0
 92
        0
 66
   257
 43
1.0
 76
     1
 77
     6
 78
     2
 67
     7
 79
     5
170
     0
171
     0
290
     0
174
     0
 93
       13
 44
0.0
173
     0
291
     1
 45
0.0
1001
ACAD
1000
AcDbSavedByObjectVersion
1070
     0
  0
VISUALSTYLE
  5
31
102
{ACAD_XDICTIONARY
360
29A
102
}
102
{ACAD_REACTORS
330
29
102
}
330
29
100
AcDbVisualStyle
  2
Hidden
 70
     6
 71
     1
 72
     2
 73
     2
 90
        0
 40
-0.6
 41
-30.0
 62
     5
 63
     7
 74
     2
 91
        2
 64
     7
 65
   257
 75
     2
175
     1
 42
40.0
 92
        0
 66
   257
 43
1.0
 76
     1
 77
     6
 78
     2
 67
     7
 79
     3
170
     0
171
     0
290
     0
174
     0
 93
        1
 44
0.0
173
     0
291
     0
 45
0.0
1001
ACAD
1000
AcDbSavedByObjectVersion
1070
     0
  0
VISUALSTYLE
  5
3F
102
{ACAD_XDICTIONARY
360
2B6
102
}
102
{ACAD_REACTORS
330
29
102
}
330
29
100
AcDbVisualStyle
  2
JitterOff
 70
    20
 71
     2
 72
     2
 73
     0
 90
        0
 40
-0.6
 41
-30.0
 62
     5
 63
     7
 74
     1
 91
        4
 64
     7
 65
   257
 75
     1
175
     1
 42
1.0
 92
       10
 66
     7
 43
1.0
 76
     1
 77
     6
 78
     2
 67
     7
 79
     5
170
     0
171
     0
290
     0
174
     0
 93
        1
 44
0.0
173
     0
291
     1
 45
0.0
1001
ACAD
1000
AcDbSavedByObjectVersion
1070
     0
  0
VISUALSTYLE
  5
37
102
{ACAD_XDICTIONARY
360
2A6
102
}
102
{ACAD_REACTORS
330
29
102
}
330
29
100
AcDbVisualStyle
  2
Linepattern
 70
    14
 71
     2
 72
     2
 73
     0
 90
        0
 40
-0.6
 41
-30.0
 62
     5
 63
     7
 74
     1
 91
        4
 64
     7
 65
   257
 75
     7
175
     7
 42
1.0
 92
        8
 66
     7
 43
1.0
 76
     1
 77
     6
 78
     2
 67
     7
 79
     5
170
     0
171
     0
290
     0
174
     0
 93
        1
 44
0.0
173
     0
291
     1
 45
0.0
1001
ACAD
1000
AcDbSavedByObjectVersion
1070
     0
  0
VISUALSTYLE
  5
40
102
{ACAD_XDICTIONARY
360
2B8
102
}
102
{ACAD_REACTORS
330
29
102
}
330
29
100
AcDbVisualStyle
  2
OverhangOff
 70
    21
 71
     2
 72
     2
 73
     0
 90
        0
 40
-0.6
 41
-30.0
 62
     5
 63
     7
 74
     1
 91
        4
 64
     7
 65
   257
 75
     1
175
     1
 42
1.0
 92
        9
 66
     7
 43
1.0
 76
     1
 77
     6
 78
     2
 67
     7
 79
     5
170
     0
171
     0
290
     0
174
     0
 93
        1
 44
0.0
173
     0
291
     1
 45
0.0
1001
ACAD
1000
AcDbSavedByObjectVersion
1070
     0
  0
VISUALSTYLE
  5
33
102
{ACAD_XDICTIONARY
360
29E
102
}
102
{ACAD_REACTORS
330
29
102
}
330
29
100
AcDbVisualStyle
  2
Realistic
 70
     8
 71
     2
 72
     3
 73
     0
 90
        2
 40
-0.6
 41
30.0
 62
     5
 63
     7
 74
     0
 91
        0
 64
     7
 65
   257
 75
     1
175
     1
 42
1.0
 92
        8
 66
   257
 43
1.0
 76
     1
 77
     6
 78
     2
 67
     7
 79
     3
170
     0
171
     0
290
     0
174
     0
 93
       13
 44
0.0
173
     0
291
     0
 45
0.0
1001
ACAD
1000
AcDbSavedByObjectVersion
1070
     0
  0
VISUALSTYLE
  5
3E
102
{ACAD_XDICTIONARY
360
2B4
102
}
102
{ACAD_REACTORS
330
29
102
}
330
29
100
AcDbVisualStyle
  2
Shaded
 70
    27
 71
     2
 72
     2
 73
     1
 90
        2
 40
-0.6
 41
30.0
 62
     5
 63
     7
 74
     0
 91
        4
 64
     7
 65
   257
 75
     1
175
     1
 42
1.0
 92
        8
 66
   257
 43
1.0
 76
     1
 77
     6
 78
     2
 67
     8
 79
     3
170
     0
171
     0
290
     0
174
     0
 93
        5
 44
0.0
173
     0
291
     0
 45
0.0
1001
ACAD
1000
AcDbSavedByObjectVersion
1070
     0
  0
VISUALSTYLE
  5
3D
102
{ACAD_XDICTIONARY
360
2B2
102
}
102
{ACAD_REACTORS
330
29
102
}
330
29
100
AcDbVisualStyle
  2
Shaded with edges
 70
    26
 71
     2
 72
     2
 73
     1
 90
        2
 40
-0.6
 41
30.0
 62
     5
 63
     7
 74
     1
 91
       10
 64
     7
 65
   257
 75
     2
175
     1
 42
1.0
 92
        8
 66
   257
 43
1.0
 76
     1
 77
     6
 78
     2
 67
     7
 79
     3
170
     0
171
     0
290
     0
174
     0
 93
        5
 44
0.0
173
     0
291
     0
 45
0.0
1001
ACAD
1000
AcDbSavedByObjectVersion
1070
     0
  0
VISUALSTYLE
  5
3A
102
{ACAD_XDICTIONARY
360
2AC
102
}
102
{ACAD_REACTORS
330
29
102
}
330
29
100
AcDbVisualStyle
  2
Shades of Gray
 70
    23
 71
     2
 72
     2
 73
     3
 90
        0
 40
-0.6
 41
-30.0
 62
     5
 63
     7
 74
     2
 91
        2
 64
     7
 65
     7
 75
     1
175
     1
 42
40.0
 92
        8
 66
     7
 43
1.0
 76
     1
 77
     6
 78
     2
 67
     7
 79
     3
170
     0
171
     0
290
     0
174
     0
 93
        1
 44
0.0
173
     0
291
     0
 45
0.0
1001
ACAD
1000
AcDbSavedByObjectVersion
1070
     0
  0
VISUALSTYLE
  5
3B
102
{ACAD_XDICTIONARY
360
2AE
102
}
102
{ACAD_REACTORS
330
29
102
}
330
29
100
AcDbVisualStyle
  2
Sketchy
 70
    24
 71
     1
 72
     2
 73
     2
 90
        0
 40
-0.6
 41
-30.0
 62
     5
 63
     7
 74
     2
 91
        2
 64
     7
 65
     7
 75
     1
175
     1
 42
40.0
 92
       11
 66
     7
 43
1.0
 76
     1
 77
     6
 78
     2
 67
     7
 79
     6
170
     0
171
     0
290
     0
174
     0
 93
        1
 44
0.0
173
     0
291
     0
 45
0.0
1001
ACAD
1000
AcDbSavedByObjectVersion
1070
     0
  0
VISUALSTYLE
  5
36
102
{ACAD_XDICTIONARY
360
2A4
102
}
102
{ACAD_REACTORS
330
29
102
}
330
29
100
AcDbVisualStyle
  2
Thicken
 70
    13
 71
     2
 72
     2
 73
     0
 90
        0
 40
-0.6
 41
-30.0
 62
     5
 63
     7
 74
     1
 91
        4
 64
     7
 65
   257
 75
     1
175
     1
 42
1.0
 92
       12
 66
     7
 43
1.0
 76
     1
 77
     6
 78
     2
 67
     7
 79
     5
170
     0
171
     0
290
     0
174
     0
 93
        1
 44
0.0
173
     0
291
     1
 45
0.0
1001
ACAD
1000
AcDbSavedByObjectVersion
1070
     0
  0
VISUALSTYLE
  5
30
102
{ACAD_XDICTIONARY
360
298
102
}
102
{ACAD_REACTORS
330
29
102
}
330
29
100
AcDbVisualStyle
  2
Wireframe
 70
     5
 71
     0
 72
     2
 73
     0
 90
        0
 40
-0.6
 41
-30.0
 62
     5
 63
     7
 74
     1
 91
        4
 64
     7
 65
   257
 75
     1
175
     1
 42
1.0
 92
        0
 66
   257
 43
1.0
 76
     1
 77
     6
 78
     2
 67
     7
 79
     3
170
     0
171
     0
290
     0
174
     0
 93
        1
 44
0.0
173
     0
291
     0
 45
0.0
1001
ACAD
1000
AcDbSavedByObjectVersion
1070
     0
  0
VISUALSTYLE
  5
3C
102
{ACAD_XDICTIONARY
360
2B0
102
}
102
{ACAD_REACTORS
330
29
102
}
330
29
100
AcDbVisualStyle
  2
X-Ray
 70
    25
 71
     2
 72
     2
 73
     1
 90
        1
 40
0.5
 41
-30.0
 62
     5
 63
     7
 74
     1
 91
        0
 64
     7
 65
   257
 75
     1
175
     1
 42
1.0
 92
        8
 66
     7
 43
1.0
 76
     1
 77
     6
 78
     2
 67
     7
 79
     3
170
     0
171
     0
290
     0
174
     0
 93
       13
 44
0.0
173
     0
291
     0
 45
0.0
1001
ACAD
1000
AcDbSavedByObjectVersion
1070
     0
  0
DICTIONARYVAR
  5
27C
102
{ACAD_REACTORS
330
278
102
}
330
278
100
DictionaryVariables
280
     0
  1
1:1
  0
DICTIONARYVAR
  5
27A
102
{ACAD_REACTORS
330
278
102
}
330
278
100
DictionaryVariables
280
     0
  1
STANDARD
  0
DICTIONARYVAR
  5
279
102
{ACAD_REACTORS
330
278
102
}
330
278
100
DictionaryVariables
280
     0
  1
STANDARD
  0
DICTIONARYVAR
  5
283
102
{ACAD_REACTORS
330
278
102
}
330
278
100
DictionaryVariables
280
     0
  1
1
  0
DICTIONARYVAR
  5
282
102
{ACAD_REACTORS
330
278
102
}
330
278
100
DictionaryVariables
280
     0
  1
1
  0
DICTIONARYVAR
  5
281
102
{ACAD_REACTORS
330
278
102
}
330
278
100
DictionaryVariables
280
     0
  1
0
  0
DICTIONARYVAR
  5
27E
102
{ACAD_REACTORS
330
278
102
}
330
278
100
DictionaryVariables
280
     0
  1
0
  0
DICTIONARYVAR
  5
27F
102
{ACAD_REACTORS
330
278
102
}
330
278
100
DictionaryVariables
280
     0
  1
0
  0
DICTIONARYVAR
  5
27D
102
{ACAD_REACTORS
330
278
102
}
330
278
100
DictionaryVariables
280
     0
  1
2
  0
DICTIONARYVAR
  5
27B
102
{ACAD_REACTORS
330
278
102
}
330
278
100
DictionaryVariables
280
     0
  1
1
  0
DICTIONARYVAR
  5
280
102
{ACAD_REACTORS
330
278
102
}
330
278
100
DictionaryVariables
280
     0
  1
127
  0
DICTIONARYVAR
  5
284
102
{ACAD_REACTORS
330
278
102
}
330
278
100
DictionaryVariables
280
     0
  1
2
  0
DICTIONARY
  5
2BE
330
6B
100
AcDbDictionary
280
     1
281
     1
  3
ACAD_XREC_ROUNDTRIP
360
2BF
  0
DICTIONARY
  5
2C2
330
73
100
AcDbDictionary
280
     1
281
     1
  3
ACAD_XREC_ROUNDTRIP
360
2C3
  0
DICTIONARY
  5
2C0
330
6F
100
AcDbDictionary
280
     1
281
     1
  3
ACAD_XREC_ROUNDTRIP
360
2C1
  0
DICTIONARY
  5
1A
330
19
100
AcDbDictionary
280
     1
281
     1
  3
ACAD_XREC_ROUNDTRIP
360
28A
  3
BUMPTILE
360
1C
  3
DIFFUSETILE
360
1B
  3
OPACITYTILE
360
1F
  3
REFLECTIONTILE
360
1E
  3
REFRACTIONTILE
360
20
  3
SPECULARTILE
360
1D
  0
DICTIONARY
  5
12
330
11
100
AcDbDictionary
280
     1
281
     1
  3
ACAD_XREC_ROUNDTRIP
360
289
  3
BUMPTILE
360
14
  3
DIFFUSETILE
360
13
  3
OPACITYTILE
360
17
  3
REFLECTIONTILE
360
16
  3
REFRACTIONTILE
360
18
  3
SPECULARTILE
360
15
  0
DICTIONARY
  5
22
330
21
100
AcDbDictionary
280
     1
281
     1
  3
ACAD_XREC_ROUNDTRIP
360
28B
  3
BUMPTILE
360
24
  3
DIFFUSETILE
360
23
  3
OPACITYTILE
360
27
  3
REFLECTIONTILE
360
26
  3
REFRACTIONTILE
360
28
  3
SPECULARTILE
360
25
  0
DICTIONARY
  5
285
330
65
100
AcDbDictionary
280
     1
281
     1
  3
ACAD_ROUNDTRIP_2008_TABLESTYLE_CELLSTYLEMAP
360
286
  3
ACAD_XREC_ROUNDTRIP
360
2BC
  0
DICTIONARY
  5
296
330
2F
100
AcDbDictionary
280
     1
281
     1
  3
ACAD_XREC_ROUNDTRIP
360
297
  0
DICTIONARY
  5
294
330
2E
100
AcDbDictionary
280
     1
281
     1
  3
ACAD_XREC_ROUNDTRIP
360
295
  0
DICTIONARY
  5
2A2
330
35
100
AcDbDictionary
280
     1
281
     1
  3
ACAD_XREC_ROUNDTRIP
360
2A3
  0
DICTIONARY
  5
2AA
330
39
100
AcDbDictionary
280
     1
281
     1
  3
ACAD_XREC_ROUNDTRIP
360
2AB
  0
DICTIONARY
  5
29C
330
32
100
AcDbDictionary
280
     1
281
     1
  3
ACAD_XREC_ROUNDTRIP
360
29D
  0
DICTIONARY
  5
2A0
330
34
100
AcDbDictionary
280
     1
281
     1
  3
ACAD_XREC_ROUNDTRIP
360
2A1
  0
DICTIONARY
  5
2BA
330
41
100
AcDbDictionary
280
     1
281
     1
  3
ACAD_XREC_ROUNDTRIP
360
2BB
  0
DICTIONARY
  5
2A8
330
38
100
AcDbDictionary
280
     1
281
     1
  3
ACAD_XREC_ROUNDTRIP
360
2A9
  0
DICTIONARY
  5
28C
330
2A
100
AcDbDictionary
280
     1
281
     1
  3
ACAD_XREC_ROUNDTRIP
360
28D
  0
DICTIONARY
  5
28E
330
2B
100
AcDbDictionary
280
     1
281
     1
  3
ACAD_XREC_ROUNDTRIP
360
28F
  0
DICTIONARY
  5
290
330
2C
100
AcDbDictionary
280
     1
281
     1
  3
ACAD_XREC_ROUNDTRIP
360
291
  0
DICTIONARY
  5
292
330
2D
100
AcDbDictionary
280
     1
281
     1
  3
ACAD_XREC_ROUNDTRIP
360
293
  0
DICTIONARY
  5
29A
330
31
100
AcDbDictionary
280
     1
281
     1
  3
ACAD_XREC_ROUNDTRIP
360
29B
  0
DICTIONARY
  5
2B6
330
3F
100
AcDbDictionary
280
     1
281
     1
  3
ACAD_XREC_ROUNDTRIP
360
2B7
  0
DICTIONARY
  5
2A6
330
37
100
AcDbDictionary
280
     1
281
     1
  3
ACAD_XREC_ROUNDTRIP
360
2A7
  0
DICTIONARY
  5
2B8
330
40
100
AcDbDictionary
280
     1
281
     1
  3
ACAD_XREC_ROUNDTRIP
360
2B9
  0
DICTIONARY
  5
29E
330
33
100
AcDbDictionary
280
     1
281
     1
  3
ACAD_XREC_ROUNDTRIP
360
29F
  0
DICTIONARY
  5
2B4
330
3E
100
AcDbDictionary
280
     1
281
     1
  3
ACAD_XREC_ROUNDTRIP
360
2B5
  0
DICTIONARY
  5
2B2
330
3D
100
AcDbDictionary
280
     1
281
     1
  3
ACAD_XREC_ROUNDTRIP
360
2B3
  0
DICTIONARY
  5
2AC
330
3A
100
AcDbDictionary
280
     1
281
     1
  3
ACAD_XREC_ROUNDTRIP
360
2AD
  0
DICTIONARY
  5
2AE
330
3B
100
AcDbDictionary
280
     1
281
     1
  3
ACAD_XREC_ROUNDTRIP
360
2AF
  0
DICTIONARY
  5
2A4
330
36
100
AcDbDictionary
280
     1
281
     1
  3
ACAD_XREC_ROUNDTRIP
360
2A5
  0
DICTIONARY
  5
298
330
30
100
AcDbDictionary
280
     1
281
     1
  3
ACAD_XREC_ROUNDTRIP
360
299
  0
DICTIONARY
  5
2B0
330
3C
100
AcDbDictionary
280
     1
281
     1
  3
ACAD_XREC_ROUNDTRIP
360
2B1
  0
XRECORD
  5
2BF
102
{ACAD_REACTORS
330
2BE
102
}
330
2BE
100
AcDbXrecord
280
     1
102
SHADEPLOT
 70
     0
102
SHADEPLOTRESLEVEL
 70
     2
102
SHADEPLOTCUSTOMDPI
 70
   300
  0
XRECORD
  5
2C3
102
{ACAD_REACTORS
330
2C2
102
}
330
2C2
100
AcDbXrecord
280
     1
102
SHADEPLOT
 70
     0
102
SHADEPLOTRESLEVEL
 70
     2
102
SHADEPLOTCUSTOMDPI
 70
   300
  0
XRECORD
  5
2C1
102
{ACAD_REACTORS
330
2C0
102
}
330
2C0
100
AcDbXrecord
280
     1
102
SHADEPLOT
 70
     0
102
SHADEPLOTRESLEVEL
 70
     2
102
SHADEPLOTCUSTOMDPI
 70
   300
  0
XRECORD
  5
28A
102
{ACAD_REACTORS
330
1A
102
}
330
1A
100
AcDbXrecord
280
     1
102
MATERIAL
148
0.0
149
0.0
149
0.0
 93
        0
 94
      127
282
     0
 72
     0
 77
     0
171
     0
175
     0
179
     0
273
     0
  0
XRECORD
  5
1C
102
{ACAD_REACTORS
330
1A
102
}
330
1A
100
AcDbXrecord
280
     1
270
     1
271
     1
  0
XRECORD
  5
1B
102
{ACAD_REACTORS
330
1A
102
}
330
1A
100
AcDbXrecord
280
     1
270
     1
271
     1
  0
XRECORD
  5
1F
102
{ACAD_REACTORS
330
1A
102
}
330
1A
100
AcDbXrecord
280
     1
270
     1
271
     1
  0
XRECORD
  5
1E
102
{ACAD_REACTORS
330
1A
102
}
330
1A
100
AcDbXrecord
280
     1
270
     1
271
     1
  0
XRECORD
  5
20
102
{ACAD_REACTORS
330
1A
102
}
330
1A
100
AcDbXrecord
280
     1
270
     1
271
     1
  0
XRECORD
  5
1D
102
{ACAD_REACTORS
330
1A
102
}
330
1A
100
AcDbXrecord
280
     1
270
     1
271
     1
  0
XRECORD
  5
289
102
{ACAD_REACTORS
330
12
102
}
330
12
100
AcDbXrecord
280
     1
102
MATERIAL
148
0.0
149
0.0
149
0.0
 93
        0
 94
      127
282
     0
 72
     0
 77
     0
171
     0
175
     0
179
     0
273
     0
  0
XRECORD
  5
14
102
{ACAD_REACTORS
330
12
102
}
330
12
100
AcDbXrecord
280
     1
270
     1
271
     1
  0
XRECORD
  5
13
102
{ACAD_REACTORS
330
12
102
}
330
12
100
AcDbXrecord
280
     1
270
     1
271
     1
  0
XRECORD
  5
17
102
{ACAD_REACTORS
330
12
102
}
330
12
100
AcDbXrecord
280
     1
270
     1
271
     1
  0
XRECORD
  5
16
102
{ACAD_REACTORS
330
12
102
}
330
12
100
AcDbXrecord
280
     1
270
     1
271
     1
  0
XRECORD
  5
18
102
{ACAD_REACTORS
330
12
102
}
330
12
100
AcDbXrecord
280
     1
270
     1
271
     1
  0
XRECORD
  5
15
102
{ACAD_REACTORS
330
12
102
}
330
12
100
AcDbXrecord
280
     1
270
     1
271
     1
  0
XRECORD
  5
28B
102
{ACAD_REACTORS
330
22
102
}
330
22
100
AcDbXrecord
280
     1
102
MATERIAL
148
0.0
149
0.0
149
0.0
 93
        0
 94
      127
282
     0
 72
     0
 77
     0
171
     0
175
     0
179
     0
273
     0
  0
XRECORD
  5
24
102
{ACAD_REACTORS
330
22
102
}
330
22
100
AcDbXrecord
280
     1
270
     1
271
     1
  0
XRECORD
  5
23
102
{ACAD_REACTORS
330
22
102
}
330
22
100
AcDbXrecord
280
     1
270
     1
271
     1
  0
XRECORD
  5
27
102
{ACAD_REACTORS
330
22
102
}
330
22
100
AcDbXrecord
280
     1
270
     1
271
     1
  0
XRECORD
  5
26
102
{ACAD_REACTORS
330
22
102
}
330
22
100
AcDbXrecord
280
     1
270
     1
271
     1
  0
XRECORD
  5
28
102
{ACAD_REACTORS
330
22
102
}
330
22
100
AcDbXrecord
280
     1
270
     1
271
     1
  0
XRECORD
  5
25
102
{ACAD_REACTORS
330
22
102
}
330
22
100
AcDbXrecord
280
     1
270
     1
271
     1
  0
CELLSTYLEMAP
  5
286
102
{ACAD_REACTORS
330
285
102
}
330
285
100
AcDbCellStyleMap
 90
        3
300
CELLSTYLE
  1
TABLEFORMAT_BEGIN
 90
        5
170
     1
 91
        0
 92
    32768
 62
   257
 93
        1
300
CONTENTFORMAT
  1
CONTENTFORMAT_BEGIN
 90
        0
 91
        0
 92
      512
 93
        0
300

 40
0.0
140
1.0
 94
        5
 62
     0
340
55
144
0.25
309
CONTENTFORMAT_END
171
     0
 94
        0
309
TABLEFORMAT_END
  1
CELLSTYLE_BEGIN
 90
        1
 91
        1
300
_TITLE
309
CELLSTYLE_END
300
CELLSTYLE
  1
TABLEFORMAT_BEGIN
 90
        5
170
     1
 91
        0
 92
        0
 62
   257
 93
        1
300
CONTENTFORMAT
  1
CONTENTFORMAT_BEGIN
 90
        0
 91
        0
 92
      512
 93
        0
300

 40
0.0
140
1.0
 94
        5
 62
     0
340
55
144
0.18
309
CONTENTFORMAT_END
171
     0
 94
        0
309
TABLEFORMAT_END
  1
CELLSTYLE_BEGIN
 90
        2
 91
        1
300
_HEADER
309
CELLSTYLE_END
300
CELLSTYLE
  1
TABLEFORMAT_BEGIN
 90
        5
170
     1
 91
        0
 92
        0
 62
   257
 93
        1
300
CONTENTFORMAT
  1
CONTENTFORMAT_BEGIN
 90
        0
 91
        0
 92
      512
 93
        0
300

 40
0.0
140
1.0
 94
        2
 62
     0
340
55
144
0.18
309
CONTENTFORMAT_END
171
     0
 94
        0
309
TABLEFORMAT_END
  1
CELLSTYLE_BEGIN
 90
        3
 91
        2
300
_DATA
309
CELLSTYLE_END
  0
XRECORD
  5
2BC
102
{ACAD_REACTORS
330
285
102
}
330
285
100
AcDbXrecord
280
     1
102
ACAD_ROUNDTRIP_PRE2007_TABLESTYLE
 90
      512
 91
        0
  1

 92
      512
 93
        0
  2

 94
      512
 95
        0
  3

  0
XRECORD
  5
297
102
{ACAD_REACTORS
330
296
102
}
330
296
100
AcDbXrecord
280
     1
102
RTVSPropertyOp0
 70
     1
102
RTVSPropertyOp1
 70
     1
102
RTVSPropertyOp2
 70
     1
102
RTVSPropertyOp3
 70
     1
102
RTVSPropertyOp4
 70
     1
102
RTVSPropertyOp5
 70
     1
102
RTVSPropertyOp6
 70
     1
102
RTVSPropertyOp7
 70
     1
102
RTVSPropertyOp8
 70
     1
102
RTVSPropertyOp9
 70
     1
102
RTVSPropertyOp10
 70
     1
102
RTVSPropertyOp11
 70
     1
102
RTVSPropertyOp12
 70
     1
102
RTVSPropertyOp13
 70
     1
102
RTVSPropertyOp14
 70
     1
102
RTVSPropertyOp15
 70
     1
102
RTVSPropertyOp16
 70
     1
102
RTVSPropertyOp17
 70
     1
102
RTVSPropertyOp18
 70
     1
102
RTVSPropertyOp19
 70
     1
102
RTVSPropertyOp20
 70
     1
102
RTVSPropertyOp21
 70
     1
102
RTVSPropertyOp22
 70
     1
102
RTVSPropertyOp23
 70
     1
102
RTVSPropertyOp24
 70
     1
102
RTVSPropertyOp25
 70
     1
102
RTVSPropertyOp26
 70
     1
102
RTVSPropertyOp27
 70
     1
102
RTVSPropertyOp28
 70
     1
102
RTVSPropertyOp29
 70
     1
102
RTVSPropertyOp30
 70
     1
102
RTVSPropertyOp31
 70
     1
102
RTVSPropertyOp32
 70
     1
  0
XRECORD
  5
295
102
{ACAD_REACTORS
330
294
102
}
330
294
100
AcDbXrecord
280
     1
102
RTVSPropertyOp0
 70
     1
102
RTVSPropertyOp1
 70
     1
102
RTVSPropertyOp2
 70
     1
102
RTVSPropertyOp3
 70
     1
102
RTVSPropertyOp4
 70
     1
102
RTVSPropertyOp5
 70
     1
102
RTVSPropertyOp6
 70
     1
102
RTVSPropertyOp7
 70
     1
102
RTVSPropertyOp8
 70
     1
102
RTVSPropertyOp9
 70
     1
102
RTVSPropertyOp10
 70
     1
102
RTVSPropertyOp11
 70
     1
102
RTVSPropertyOp12
 70
     1
102
RTVSPropertyOp13
 70
     1
102
RTVSPropertyOp14
 70
     1
102
RTVSPropertyOp15
 70
     1
102
RTVSPropertyOp16
 70
     1
102
RTVSPropertyOp17
 70
     1
102
RTVSPropertyOp18
 70
     1
102
RTVSPropertyOp19
 70
     1
102
RTVSPropertyOp20
 70
     1
102
RTVSPropertyOp21
 70
     1
102
RTVSPropertyOp22
 70
     1
102
RTVSPropertyOp23
 70
     1
102
RTVSPropertyOp24
 70
     1
102
RTVSPropertyOp25
 70
     1
102
RTVSPropertyOp26
 70
     1
102
RTVSPropertyOp27
 70
     1
102
RTVSPropertyOp28
 70
     1
102
RTVSPropertyOp29
 70
     1
102
RTVSPropertyOp30
 70
     1
102
RTVSPropertyOp31
 70
     1
102
RTVSPropertyOp32
 70
     1
  0
XRECORD
  5
2A3
102
{ACAD_REACTORS
330
2A2
102
}
330
2A2
100
AcDbXrecord
280
     1
102
RTVSPropertyOp0
 70
     1
102
RTVSPropertyOp1
 70
     1
102
RTVSPropertyOp2
 70
     1
102
RTVSPropertyOp3
 70
     1
102
RTVSPropertyOp4
 70
     1
102
RTVSPropertyOp5
 70
     1
102
RTVSPropertyOp6
 70
     1
102
RTVSPropertyOp7
 70
     1
102
RTVSPropertyOp8
 70
     1
102
RTVSPropertyOp9
 70
     1
102
RTVSPropertyOp10
 70
     1
102
RTVSPropertyOp11
 70
     1
102
RTVSPropertyOp12
 70
     1
102
RTVSPropertyOp13
 70
     1
102
RTVSPropertyOp14
 70
     1
102
RTVSPropertyOp15
 70
     1
102
RTVSPropertyOp16
 70
     1
102
RTVSPropertyOp17
 70
     1
102
RTVSPropertyOp18
 70
     1
102
RTVSPropertyOp19
 70
     1
102
RTVSPropertyOp20
 70
     1
102
RTVSPropertyOp21
 70
     1
102
RTVSPropertyOp22
 70
     1
102
RTVSPropertyOp23
 70
     1
102
RTVSPropertyOp24
 70
     1
102
RTVSPropertyOp25
 70
     1
102
RTVSPropertyOp26
 70
     1
102
RTVSPropertyOp27
 70
     1
102
RTVSPropertyOp28
 70
     1
102
RTVSPropertyOp29
 70
     1
102
RTVSPropertyOp30
 70
     1
102
RTVSPropertyOp31
 70
     1
102
RTVSPropertyOp32
 70
     1
  0
XRECORD
  5
2AB
102
{ACAD_REACTORS
330
2AA
102
}
330
2AA
100
AcDbXrecord
280
     1
102
RTVSPropertyOp0
 70
     1
102
RTVSPropertyOp1
 70
     1
102
RTVSPropertyOp2
 70
     1
102
RTVSPropertyOp3
 70
     1
102
RTVSPropertyOp4
 70
     1
102
RTVSPropertyOp5
 70
     1
102
RTVSPropertyOp6
 70
     1
102
RTVSPropertyOp7
 70
     1
102
RTVSPropertyOp8
 70
     1
102
RTVSPropertyOp9
 70
     1
102
RTVSPropertyOp10
 70
     1
102
RTVSPropertyOp11
 70
     1
102
RTVSPropertyOp12
 70
     1
102
RTVSPropertyOp13
 70
     1
102
RTVSPropertyOp14
 70
     1
102
RTVSPropertyOp15
 70
     1
102
RTVSPropertyOp16
 70
     1
102
RTVSPropertyOp17
 70
     1
102
RTVSPropertyOp18
 70
     1
102
RTVSPropertyOp19
 70
     1
102
RTVSPropertyOp20
 70
     1
102
RTVSPropertyOp21
 70
     1
102
RTVSPropertyOp22
 70
     1
102
RTVSPropertyOp23
 70
     1
102
RTVSPropertyOp24
 70
     1
102
RTVSPropertyOp25
 70
     1
102
RTVSPropertyOp26
 70
     1
102
RTVSPropertyOp27
 70
     1
102
RTVSPropertyOp28
 70
     1
102
RTVSPropertyOp29
 70
     1
102
RTVSPropertyOp30
 70
     1
102
RTVSPropertyOp31
 70
     1
102
RTVSPropertyOp32
 70
     1
  0
XRECORD
  5
29D
102
{ACAD_REACTORS
330
29C
102
}
330
29C
100
AcDbXrecord
280
     1
102
RTVSPropertyOp0
 70
     1
102
RTVSPropertyOp1
 70
     1
102
RTVSPropertyOp2
 70
     1
102
RTVSPropertyOp3
 70
     1
102
RTVSPropertyOp4
 70
     1
102
RTVSPropertyOp5
 70
     1
102
RTVSPropertyOp6
 70
     1
102
RTVSPropertyOp7
 70
     1
102
RTVSPropertyOp8
 70
     1
102
RTVSPropertyOp9
 70
     1
102
RTVSPropertyOp10
 70
     1
102
RTVSPropertyOp11
 70
     1
102
RTVSPropertyOp12
 70
     1
102
RTVSPropertyOp13
 70
     1
102
RTVSPropertyOp14
 70
     1
102
RTVSPropertyOp15
 70
     1
102
RTVSPropertyOp16
 70
     1
102
RTVSPropertyOp17
 70
     1
102
RTVSPropertyOp18
 70
     1
102
RTVSPropertyOp19
 70
     1
102
RTVSPropertyOp20
 70
     1
102
RTVSPropertyOp21
 70
     1
102
RTVSPropertyOp22
 70
     1
102
RTVSPropertyOp23
 70
     1
102
RTVSPropertyOp24
 70
     1
102
RTVSPropertyOp25
 70
     1
102
RTVSPropertyOp26
 70
     1
102
RTVSPropertyOp27
 70
     1
102
RTVSPropertyOp28
 70
     1
102
RTVSPropertyOp29
 70
     1
102
RTVSPropertyOp30
 70
     1
102
RTVSPropertyOp31
 70
     1
102
RTVSPropertyOp32
 70
     1
  0
XRECORD
  5
2A1
102
{ACAD_REACTORS
330
2A0
102
}
330
2A0
100
AcDbXrecord
280
     1
102
RTVSPropertyOp0
 70
     1
102
RTVSPropertyOp1
 70
     1
102
RTVSPropertyOp2
 70
     1
102
RTVSPropertyOp3
 70
     1
102
RTVSPropertyOp4
 70
     1
102
RTVSPropertyOp5
 70
     1
102
RTVSPropertyOp6
 70
     1
102
RTVSPropertyOp7
 70
     1
102
RTVSPropertyOp8
 70
     1
102
RTVSPropertyOp9
 70
     1
102
RTVSPropertyOp10
 70
     1
102
RTVSPropertyOp11
 70
     1
102
RTVSPropertyOp12
 70
     1
102
RTVSPropertyOp13
 70
     1
102
RTVSPropertyOp14
 70
     1
102
RTVSPropertyOp15
 70
     1
102
RTVSPropertyOp16
 70
     1
102
RTVSPropertyOp17
 70
     1
102
RTVSPropertyOp18
 70
     1
102
RTVSPropertyOp19
 70
     1
102
RTVSPropertyOp20
 70
     1
102
RTVSPropertyOp21
 70
     1
102
RTVSPropertyOp22
 70
     1
102
RTVSPropertyOp23
 70
     1
102
RTVSPropertyOp24
 70
     1
102
RTVSPropertyOp25
 70
     1
102
RTVSPropertyOp26
 70
     1
102
RTVSPropertyOp27
 70
     1
102
RTVSPropertyOp28
 70
     1
102
RTVSPropertyOp29
 70
     1
102
RTVSPropertyOp30
 70
     1
102
RTVSPropertyOp31
 70
     1
102
RTVSPropertyOp32
 70
     1
  0
XRECORD
  5
2BB
102
{ACAD_REACTORS
330
2BA
102
}
330
2BA
100
AcDbXrecord
280
     1
102
RTVSPropertyOp0
 70
     0
102
RTVSPropertyOp1
 70
     0
102
RTVSPropertyOp2
 70
     0
102
RTVSPropertyOp3
 70
     0
102
RTVSPropertyOp4
 70
     0
102
RTVSPropertyOp5
 70
     0
102
RTVSPropertyOp6
 70
     0
102
RTVSPropertyOp7
 70
     0
102
RTVSPropertyOp8
 70
     0
102
RTVSPropertyOp9
 70
     0
102
RTVSPropertyOp10
 70
     0
102
RTVSPropertyOp11
 70
     0
102
RTVSPropertyOp12
 70
     0
102
RTVSPropertyOp13
 70
     0
102
RTVSPropertyOp14
 70
     2
102
RTVSPropertyOp15
 70
     0
102
RTVSPropertyOp16
 70
     0
102
RTVSPropertyOp17
 70
     0
102
RTVSPropertyOp18
 70
     0
102
RTVSPropertyOp19
 70
     0
102
RTVSPropertyOp20
 70
     0
102
RTVSPropertyOp21
 70
     0
102
RTVSPropertyOp22
 70
     0
102
RTVSPropertyOp23
 70
     0
102
RTVSPropertyOp24
 70
     0
102
RTVSPropertyOp25
 70
     0
102
RTVSPropertyOp26
 70
     0
102
RTVSPropertyOp27
 70
     0
102
RTVSPropertyOp28
 70
     0
102
RTVSPropertyOp29
 70
     0
102
RTVSPropertyOp30
 70
     0
102
RTVSPropertyOp31
 70
     0
102
RTVSPropertyOp32
 70
     0
  0
XRECORD
  5
2A9
102
{ACAD_REACTORS
330
2A8
102
}
330
2A8
100
AcDbXrecord
280
     1
102
RTVSPropertyOp0
 70
     1
102
RTVSPropertyOp1
 70
     1
102
RTVSPropertyOp2
 70
     1
102
RTVSPropertyOp3
 70
     1
102
RTVSPropertyOp4
 70
     1
102
RTVSPropertyOp5
 70
     1
102
RTVSPropertyOp6
 70
     1
102
RTVSPropertyOp7
 70
     1
102
RTVSPropertyOp8
 70
     1
102
RTVSPropertyOp9
 70
     1
102
RTVSPropertyOp10
 70
     1
102
RTVSPropertyOp11
 70
     1
102
RTVSPropertyOp12
 70
     1
102
RTVSPropertyOp13
 70
     1
102
RTVSPropertyOp14
 70
     1
102
RTVSPropertyOp15
 70
     1
102
RTVSPropertyOp16
 70
     1
102
RTVSPropertyOp17
 70
     1
102
RTVSPropertyOp18
 70
     1
102
RTVSPropertyOp19
 70
     1
102
RTVSPropertyOp20
 70
     1
102
RTVSPropertyOp21
 70
     1
102
RTVSPropertyOp22
 70
     1
102
RTVSPropertyOp23
 70
     1
102
RTVSPropertyOp24
 70
     1
102
RTVSPropertyOp25
 70
     1
102
RTVSPropertyOp26
 70
     1
102
RTVSPropertyOp27
 70
     1
102
RTVSPropertyOp28
 70
     1
102
RTVSPropertyOp29
 70
     1
102
RTVSPropertyOp30
 70
     1
102
RTVSPropertyOp31
 70
     1
102
RTVSPropertyOp32
 70
     1
  0
XRECORD
  5
28D
102
{ACAD_REACTORS
330
28C
102
}
330
28C
100
AcDbXrecord
280
     1
102
RTVSPropertyOp0
 70
     1
102
RTVSPropertyOp1
 70
     1
102
RTVSPropertyOp2
 70
     1
102
RTVSPropertyOp3
 70
     1
102
RTVSPropertyOp4
 70
     1
102
RTVSPropertyOp5
 70
     1
102
RTVSPropertyOp6
 70
     1
102
RTVSPropertyOp7
 70
     1
102
RTVSPropertyOp8
 70
     1
102
RTVSPropertyOp9
 70
     1
102
RTVSPropertyOp10
 70
     1
102
RTVSPropertyOp11
 70
     1
102
RTVSPropertyOp12
 70
     1
102
RTVSPropertyOp13
 70
     1
102
RTVSPropertyOp14
 70
     1
102
RTVSPropertyOp15
 70
     1
102
RTVSPropertyOp16
 70
     1
102
RTVSPropertyOp17
 70
     1
102
RTVSPropertyOp18
 70
     1
102
RTVSPropertyOp19
 70
     1
102
RTVSPropertyOp20
 70
     1
102
RTVSPropertyOp21
 70
     1
102
RTVSPropertyOp22
 70
     1
102
RTVSPropertyOp23
 70
     1
102
RTVSPropertyOp24
 70
     1
102
RTVSPropertyOp25
 70
     1
102
RTVSPropertyOp26
 70
     1
102
RTVSPropertyOp27
 70
     1
102
RTVSPropertyOp28
 70
     1
102
RTVSPropertyOp29
 70
     1
102
RTVSPropertyOp30
 70
     1
102
RTVSPropertyOp31
 70
     1
102
RTVSPropertyOp32
 70
     1
  0
XRECORD
  5
28F
102
{ACAD_REACTORS
330
28E
102
}
330
28E
100
AcDbXrecord
280
     1
102
RTVSPropertyOp0
 70
     1
102
RTVSPropertyOp1
 70
     1
102
RTVSPropertyOp2
 70
     1
102
RTVSPropertyOp3
 70
     1
102
RTVSPropertyOp4
 70
     1
102
RTVSPropertyOp5
 70
     1
102
RTVSPropertyOp6
 70
     1
102
RTVSPropertyOp7
 70
     1
102
RTVSPropertyOp8
 70
     1
102
RTVSPropertyOp9
 70
     1
102
RTVSPropertyOp10
 70
     1
102
RTVSPropertyOp11
 70
     1
102
RTVSPropertyOp12
 70
     1
102
RTVSPropertyOp13
 70
     1
102
RTVSPropertyOp14
 70
     1
102
RTVSPropertyOp15
 70
     1
102
RTVSPropertyOp16
 70
     1
102
RTVSPropertyOp17
 70
     1
102
RTVSPropertyOp18
 70
     1
102
RTVSPropertyOp19
 70
     1
102
RTVSPropertyOp20
 70
     1
102
RTVSPropertyOp21
 70
     1
102
RTVSPropertyOp22
 70
     1
102
RTVSPropertyOp23
 70
     1
102
RTVSPropertyOp24
 70
     1
102
RTVSPropertyOp25
 70
     1
102
RTVSPropertyOp26
 70
     1
102
RTVSPropertyOp27
 70
     1
102
RTVSPropertyOp28
 70
     1
102
RTVSPropertyOp29
 70
     1
102
RTVSPropertyOp30
 70
     1
102
RTVSPropertyOp31
 70
     1
102
RTVSPropertyOp32
 70
     1
  0
XRECORD
  5
291
102
{ACAD_REACTORS
330
290
102
}
330
290
100
AcDbXrecord
280
     1
102
RTVSPropertyOp0
 70
     1
102
RTVSPropertyOp1
 70
     1
102
RTVSPropertyOp2
 70
     1
102
RTVSPropertyOp3
 70
     1
102
RTVSPropertyOp4
 70
     1
102
RTVSPropertyOp5
 70
     1
102
RTVSPropertyOp6
 70
     1
102
RTVSPropertyOp7
 70
     1
102
RTVSPropertyOp8
 70
     1
102
RTVSPropertyOp9
 70
     1
102
RTVSPropertyOp10
 70
     1
102
RTVSPropertyOp11
 70
     1
102
RTVSPropertyOp12
 70
     1
102
RTVSPropertyOp13
 70
     1
102
RTVSPropertyOp14
 70
     1
102
RTVSPropertyOp15
 70
     1
102
RTVSPropertyOp16
 70
     1
102
RTVSPropertyOp17
 70
     1
102
RTVSPropertyOp18
 70
     1
102
RTVSPropertyOp19
 70
     1
102
RTVSPropertyOp20
 70
     1
102
RTVSPropertyOp21
 70
     1
102
RTVSPropertyOp22
 70
     1
102
RTVSPropertyOp23
 70
     1
102
RTVSPropertyOp24
 70
     1
102
RTVSPropertyOp25
 70
     1
102
RTVSPropertyOp26
 70
     1
102
RTVSPropertyOp27
 70
     1
102
RTVSPropertyOp28
 70
     1
102
RTVSPropertyOp29
 70
     1
102
RTVSPropertyOp30
 70
     1
102
RTVSPropertyOp31
 70
     1
102
RTVSPropertyOp32
 70
     1
  0
XRECORD
  5
293
102
{ACAD_REACTORS
330
292
102
}
330
292
100
AcDbXrecord
280
     1
102
RTVSPropertyOp0
 70
     1
102
RTVSPropertyOp1
 70
     1
102
RTVSPropertyOp2
 70
     1
102
RTVSPropertyOp3
 70
     1
102
RTVSPropertyOp4
 70
     1
102
RTVSPropertyOp5
 70
     1
102
RTVSPropertyOp6
 70
     1
102
RTVSPropertyOp7
 70
     1
102
RTVSPropertyOp8
 70
     1
102
RTVSPropertyOp9
 70
     1
102
RTVSPropertyOp10
 70
     1
102
RTVSPropertyOp11
 70
     1
102
RTVSPropertyOp12
 70
     1
102
RTVSPropertyOp13
 70
     1
102
RTVSPropertyOp14
 70
     1
102
RTVSPropertyOp15
 70
     1
102
RTVSPropertyOp16
 70
     1
102
RTVSPropertyOp17
 70
     1
102
RTVSPropertyOp18
 70
     1
102
RTVSPropertyOp19
 70
     1
102
RTVSPropertyOp20
 70
     1
102
RTVSPropertyOp21
 70
     1
102
RTVSPropertyOp22
 70
     1
102
RTVSPropertyOp23
 70
     1
102
RTVSPropertyOp24
 70
     1
102
RTVSPropertyOp25
 70
     1
102
RTVSPropertyOp26
 70
     1
102
RTVSPropertyOp27
 70
     1
102
RTVSPropertyOp28
 70
     1
102
RTVSPropertyOp29
 70
     1
102
RTVSPropertyOp30
 70
     1
102
RTVSPropertyOp31
 70
     1
102
RTVSPropertyOp32
 70
     1
  0
XRECORD
  5
29B
102
{ACAD_REACTORS
330
29A
102
}
330
29A
100
AcDbXrecord
280
     1
102
RTVSPropertyOp0
 70
     1
102
RTVSPropertyOp1
 70
     1
102
RTVSPropertyOp2
 70
     1
102
RTVSPropertyOp3
 70
     1
102
RTVSPropertyOp4
 70
     1
102
RTVSPropertyOp5
 70
     1
102
RTVSPropertyOp6
 70
     1
102
RTVSPropertyOp7
 70
     1
102
RTVSPropertyOp8
 70
     1
102
RTVSPropertyOp9
 70
     1
102
RTVSPropertyOp10
 70
     1
102
RTVSPropertyOp11
 70
     1
102
RTVSPropertyOp12
 70
     1
102
RTVSPropertyOp13
 70
     1
102
RTVSPropertyOp14
 70
     1
102
RTVSPropertyOp15
 70
     1
102
RTVSPropertyOp16
 70
     1
102
RTVSPropertyOp17
 70
     1
102
RTVSPropertyOp18
 70
     1
102
RTVSPropertyOp19
 70
     1
102
RTVSPropertyOp20
 70
     1
102
RTVSPropertyOp21
 70
     1
102
RTVSPropertyOp22
 70
     1
102
RTVSPropertyOp23
 70
     1
102
RTVSPropertyOp24
 70
     1
102
RTVSPropertyOp25
 70
     1
102
RTVSPropertyOp26
 70
     1
102
RTVSPropertyOp27
 70
     1
102
RTVSPropertyOp28
 70
     1
102
RTVSPropertyOp29
 70
     1
102
RTVSPropertyOp30
 70
     1
102
RTVSPropertyOp31
 70
     1
102
RTVSPropertyOp32
 70
     1
  0
XRECORD
  5
2B7
102
{ACAD_REACTORS
330
2B6
102
}
330
2B6
100
AcDbXrecord
280
     1
102
RTVSPropertyOp0
 70
     0
102
RTVSPropertyOp1
 70
     0
102
RTVSPropertyOp2
 70
     0
102
RTVSPropertyOp3
 70
     0
102
RTVSPropertyOp4
 70
     0
102
RTVSPropertyOp5
 70
     0
102
RTVSPropertyOp6
 70
     0
102
RTVSPropertyOp7
 70
     0
102
RTVSPropertyOp8
 70
     0
102
RTVSPropertyOp9
 70
     0
102
RTVSPropertyOp10
 70
     0
102
RTVSPropertyOp11
 70
     0
102
RTVSPropertyOp12
 70
     0
102
RTVSPropertyOp13
 70
     0
102
RTVSPropertyOp14
 70
     2
102
RTVSPropertyOp15
 70
     0
102
RTVSPropertyOp16
 70
     0
102
RTVSPropertyOp17
 70
     0
102
RTVSPropertyOp18
 70
     0
102
RTVSPropertyOp19
 70
     0
102
RTVSPropertyOp20
 70
     0
102
RTVSPropertyOp21
 70
     0
102
RTVSPropertyOp22
 70
     0
102
RTVSPropertyOp23
 70
     0
102
RTVSPropertyOp24
 70
     0
102
RTVSPropertyOp25
 70
     0
102
RTVSPropertyOp26
 70
     0
102
RTVSPropertyOp27
 70
     0
102
RTVSPropertyOp28
 70
     0
102
RTVSPropertyOp29
 70
     0
102
RTVSPropertyOp30
 70
     0
102
RTVSPropertyOp31
 70
     0
102
RTVSPropertyOp32
 70
     0
  0
XRECORD
  5
2A7
102
{ACAD_REACTORS
330
2A6
102
}
330
2A6
100
AcDbXrecord
280
     1
102
RTVSPropertyOp0
 70
     1
102
RTVSPropertyOp1
 70
     1
102
RTVSPropertyOp2
 70
     1
102
RTVSPropertyOp3
 70
     1
102
RTVSPropertyOp4
 70
     1
102
RTVSPropertyOp5
 70
     1
102
RTVSPropertyOp6
 70
     1
102
RTVSPropertyOp7
 70
     1
102
RTVSPropertyOp8
 70
     1
102
RTVSPropertyOp9
 70
     1
102
RTVSPropertyOp10
 70
     1
102
RTVSPropertyOp11
 70
     1
102
RTVSPropertyOp12
 70
     1
102
RTVSPropertyOp13
 70
     1
102
RTVSPropertyOp14
 70
     1
102
RTVSPropertyOp15
 70
     1
102
RTVSPropertyOp16
 70
     1
102
RTVSPropertyOp17
 70
     1
102
RTVSPropertyOp18
 70
     1
102
RTVSPropertyOp19
 70
     1
102
RTVSPropertyOp20
 70
     1
102
RTVSPropertyOp21
 70
     1
102
RTVSPropertyOp22
 70
     1
102
RTVSPropertyOp23
 70
     1
102
RTVSPropertyOp24
 70
     1
102
RTVSPropertyOp25
 70
     1
102
RTVSPropertyOp26
 70
     1
102
RTVSPropertyOp27
 70
     1
102
RTVSPropertyOp28
 70
     1
102
RTVSPropertyOp29
 70
     1
102
RTVSPropertyOp30
 70
     1
102
RTVSPropertyOp31
 70
     1
102
RTVSPropertyOp32
 70
     1
  0
XRECORD
  5
2B9
102
{ACAD_REACTORS
330
2B8
102
}
330
2B8
100
AcDbXrecord
280
     1
102
RTVSPropertyOp0
 70
     0
102
RTVSPropertyOp1
 70
     0
102
RTVSPropertyOp2
 70
     0
102
RTVSPropertyOp3
 70
     0
102
RTVSPropertyOp4
 70
     0
102
RTVSPropertyOp5
 70
     0
102
RTVSPropertyOp6
 70
     0
102
RTVSPropertyOp7
 70
     0
102
RTVSPropertyOp8
 70
     0
102
RTVSPropertyOp9
 70
     0
102
RTVSPropertyOp10
 70
     0
102
RTVSPropertyOp11
 70
     0
102
RTVSPropertyOp12
 70
     0
102
RTVSPropertyOp13
 70
     0
102
RTVSPropertyOp14
 70
     2
102
RTVSPropertyOp15
 70
     0
102
RTVSPropertyOp16
 70
     0
102
RTVSPropertyOp17
 70
     0
102
RTVSPropertyOp18
 70
     0
102
RTVSPropertyOp19
 70
     0
102
RTVSPropertyOp20
 70
     0
102
RTVSPropertyOp21
 70
     0
102
RTVSPropertyOp22
 70
     0
102
RTVSPropertyOp23
 70
     0
102
RTVSPropertyOp24
 70
     0
102
RTVSPropertyOp25
 70
     0
102
RTVSPropertyOp26
 70
     0
102
RTVSPropertyOp27
 70
     0
102
RTVSPropertyOp28
 70
     0
102
RTVSPropertyOp29
 70
     0
102
RTVSPropertyOp30
 70
     0
102
RTVSPropertyOp31
 70
     0
102
RTVSPropertyOp32
 70
     0
  0
XRECORD
  5
29F
102
{ACAD_REACTORS
330
29E
102
}
330
29E
100
AcDbXrecord
280
     1
102
RTVSPropertyOp0
 70
     1
102
RTVSPropertyOp1
 70
     1
102
RTVSPropertyOp2
 70
     1
102
RTVSPropertyOp3
 70
     1
102
RTVSPropertyOp4
 70
     1
102
RTVSPropertyOp5
 70
     1
102
RTVSPropertyOp6
 70
     1
102
RTVSPropertyOp7
 70
     1
102
RTVSPropertyOp8
 70
     1
102
RTVSPropertyOp9
 70
     1
102
RTVSPropertyOp10
 70
     1
102
RTVSPropertyOp11
 70
     1
102
RTVSPropertyOp12
 70
     1
102
RTVSPropertyOp13
 70
     1
102
RTVSPropertyOp14
 70
     1
102
RTVSPropertyOp15
 70
     1
102
RTVSPropertyOp16
 70
     1
102
RTVSPropertyOp17
 70
     1
102
RTVSPropertyOp18
 70
     1
102
RTVSPropertyOp19
 70
     1
102
RTVSPropertyOp20
 70
     1
102
RTVSPropertyOp21
 70
     1
102
RTVSPropertyOp22
 70
     1
102
RTVSPropertyOp23
 70
     1
102
RTVSPropertyOp24
 70
     1
102
RTVSPropertyOp25
 70
     1
102
RTVSPropertyOp26
 70
     1
102
RTVSPropertyOp27
 70
     1
102
RTVSPropertyOp28
 70
     1
102
RTVSPropertyOp29
 70
     1
102
RTVSPropertyOp30
 70
     1
102
RTVSPropertyOp31
 70
     1
102
RTVSPropertyOp32
 70
     1
  0
XRECORD
  5
2B5
102
{ACAD_REACTORS
330
2B4
102
}
330
2B4
100
AcDbXrecord
280
     1
102
RTVSPropertyOp0
 70
     1
102
RTVSPropertyOp1
 70
     1
102
RTVSPropertyOp2
 70
     1
102
RTVSPropertyOp3
 70
     1
102
RTVSPropertyOp4
 70
     1
102
RTVSPropertyOp5
 70
     1
102
RTVSPropertyOp6
 70
     1
102
RTVSPropertyOp7
 70
     1
102
RTVSPropertyOp8
 70
     1
102
RTVSPropertyOp9
 70
     1
102
RTVSPropertyOp10
 70
     1
102
RTVSPropertyOp11
 70
     1
102
RTVSPropertyOp12
 70
     1
102
RTVSPropertyOp13
 70
     1
102
RTVSPropertyOp14
 70
     1
102
RTVSPropertyOp15
 70
     1
102
RTVSPropertyOp16
 70
     1
102
RTVSPropertyOp17
 70
     1
102
RTVSPropertyOp18
 70
     1
102
RTVSPropertyOp19
 70
     1
102
RTVSPropertyOp20
 70
     1
102
RTVSPropertyOp21
 70
     1
102
RTVSPropertyOp22
 70
     1
102
RTVSPropertyOp23
 70
     1
102
RTVSPropertyOp24
 70
     1
102
RTVSPropertyOp25
 70
     1
102
RTVSPropertyOp26
 70
     1
102
RTVSPropertyOp27
 70
     1
102
RTVSPropertyOp28
 70
     1
102
RTVSPropertyOp29
 70
     1
102
RTVSPropertyOp30
 70
     1
102
RTVSPropertyOp31
 70
     1
102
RTVSPropertyOp32
 70
     1
  0
XRECORD
  5
2B3
102
{ACAD_REACTORS
330
2B2
102
}
330
2B2
100
AcDbXrecord
280
     1
102
RTVSPropertyOp0
 70
     1
102
RTVSPropertyOp1
 70
     1
102
RTVSPropertyOp2
 70
     1
102
RTVSPropertyOp3
 70
     1
102
RTVSPropertyOp4
 70
     1
102
RTVSPropertyOp5
 70
     1
102
RTVSPropertyOp6
 70
     1
102
RTVSPropertyOp7
 70
     1
102
RTVSPropertyOp8
 70
     1
102
RTVSPropertyOp9
 70
     1
102
RTVSPropertyOp10
 70
     1
102
RTVSPropertyOp11
 70
     1
102
RTVSPropertyOp12
 70
     1
102
RTVSPropertyOp13
 70
     1
102
RTVSPropertyOp14
 70
     1
102
RTVSPropertyOp15
 70
     1
102
RTVSPropertyOp16
 70
     1
102
RTVSPropertyOp17
 70
     1
102
RTVSPropertyOp18
 70
     1
102
RTVSPropertyOp19
 70
     1
102
RTVSPropertyOp20
 70
     1
102
RTVSPropertyOp21
 70
     1
102
RTVSPropertyOp22
 70
     1
102
RTVSPropertyOp23
 70
     1
102
RTVSPropertyOp24
 70
     1
102
RTVSPropertyOp25
 70
     1
102
RTVSPropertyOp26
 70
     1
102
RTVSPropertyOp27
 70
     1
102
RTVSPropertyOp28
 70
     1
102
RTVSPropertyOp29
 70
     1
102
RTVSPropertyOp30
 70
     1
102
RTVSPropertyOp31
 70
     1
102
RTVSPropertyOp32
 70
     1
  0
XRECORD
  5
2AD
102
{ACAD_REACTORS
330
2AC
102
}
330
2AC
100
AcDbXrecord
280
     1
102
RTVSPropertyOp0
 70
     1
102
RTVSPropertyOp1
 70
     1
102
RTVSPropertyOp2
 70
     1
102
RTVSPropertyOp3
 70
     1
102
RTVSPropertyOp4
 70
     1
102
RTVSPropertyOp5
 70
     1
102
RTVSPropertyOp6
 70
     1
102
RTVSPropertyOp7
 70
     1
102
RTVSPropertyOp8
 70
     1
102
RTVSPropertyOp9
 70
     1
102
RTVSPropertyOp10
 70
     1
102
RTVSPropertyOp11
 70
     1
102
RTVSPropertyOp12
 70
     1
102
RTVSPropertyOp13
 70
     1
102
RTVSPropertyOp14
 70
     1
102
RTVSPropertyOp15
 70
     1
102
RTVSPropertyOp16
 70
     1
102
RTVSPropertyOp17
 70
     1
102
RTVSPropertyOp18
 70
     1
102
RTVSPropertyOp19
 70
     1
102
RTVSPropertyOp20
 70
     1
102
RTVSPropertyOp21
 70
     1
102
RTVSPropertyOp22
 70
     1
102
RTVSPropertyOp23
 70
     1
102
RTVSPropertyOp24
 70
     1
102
RTVSPropertyOp25
 70
     1
102
RTVSPropertyOp26
 70
     1
102
RTVSPropertyOp27
 70
     1
102
RTVSPropertyOp28
 70
     1
102
RTVSPropertyOp29
 70
     1
102
RTVSPropertyOp30
 70
     1
102
RTVSPropertyOp31
 70
     1
102
RTVSPropertyOp32
 70
     1
  0
XRECORD
  5
2AF
102
{ACAD_REACTORS
330
2AE
102
}
330
2AE
100
AcDbXrecord
280
     1
102
RTVSPropertyOp0
 70
     1
102
RTVSPropertyOp1
 70
     1
102
RTVSPropertyOp2
 70
     1
102
RTVSPropertyOp3
 70
     1
102
RTVSPropertyOp4
 70
     1
102
RTVSPropertyOp5
 70
     1
102
RTVSPropertyOp6
 70
     1
102
RTVSPropertyOp7
 70
     1
102
RTVSPropertyOp8
 70
     1
102
RTVSPropertyOp9
 70
     1
102
RTVSPropertyOp10
 70
     1
102
RTVSPropertyOp11
 70
     1
102
RTVSPropertyOp12
 70
     1
102
RTVSPropertyOp13
 70
     1
102
RTVSPropertyOp14
 70
     1
102
RTVSPropertyOp15
 70
     1
102
RTVSPropertyOp16
 70
     1
102
RTVSPropertyOp17
 70
     1
102
RTVSPropertyOp18
 70
     1
102
RTVSPropertyOp19
 70
     1
102
RTVSPropertyOp20
 70
     1
102
RTVSPropertyOp21
 70
     1
102
RTVSPropertyOp22
 70
     1
102
RTVSPropertyOp23
 70
     1
102
RTVSPropertyOp24
 70
     1
102
RTVSPropertyOp25
 70
     1
102
RTVSPropertyOp26
 70
     1
102
RTVSPropertyOp27
 70
     1
102
RTVSPropertyOp28
 70
     1
102
RTVSPropertyOp29
 70
     1
102
RTVSPropertyOp30
 70
     1
102
RTVSPropertyOp31
 70
     1
102
RTVSPropertyOp32
 70
     1
  0
XRECORD
  5
2A5
102
{ACAD_REACTORS
330
2A4
102
}
330
2A4
100
AcDbXrecord
280
     1
102
RTVSPropertyOp0
 70
     1
102
RTVSPropertyOp1
 70
     1
102
RTVSPropertyOp2
 70
     1
102
RTVSPropertyOp3
 70
     1
102
RTVSPropertyOp4
 70
     1
102
RTVSPropertyOp5
 70
     1
102
RTVSPropertyOp6
 70
     1
102
RTVSPropertyOp7
 70
     1
102
RTVSPropertyOp8
 70
     1
102
RTVSPropertyOp9
 70
     1
102
RTVSPropertyOp10
 70
     1
102
RTVSPropertyOp11
 70
     1
102
RTVSPropertyOp12
 70
     1
102
RTVSPropertyOp13
 70
     1
102
RTVSPropertyOp14
 70
     1
102
RTVSPropertyOp15
 70
     1
102
RTVSPropertyOp16
 70
     1
102
RTVSPropertyOp17
 70
     1
102
RTVSPropertyOp18
 70
     1
102
RTVSPropertyOp19
 70
     1
102
RTVSPropertyOp20
 70
     1
102
RTVSPropertyOp21
 70
     1
102
RTVSPropertyOp22
 70
     1
102
RTVSPropertyOp23
 70
     1
102
RTVSPropertyOp24
 70
     1
102
RTVSPropertyOp25
 70
     1
102
RTVSPropertyOp26
 70
     1
102
RTVSPropertyOp27
 70
     1
102
RTVSPropertyOp28
 70
     1
102
RTVSPropertyOp29
 70
     1
102
RTVSPropertyOp30
 70
     1
102
RTVSPropertyOp31
 70
     1
102
RTVSPropertyOp32
 70
     1
  0
XRECORD
  5
299
102
{ACAD_REACTORS
330
298
102
}
330
298
100
AcDbXrecord
280
     1
102
RTVSPropertyOp0
 70
     1
102
RTVSPropertyOp1
 70
     1
102
RTVSPropertyOp2
 70
     1
102
RTVSPropertyOp3
 70
     1
102
RTVSPropertyOp4
 70
     1
102
RTVSPropertyOp5
 70
     1
102
RTVSPropertyOp6
 70
     1
102
RTVSPropertyOp7
 70
     1
102
RTVSPropertyOp8
 70
     1
102
RTVSPropertyOp9
 70
     1
102
RTVSPropertyOp10
 70
     1
102
RTVSPropertyOp11
 70
     1
102
RTVSPropertyOp12
 70
     1
102
RTVSPropertyOp13
 70
     1
102
RTVSPropertyOp14
 70
     1
102
RTVSPropertyOp15
 70
     1
102
RTVSPropertyOp16
 70
     1
102
RTVSPropertyOp17
 70
     1
102
RTVSPropertyOp18
 70
     1
102
RTVSPropertyOp19
 70
     1
102
RTVSPropertyOp20
 70
     1
102
RTVSPropertyOp21
 70
     1
102
RTVSPropertyOp22
 70
     1
102
RTVSPropertyOp23
 70
     1
102
RTVSPropertyOp24
 70
     1
102
RTVSPropertyOp25
 70
     1
102
RTVSPropertyOp26
 70
     1
102
RTVSPropertyOp27
 70
     1
102
RTVSPropertyOp28
 70
     1
102
RTVSPropertyOp29
 70
     1
102
RTVSPropertyOp30
 70
     1
102
RTVSPropertyOp31
 70
     1
102
RTVSPropertyOp32
 70
     1
  0
XRECORD
  5
2B1
102
{ACAD_REACTORS
330
2B0
102
}
330
2B0
100
AcDbXrecord
280
     1
102
RTVSPropertyOp0
 70
     1
102
RTVSPropertyOp1
 70
     1
102
RTVSPropertyOp2
 70
     1
102
RTVSPropertyOp3
 70
     1
102
RTVSPropertyOp4
 70
     1
102
RTVSPropertyOp5
 70
     1
102
RTVSPropertyOp6
 70
     1
102
RTVSPropertyOp7
 70
     1
102
RTVSPropertyOp8
 70
     1
102
RTVSPropertyOp9
 70
     1
102
RTVSPropertyOp10
 70
     1
102
RTVSPropertyOp11
 70
     1
102
RTVSPropertyOp12
 70
     1
102
RTVSPropertyOp13
 70
     1
102
RTVSPropertyOp14
 70
     1
102
RTVSPropertyOp15
 70
     1
102
RTVSPropertyOp16
 70
     1
102
RTVSPropertyOp17
 70
     1
102
RTVSPropertyOp18
 70
     1
102
RTVSPropertyOp19
 70
     1
102
RTVSPropertyOp20
 70
     1
102
RTVSPropertyOp21
 70
     1
102
RTVSPropertyOp22
 70
     1
102
RTVSPropertyOp23
 70
     1
102
RTVSPropertyOp24
 70
     1
102
RTVSPropertyOp25
 70
     1
102
RTVSPropertyOp26
 70
     1
102
RTVSPropertyOp27
 70
     1
102
RTVSPropertyOp28
 70
     1
102
RTVSPropertyOp29
 70
     1
102
RTVSPropertyOp30
 70
     1
102
RTVSPropertyOp31
 70
     1
102
RTVSPropertyOp32
 70
     1
  0
ENDSEC
  0
EOF
