  0
SECTION
  2
HEADER
  9
$ACADVER
  1
AC1015
  9
$ACADMAINTVER
 70
    18
  9
$DWGCODEPAGE
  3
ANSI_1252
  9
$INSBASE
 10
0.0
 20
0.0
 30
0.0
  9
$EXTMIN
 10
0.0
 20
0.0
 30
0.0
  9
$EXTMAX
 10
420.0
 20
297.0
 30
0.0
  9
$LIMMIN
 10
0.0
 20
0.0
  9
$LIMMAX
 10
420.0
 20
297.0
  9
$ORTHOMODE
 70
     0
  9
$REGENMODE
 70
     1
  9
$FILLMODE
 70
     1
  9
$QTEXTMODE
 70
     0
  9
$MIRRTEXT
 70
     0
  9
$LTSCALE
 40
1.0
  9
$ATTMODE
 70
     1
  9
$TEXTSIZE
 40
0.2
  9
$TRACEWID
 40
0.05
  9
$TEXTSTYLE
  7
Standard
  9
$CLAYER
  8
0
  9
$CELTYPE
  6
ByLayer
  9
$CECOLOR
 62
   256
  9
$CELTSCALE
 40
1.0
  9
$DISPSILH
 70
     0
  9
$DIMSCALE
 40
1.0
  9
$DIMASZ
 40
1.799999999999999
  9
$DIMEXO
 40
0.0625
  9
$DIMDLI
 40
0.38
  9
$DIMRND
 40
0.0
  9
$DIMDLE
 40
0.0
  9
$DIMEXE
 40
0.18
  9
$DIMTP
 40
0.0
  9
$DIMTM
 40
0.0
  9
$DIMTXT
 40
0.25
  9
$DIMCEN
 40
0.09
  9
$DIMTSZ
 40
0.0
  9
$DIMTOL
 70
     0
  9
$DIMLIM
 70
     0
  9
$DIMTIH
 70
     1
  9
$DIMTOH
 70
     1
  9
$DIMSE1
 70
     0
  9
$DIMSE2
 70
     0
  9
$DIMTAD
 70
     0
  9
$DIMZIN
 70
     0
  9
$DIMBLK
  1

  9
$DIMASO
 70
     1
  9
$DIMSHO
 70
     1
  9
$DIMPOST
  1

  9
$DIMAPOST
  1

  9
$DIMALT
 70
     0
  9
$DIMALTD
 70
     2
  9
$DIMALTF
 40
25.4
  9
$DIMLFAC
 40
1.0
  9
$DIMTOFL
 70
     0
  9
$DIMTVP
 40
0.0
  9
$DIMTIX
 70
     0
  9
$DIMSOXD
 70
     0
  9
$DIMSAH
 70
     0
  9
$DIMBLK1
  1

  9
$DIMBLK2
  1

  9
$DIMSTYLE
  2
Standard
  9
$DIMCLRD
 70
     0
  9
$DIMCLRE
 70
     0
  9
$DIMCLRT
 70
     0
  9
$DIMTFAC
 40
1.0
  9
$DIMGAP
 40
0.09
  9
$DIMJUST
 70
     0
  9
$DIMSD1
 70
     0
  9
$DIMSD2
 70
     0
  9
$DIMTOLJ
 70
     1
  9
$DIMTZIN
 70
     0
  9
$DIMALTZ
 70
     0
  9
$DIMALTTZ
 70
     0
  9
$DIMUPT
 70
     0
  9
$DIMDEC
 70
     4
  9
$DIMTDEC
 70
     4
  9
$DIMALTU
 70
     2
  9
$DIMALTTD
 70
     2
  9
$DIMTXSTY
  7
Standard
  9
$DIMAUNIT
 70
     0
  9
$DIMADEC
 70
     0
  9
$DIMALTRND
 40
0.0
  9
$DIMAZIN
 70
     0
  9
$DIMDSEP
 70
    46
  9
$DIMATFIT
 70
     3
  9
$DIMFRAC
 70
     0
  9
$DIMLDRBLK
  1

  9
$DIMLUNIT
 70
     2
  9
$DIMLWD
 70
    -2
  9
$DIMLWE
 70
    -2
  9
$DIMTMOVE
 70
     0
  9
$LUNITS
 70
     2
  9
$LUPREC
 70
     4
  9
$SKETCHINC
 40
0.1
  9
$FILLETRAD
 40
0.0
  9
$AUNITS
 70
     0
  9
$AUPREC
 70
     0
  9
$MENU
  1
.
  9
$ELEVATION
 40
0.0
  9
$PELEVATION
 40
0.0
  9
$THICKNESS
 40
0.0
  9
$LIMCHECK
 70
     0
  9
$CHAMFERA
 40
0.0
  9
$CHAMFERB
 40
0.0
  9
$CHAMFERC
 40
0.0
  9
$CHAMFERD
 40
0.0
  9
$SKPOLY
 70
     0
  9
$TDCREATE
 40
2455798.501859838
  9
$TDUCREATE
 40
2455798.418526505
  9
$TDUPDATE
 40
2455798.501859838
  9
$TDUUPDATE
 40
2455798.418526505
  9
$TDINDWG
 40
0.0000147222
  9
$TDUSRTIMER
 40
0.0000147222
  9
$USRTIMER
 70
     1
  9
$ANGBASE
 50
0.0
  9
$ANGDIR
 70
     0
  9
$PDMODE
 70
     0
  9
$PDSIZE
 40
0.0
  9
$PLINEWID
 40
0.0
  9
$SPLFRAME
 70
     0
  9
$SPLINETYPE
 70
     6
  9
$SPLINESEGS
 70
     8
  9
$HANDSEED
  5
298
  9
$SURFTAB1
 70
     6
  9
$SURFTAB2
 70
     6
  9
$SURFTYPE
 70
     6
  9
$SURFU
 70
     6
  9
$SURFV
 70
     6
  9
$UCSBASE
  2

  9
$UCSNAME
  2

  9
$UCSORG
 10
0.0
 20
0.0
 30
0.0
  9
$UCSXDIR
 10
1.0
 20
0.0
 30
0.0
  9
$UCSYDIR
 10
0.0
 20
1.0
 30
0.0
  9
$UCSORTHOREF
  2

  9
$UCSORTHOVIEW
 70
     0
  9
$UCSORGTOP
 10
0.0
 20
0.0
 30
0.0
  9
$UCSORGBOTTOM
 10
0.0
 20
0.0
 30
0.0
  9
$UCSORGLEFT
 10
0.0
 20
0.0
 30
0.0
  9
$UCSORGRIGHT
 10
0.0
 20
0.0
 30
0.0
  9
$UCSORGFRONT
 10
0.0
 20
0.0
 30
0.0
  9
$UCSORGBACK
 10
0.0
 20
0.0
 30
0.0
  9
$PUCSBASE
  2

  9
$PUCSNAME
  2

  9
$PUCSORG
 10
0.0
 20
0.0
 30
0.0
  9
$PUCSXDIR
 10
1.0
 20
0.0
 30
0.0
  9
$PUCSYDIR
 10
0.0
 20
1.0
 30
0.0
  9
$PUCSORTHOREF
  2

  9
$PUCSORTHOVIEW
 70
     0
  9
$PUCSORGTOP
 10
0.0
 20
0.0
 30
0.0
  9
$PUCSORGBOTTOM
 10
0.0
 20
0.0
 30
0.0
  9
$PUCSORGLEFT
 10
0.0
 20
0.0
 30
0.0
  9
$PUCSORGRIGHT
 10
0.0
 20
0.0
 30
0.0
  9
$PUCSORGFRONT
 10
0.0
 20
0.0
 30
0.0
  9
$PUCSORGBACK
 10
0.0
 20
0.0
 30
0.0
  9
$USERI1
 70
     0
  9
$USERI2
 70
     0
  9
$USERI3
 70
     0
  9
$USERI4
 70
     0
  9
$USERI5
 70
     0
  9
$USERR1
 40
0.0
  9
$USERR2
 40
0.0
  9
$USERR3
 40
0.0
  9
$USERR4
 40
0.0
  9
$USERR5
 40
0.0
  9
$WORLDVIEW
 70
     1
  9
$SHADEDGE
 70
     3
  9
$SHADEDIF
 70
    70
  9
$TILEMODE
 70
     1
  9
$MAXACTVP
 70
    64
  9
$PINSBASE
 10
0.0
 20
0.0
 30
0.0
  9
$PLIMCHECK
 70
     0
  9
$PEXTMIN
 10
0.0
 20
0.0
 30
0.0
  9
$PEXTMAX
 10
420.0
 20
297.0
 30
0.0
  9
$PLIMMIN
 10
0.0
 20
0.0
  9
$PLIMMAX
 10
420.0
 20
297.0
  9
$UNITMODE
 70
     0
  9
$VISRETAIN
 70
     1
  9
$PLINEGEN
 70
     0
  9
$PSLTSCALE
 70
     1
  9
$TREEDEPTH
 70
  3020
  9
$CMLSTYLE
  2
Standard
  9
$CMLJUST
 70
     0
  9
$CMLSCALE
 40
1.0
  9
$PROXYGRAPHICS
 70
     1
  9
$MEASUREMENT
 70
     1
  9
$CELWEIGHT
370
    -1
  9
$ENDCAPS
280
     0
  9
$JOINSTYLE
280
     0
  9
$LWDISPLAY
290
     0
  9
$INSUNITS
 70
     4
  9
$HYPERLINKBASE
  1

  9
$STYLESHEET
  1

  9
$XEDIT
290
     1
  9
$CEPSNTYPE
380
     0
  9
$PSTYLEMODE
290
     1
  9
$FINGERPRINTGUID
  2
{FF52C43C-B392-46A8-A276-CD773676E996}
  9
$VERSIONGUID
  2
{A47FB38A-D085-4168-87BB-15B369A71856}
  9
$EXTNAMES
290
     1
  9
$PSVPSCALE
 40
0.0
  9
$OLESTARTUP
290
     0
  0
ENDSEC
  0
SECTION
  2
CLASSES
  0
CLASS
  1
ACDBDICTIONARYWDFLT
  2
AcDbDictionaryWithDefault
  3
ObjectDBX Classes
 90
        0
280
     0
281
     0
  0
CLASS
  1
MATERIAL
  2
AcDbMaterial
  3
ObjectDBX Classes
 90
     1153
280
     0
281
     0
  0
CLASS
  1
VISUALSTYLE
  2
AcDbVisualStyle
  3
ObjectDBX Classes
 90
     4095
280
     0
281
     0
  0
CLASS
  1
SCALE
  2
AcDbScale
  3
ObjectDBX Classes
 90
     1153
280
     0
281
     0
  0
CLASS
  1
TABLESTYLE
  2
AcDbTableStyle
  3
ObjectDBX Classes
 90
     4095
280
     0
281
     0
  0
CLASS
  1
MLEADERSTYLE
  2
AcDbMLeaderStyle
  3
ACDB_MLEADERSTYLE_CLASS
 90
     4095
280
     0
281
     0
  0
CLASS
  1
DICTIONARYVAR
  2
AcDbDictionaryVar
  3
ObjectDBX Classes
 90
        0
280
     0
281
     0
  0
CLASS
  1
CELLSTYLEMAP
  2
AcDbCellStyleMap
  3
ObjectDBX Classes
 90
     1152
280
     0
281
     0
  0
CLASS
  1
ACDBPLACEHOLDER
  2
AcDbPlaceHolder
  3
ObjectDBX Classes
 90
        0
280
     0
281
     0
  0
CLASS
  1
LAYOUT
  2
AcDbLayout
  3
ObjectDBX Classes
 90
        0
280
     0
281
     0
  0
ENDSEC
  0
SECTION
  2
TABLES
  0
TABLE
  2
VPORT
  5
8
330
0
100
AcDbSymbolTable
 70
     1
  0
VPORT
  5
57
330
8
100
AcDbSymbolTableRecord
100
AcDbViewportTableRecord
  2
*Active
 70
     0
 10
0.0
 20
0.0
 11
1.0
 21
1.0
 12
210.0
 22
148.5
 13
0.0
 23
0.0
 14
1.0
 24
1.0
 15
0.0
 25
0.0
 16
0.0
 26
0.0
 36
1.0
 17
0.0
 27
0.0
 37
0.0
 40
297.0
 41
1.414141414141414
 42
50.0
 43
0.0
 44
0.0
 50
0.0
 51
0.0
 71
     0
 72
   100
 73
     1
 74
     1
 75
     0
 76
     0
 77
     0
 78
     0
281
     0
 65
     1
110
0.0
120
0.0
130
0.0
111
1.0
121
0.0
131
0.0
112
0.0
122
1.0
132
0.0
 79
     0
146
0.0
  0
ENDTAB
  0
TABLE
  2
LTYPE
  5
5
330
0
100
AcDbSymbolTable
 70
     1
  0
LTYPE
  5
5B
330
5
100
AcDbSymbolTableRecord
100
AcDbLinetypeTableRecord
  2
ByBlock
 70
     0
  3

 72
    65
 73
     0
 40
0.0
  0
LTYPE
  5
5C
330
5
100
AcDbSymbolTableRecord
100
AcDbLinetypeTableRecord
  2
ByLayer
 70
     0
  3

 72
    65
 73
     0
 40
0.0
  0
LTYPE
  5
5D
330
5
100
AcDbSymbolTableRecord
100
AcDbLinetypeTableRecord
  2
Continuous
 70
     0
  3
Solid line
 72
    65
 73
     0
 40
0.0
  0
ENDTAB
  0
TABLE
  2
LAYER
  5
2
330
0
100
AcDbSymbolTable
 70
    33
  0
LAYER
  5
54
330
2
100
AcDbSymbolTableRecord
100
AcDbLayerTableRecord
  2
0
 70
     0
 62
     7
  6
Continuous
370
    -3
390
F
  0
LAYER
  5
88
330
2
100
AcDbSymbolTableRecord
100
AcDbLayerTableRecord
  2
Sichtbare Kanten(DIN)
 70
     0
 62
     7
  6
Continuous
370
    50
390
F
  0
ENDTAB
  0
TABLE
  2
STYLE
  5
3
330
0
100
AcDbSymbolTable
 70
     9
  0
STYLE
  5
55
330
3
100
AcDbSymbolTableRecord
100
AcDbTextStyleTableRecord
  2
Standard
 70
     0
 40
0.0
 41
1.0
 50
0.0
 71
     0
 42
0.2
  3
arial.ttf
  4

1001
ACAD
1000
Arial
1071
      256
  0
STYLE
  5
5A
330
3
100
AcDbSymbolTableRecord
100
AcDbTextStyleTableRecord
  2
Annotative
 70
     0
 40
0.0
 41
1.0
 50
0.0
 71
     0
 42
0.2
  3
txt
  4

1001
AcadAnnotative
1000
AnnotativeData
1002
{
1070
     1
1070
     1
1002
}
  0
STYLE
  5
94
330
3
100
AcDbSymbolTableRecord
100
AcDbTextStyleTableRecord
  2
Aktuell-BSI
 70
     0
 40
0.0
 41
1.0
 50
0.0
 71
     0
 42
0.2
  3
arial.ttf
  4

1001
ACAD
1000
Arial
1071
      256
  0
STYLE
  5
95
330
3
100
AcDbSymbolTableRecord
100
AcDbTextStyleTableRecord
  2
Aktuell-DIN
 70
     0
 40
0.0
 41
0.899999976158142
 50
0.0
 71
     0
 42
0.2
  3
arial.ttf
  4

1001
ACAD
1000
Arial
1071
      256
  0
STYLE
  5
96
330
3
100
AcDbSymbolTableRecord
100
AcDbTextStyleTableRecord
  2
STANDARD-DIN
 70
     0
 40
0.0
 41
1.0
 50
0.0
 71
     0
 42
0.2
  3
arial.ttf
  4

1001
ACAD
1000
Arial
1071
      256
  0
STYLE
  5
97
330
3
100
AcDbSymbolTableRecord
100
AcDbTextStyleTableRecord
  2
STANDARD-DINNach Layer
 70
     0
 40
0.0
 41
1.0
 50
0.0
 71
     0
 42
0.2
  3
arial.ttf
  4

1001
ACAD
1000
Arial
1071
      256
  0
STYLE
  5
98
330
3
100
AcDbSymbolTableRecord
100
AcDbTextStyleTableRecord
  2
STANDARDGroßer Text
 70
     0
 40
0.0
 41
1.0
 50
0.0
 71
     0
 42
0.2
  3
arial.ttf
  4

1001
ACAD
1000
Arial
1071
      256
  0
STYLE
  5
99
330
3
100
AcDbSymbolTableRecord
100
AcDbTextStyleTableRecord
  2
STANDARDNach Layer
 70
     0
 40
0.0
 41
1.0
 50
0.0
 71
     0
 42
0.2
  3
arial.ttf
  4

1001
ACAD
1000
Arial
1071
      256
  0
STYLE
  5
9A
330
3
100
AcDbSymbolTableRecord
100
AcDbTextStyleTableRecord
  2
StüLiDaten
 70
     0
 40
0.0
 41
1.0
 50
0.0
 71
     0
 42
0.2
  3
arial.ttf
  4

1001
ACAD
1000
Arial
1071
      256
  0
ENDTAB
  0
TABLE
  2
VIEW
  5
6
330
0
100
AcDbSymbolTable
 70
     0
  0
ENDTAB
  0
TABLE
  2
UCS
  5
7
330
0
100
AcDbSymbolTable
 70
     0
  0
ENDTAB
  0
TABLE
  2
APPID
  5
9
330
0
100
AcDbSymbolTable
 70
     3
  0
APPID
  5
56
330
9
100
AcDbSymbolTableRecord
100
AcDbRegAppTableRecord
  2
ACAD
 70
     0
  0
APPID
  5
5E
330
9
100
AcDbSymbolTableRecord
100
AcDbRegAppTableRecord
  2
AcadAnnotative
 70
     0
  0
APPID
  5
291
330
9
100
AcDbSymbolTableRecord
100
AcDbRegAppTableRecord
  2
ACAD_MLEADERVER
 70
     0
  0
ENDTAB
  0
TABLE
  2
DIMSTYLE
  5
A
330
0
100
AcDbSymbolTable
 70
    10
100
AcDbDimStyleTable
 71
     0
  0
DIMSTYLE
105
58
330
A
100
AcDbSymbolTableRecord
100
AcDbDimStyleTableRecord
  2
Standard
 70
     0
340
55
  0
DIMSTYLE
105
59
330
A
100
AcDbSymbolTableRecord
100
AcDbDimStyleTableRecord
  2
Annotative
 70
     0
340
55
1001
AcadAnnotative
1000
AnnotativeData
1002
{
1070
     1
1070
     1
1002
}
  0
DIMSTYLE
105
9B
330
A
100
AcDbSymbolTableRecord
100
AcDbDimStyleTableRecord
  2
DIN - Andere
 70
     0
 41
2.5
 42
0.0
 43
5.999999999999999
 44
3.174999999999999
 45
0.00000001
 46
10.0
 73
     0
 74
     0
 77
     1
 78
     8
 79
     2
140
3.5
143
0.03937
147
0.8
171
     3
172
     1
176
     7
177
     7
178
     7
271
     2
272
     2
274
     3
278
    44
284
     8
286
     8
340
94
371
    25
372
    25
  0
DIMSTYLE
105
9C
330
A
100
AcDbSymbolTableRecord
100
AcDbDimStyleTableRecord
  2
DIN - Andere$7
 70
     0
 41
2.5
 42
0.0
 43
5.999999999999999
 44
3.174999999999999
 45
0.00000001
 46
10.0
 73
     0
 74
     0
 77
     1
 78
     8
 79
     2
140
3.5
143
0.03937
147
0.8
171
     3
172
     1
176
     7
177
     7
178
     7
271
     2
272
     2
274
     3
278
    44
284
     8
286
     8
340
94
371
    25
372
    25
  0
DIMSTYLE
105
9D
330
A
100
AcDbSymbolTableRecord
100
AcDbDimStyleTableRecord
  2
DIN - AndereGroßer Text
 70
     0
 41
5.0
 42
0.0
 43
5.999999999999999
 44
3.174999999999999
 45
0.00000001
 46
10.0
 73
     0
 74
     0
 77
     1
 78
     8
 79
     2
140
3.75
143
0.03937
146
0.9333333373069763
147
0.8
171
     3
172
     1
176
     7
177
     7
178
     7
271
     2
272
     2
274
     3
278
    44
284
     8
286
     8
340
98
371
    25
372
    25
  0
DIMSTYLE
105
9E
330
A
100
AcDbSymbolTableRecord
100
AcDbDimStyleTableRecord
  2
DIN - AndereGroßer Text$7
 70
     0
 41
5.0
 42
0.0
 43
5.999999999999999
 44
3.174999999999999
 45
0.00000001
 46
10.0
 73
     0
 74
     0
 77
     1
 78
     8
 79
     2
140
3.75
143
0.03937
146
0.9333333373069763
147
0.8
171
     3
172
     1
176
     7
177
     7
178
     7
271
     2
272
     2
274
     3
278
    44
284
     8
286
     8
340
98
371
    25
372
    25
  0
DIMSTYLE
105
9F
330
A
100
AcDbSymbolTableRecord
100
AcDbDimStyleTableRecord
  2
Führungslinie-Ursprungsindikator(DIN)
 70
     0
 41
2.5
340
55
342
A0
  0
DIMSTYLE
105
B1
330
A
100
AcDbSymbolTableRecord
100
AcDbDimStyleTableRecord
  2
Führungslinie - Bezugsstelle(DIN)
 70
     0
 41
2.5
340
55
342
A0
  0
DIMSTYLE
105
B2
330
A
100
AcDbSymbolTableRecord
100
AcDbDimStyleTableRecord
  2
Führungslinie - Punkt(DIN)
 70
     0
 41
2.5
340
55
342
A0
  0
DIMSTYLE
105
B3
330
A
100
AcDbSymbolTableRecord
100
AcDbDimStyleTableRecord
  2
Führungslinie(DIN)
 70
     0
 41
2.5
340
55
342
A0
  0
ENDTAB
  0
TABLE
  2
BLOCK_RECORD
  5
1
330
0
100
AcDbSymbolTable
 70
     3
  0
BLOCK_RECORD
  5
6C
330
1
100
AcDbSymbolTableRecord
100
AcDbBlockTableRecord
  2
*Model_Space
340
6F
  0
BLOCK_RECORD
  5
68
330
1
100
AcDbSymbolTableRecord
100
AcDbBlockTableRecord
  2
*Paper_Space
340
6B
  0
BLOCK_RECORD
  5
70
330
1
100
AcDbSymbolTableRecord
100
AcDbBlockTableRecord
  2
*Paper_Space0
340
73
  0
BLOCK_RECORD
  5
A0
330
1
100
AcDbSymbolTableRecord
100
AcDbBlockTableRecord
  2
_Closed
340
0
  0
BLOCK_RECORD
  5
A7
330
1
100
AcDbSymbolTableRecord
100
AcDbBlockTableRecord
  2
DatumFilled45
340
0
  0
ENDTAB
  0
ENDSEC
  0
SECTION
  2
BLOCKS
  0
BLOCK
  5
6D
330
6C
100
AcDbEntity
  8
0
100
AcDbBlockBegin
  2
*Model_Space
 70
     0
 10
0.0
 20
0.0
 30
0.0
  3
*Model_Space
  1

  0
ENDBLK
  5
6E
330
6C
100
AcDbEntity
  8
0
100
AcDbBlockEnd
  0
BLOCK
  5
69
330
68
100
AcDbEntity
 67
     1
  8
0
100
AcDbBlockBegin
  2
*Paper_Space
 70
     0
 10
0.0
 20
0.0
 30
0.0
  3
*Paper_Space
  1

  0
ENDBLK
  5
6A
330
68
100
AcDbEntity
 67
     1
  8
0
100
AcDbBlockEnd
  0
BLOCK
  5
71
330
70
100
AcDbEntity
 67
     1
  8
0
100
AcDbBlockBegin
  2
*Paper_Space0
 70
     0
 10
0.0
 20
0.0
 30
0.0
  3
*Paper_Space0
  1

  0
ENDBLK
  5
72
330
70
100
AcDbEntity
 67
     1
  8
0
100
AcDbBlockEnd
  0
BLOCK
  5
A5
330
A0
100
AcDbEntity
  8
0
100
AcDbBlockBegin
  2
_Closed
 70
     0
 10
0.0
 20
0.0
 30
0.0
  3
_Closed
  1

  0
LINE
  5
A1
330
A0
100
AcDbEntity
  8
0
  6
ByBlock
 62
     0
370
    -2
100
AcDbLine
 10
-1.0
 20
0.1666666666666666
 30
0.0
 11
0.0
 21
0.0
 31
0.0
  0
LINE
  5
A2
330
A0
100
AcDbEntity
  8
0
  6
ByBlock
 62
     0
370
    -2
100
AcDbLine
 10
0.0
 20
0.0
 30
0.0
 11
-1.0
 21
-0.1666666666666666
 31
0.0
  0
LINE
  5
A3
330
A0
100
AcDbEntity
  8
0
  6
ByBlock
 62
     0
370
    -2
100
AcDbLine
 10
-1.0
 20
0.1666666666666666
 30
0.0
 11
-1.0
 21
-0.1666666666666666
 31
0.0
  0
LINE
  5
A4
330
A0
100
AcDbEntity
  8
0
  6
ByBlock
 62
     0
370
    -2
100
AcDbLine
 10
0.0
 20
0.0
 30
0.0
 11
-1.0
 21
0.0
 31
0.0
  0
ENDBLK
  5
A6
330
A0
100
AcDbEntity
  8
0
100
AcDbBlockEnd
  0
BLOCK
  5
A8
330
A7
100
AcDbEntity
  8
0
100
AcDbBlockBegin
  2
DatumFilled45
 70
     0
 10
0.0
 20
0.0
 30
0.0
  3
DatumFilled45
  1

  0
POLYLINE
  5
AA
330
A7
100
AcDbEntity
  8
0
 62
     0
100
AcDb2dPolyline
 66
     1
 10
0.0
 20
0.0
 30
0.0
 70
   128
  0
VERTEX
  5
AB
330
AA
100
AcDbEntity
  8
0
 62
     0
100
AcDbVertex
100
AcDb2dVertex
 10
0.0
 20
1.0
 30
0.0
  0
VERTEX
  5
AC
330
AA
100
AcDbEntity
  8
0
 62
     0
100
AcDbVertex
100
AcDb2dVertex
 10
0.0
 20
-1.0
 30
0.0
  0
VERTEX
  5
AE
330
AA
100
AcDbEntity
  8
0
 62
     0
100
AcDbVertex
100
AcDb2dVertex
 10
-1.0
 20
0.0
 30
0.0
  0
VERTEX
  5
AF
330
AA
100
AcDbEntity
  8
0
 62
     0
100
AcDbVertex
100
AcDb2dVertex
 10
0.0
 20
1.0
 30
0.0
  0
SEQEND
  5
AD
330
AA
100
AcDbEntity
  8
0
 62
     0
  0
SOLID
  5
B0
330
A7
100
AcDbEntity
  8
0
 62
     0
100
AcDbTrace
 10
0.0
 20
1.0
 30
0.0
 11
0.0
 21
-1.0
 31
0.0
 12
-1.0
 22
0.0
 32
0.0
 13
0.0
 23
1.0
 33
0.0
  0
ENDBLK
  5
A9
330
A7
100
AcDbEntity
  8
0
100
AcDbBlockEnd
  0
ENDSEC
  0
SECTION
  2
ENTITIES
  0
ARC
  5
B4
330
6C
100
AcDbEntity
  8
Sichtbare Kanten(DIN)
100
AcDbCircle
 10
75.04822628067964
 20
303.8470191356705
 30
0.0
 40
2.0
100
AcDbArc
 50
180.0
 51
0.0
  0
LINE
  5
B5
330
6C
100
AcDbEntity
  8
Sichtbare Kanten(DIN)
100
AcDbLine
 10
47.54822628067963
 20
303.8470191356704
 30
0.0
 11
73.04822628067964
 21
303.8470191356704
 31
0.0
  0
LINE
  5
B6
330
6C
100
AcDbEntity
  8
Sichtbare Kanten(DIN)
100
AcDbLine
 10
47.54822628067962
 20
289.8470191356704
 30
0.0
 11
47.54822628067962
 21
301.1470191356705
 31
0.0
  0
LINE
  5
B7
330
6C
100
AcDbEntity
  8
Sichtbare Kanten(DIN)
100
AcDbLine
 10
47.54822628067963
 20
303.6470191356705
 30
0.0
 11
47.54822628067963
 21
303.8470191356704
 31
0.0
  0
LINE
  5
B8
330
6C
100
AcDbEntity
  8
Sichtbare Kanten(DIN)
100
AcDbLine
 10
49.94822628067963
 20
289.8470191356704
 30
0.0
 11
47.54822628067962
 21
289.8470191356704
 31
0.0
  0
LINE
  5
B9
330
6C
100
AcDbEntity
  8
Sichtbare Kanten(DIN)
100
AcDbLine
 10
49.94822628067963
 20
293.8470191356704
 30
0.0
 11
49.94822628067963
 21
289.8470191356704
 31
0.0
  0
LINE
  5
BA
330
6C
100
AcDbEntity
  8
Sichtbare Kanten(DIN)
100
AcDbLine
 10
50.04822628067962
 20
293.8470191356704
 30
0.0
 11
49.94822628067963
 21
293.8470191356704
 31
0.0
  0
LINE
  5
BB
330
6C
100
AcDbEntity
  8
Sichtbare Kanten(DIN)
100
AcDbLine
 10
49.5482262806796
 20
235.2470191356704
 30
0.0
 11
50.0482262806796
 21
235.2470191356704
 31
0.0
  0
ARC
  5
BC
330
6C
100
AcDbEntity
  8
Sichtbare Kanten(DIN)
100
AcDbCircle
 10
49.54822628067958
 20
233.2470191356705
 30
0.0
 40
1.999999999999979
100
AcDbArc
 50
89.99999999999948
 51
180.0
  0
LINE
  5
BD
330
6C
100
AcDbEntity
  8
Sichtbare Kanten(DIN)
100
AcDbLine
 10
47.54822628067959
 20
226.1470191356705
 30
0.0
 11
47.5482262806796
 21
233.2470191356705
 31
0.0
  0
ARC
  5
BE
330
6C
100
AcDbEntity
  8
Sichtbare Kanten(DIN)
100
AcDbCircle
 10
48.5482262806796
 20
226.1470191356705
 30
0.0
 40
1.000000000000014
100
AcDbArc
 50
180.0
 51
269.999999999999
  0
LINE
  5
BF
330
6C
100
AcDbEntity
  8
Sichtbare Kanten(DIN)
100
AcDbLine
 10
48.94822628067959
 20
225.1470191356705
 30
0.0
 11
48.54822628067958
 21
225.1470191356705
 31
0.0
  0
ARC
  5
C0
330
6C
100
AcDbEntity
  8
Sichtbare Kanten(DIN)
100
AcDbCircle
 10
48.94822628067958
 20
226.1470191356705
 30
0.0
 40
1.000000000000014
100
AcDbArc
 50
270.000000000001
 51
0.0
  0
LINE
  5
C1
330
6C
100
AcDbEntity
  8
Sichtbare Kanten(DIN)
100
AcDbLine
 10
49.94822628067959
 20
230.1470191356705
 30
0.0
 11
49.94822628067959
 21
226.1470191356705
 31
0.0
  0
LINE
  5
C2
330
6C
100
AcDbEntity
  8
Sichtbare Kanten(DIN)
100
AcDbLine
 10
50.0482262806796
 20
230.1470191356705
 30
0.0
 11
49.94822628067959
 21
230.1470191356705
 31
0.0
  0
LINE
  5
C3
330
6C
100
AcDbEntity
  8
Sichtbare Kanten(DIN)
100
AcDbLine
 10
49.54822628067957
 20
160.7470191356705
 30
0.0
 11
50.04822628067956
 21
160.7470191356705
 31
0.0
  0
ARC
  5
C4
330
6C
100
AcDbEntity
  8
Sichtbare Kanten(DIN)
100
AcDbCircle
 10
49.54822628067955
 20
158.7470191356704
 30
0.0
 40
1.999999999999997
100
AcDbArc
 50
90.0
 51
180.0
  0
LINE
  5
C5
330
6C
100
AcDbEntity
  8
Sichtbare Kanten(DIN)
100
AcDbLine
 10
47.54822628067956
 20
151.6470191356704
 30
0.0
 11
47.54822628067956
 21
158.7470191356704
 31
0.0
  0
ARC
  5
C6
330
6C
100
AcDbEntity
  8
Sichtbare Kanten(DIN)
100
AcDbCircle
 10
48.5482262806796
 20
151.6470191356705
 30
0.0
 40
1.000000000000049
100
AcDbArc
 50
180.0
 51
269.9999999999969
  0
LINE
  5
C7
330
6C
100
AcDbEntity
  8
Sichtbare Kanten(DIN)
100
AcDbLine
 10
48.94822628067956
 20
150.6470191356704
 30
0.0
 11
48.54822628067956
 21
150.6470191356704
 31
0.0
  0
ARC
  5
C8
330
6C
100
AcDbEntity
  8
Sichtbare Kanten(DIN)
100
AcDbCircle
 10
48.9482262806795
 20
151.6470191356705
 30
0.0
 40
1.000000000000049
100
AcDbArc
 50
270.0000000000031
 51
0.0
  0
LINE
  5
C9
330
6C
100
AcDbEntity
  8
Sichtbare Kanten(DIN)
100
AcDbLine
 10
49.94822628067956
 20
155.6470191356704
 30
0.0
 11
49.94822628067956
 21
151.6470191356704
 31
0.0
  0
LINE
  5
CA
330
6C
100
AcDbEntity
  8
Sichtbare Kanten(DIN)
100
AcDbLine
 10
50.04822628067956
 20
155.6470191356704
 30
0.0
 11
49.94822628067956
 21
155.6470191356704
 31
0.0
  0
LINE
  5
CB
330
6C
100
AcDbEntity
  8
Sichtbare Kanten(DIN)
100
AcDbLine
 10
49.54822628067953
 20
76.24701913567045
 30
0.0
 11
50.04822628067952
 21
76.24701913567045
 31
0.0
  0
ARC
  5
CC
330
6C
100
AcDbEntity
  8
Sichtbare Kanten(DIN)
100
AcDbCircle
 10
49.54822628067951
 20
74.24701913567047
 30
0.0
 40
1.999999999999988
100
AcDbArc
 50
89.99999999999975
 51
180.0
  0
LINE
  5
CD
330
6C
100
AcDbEntity
  8
Sichtbare Kanten(DIN)
100
AcDbLine
 10
47.54822628067952
 20
67.14701913567046
 30
0.0
 11
47.54822628067952
 21
74.24701913567047
 31
0.0
  0
ARC
  5
CE
330
6C
100
AcDbEntity
  8
Sichtbare Kanten(DIN)
100
AcDbCircle
 10
48.54822628067953
 20
67.14701913567046
 30
0.0
 40
0.9999999999999964
100
AcDbArc
 50
180.0
 51
269.9999999999995
  0
LINE
  5
CF
330
6C
100
AcDbEntity
  8
Sichtbare Kanten(DIN)
100
AcDbLine
 10
48.94822628067952
 20
66.14701913567045
 30
0.0
 11
48.54822628067951
 21
66.14701913567045
 31
0.0
  0
ARC
  5
D0
330
6C
100
AcDbEntity
  8
Sichtbare Kanten(DIN)
100
AcDbCircle
 10
48.94822628067952
 20
67.14701913567046
 30
0.0
 40
1.000000000000005
100
AcDbArc
 50
270.0000000000005
 51
0.0
  0
LINE
  5
D1
330
6C
100
AcDbEntity
  8
Sichtbare Kanten(DIN)
100
AcDbLine
 10
49.94822628067952
 20
71.14701913567045
 30
0.0
 11
49.94822628067952
 21
67.14701913567046
 31
0.0
  0
LINE
  5
D2
330
6C
100
AcDbEntity
  8
Sichtbare Kanten(DIN)
100
AcDbLine
 10
50.04822628067952
 20
71.14701913567045
 30
0.0
 11
49.94822628067952
 21
71.14701913567045
 31
0.0
  0
LINE
  5
D3
330
6C
100
AcDbEntity
  8
Sichtbare Kanten(DIN)
100
AcDbLine
 10
49.5482262806795
 20
25.74701913567045
 30
0.0
 11
50.0482262806795
 21
25.74701913567045
 31
0.0
  0
ARC
  5
D4
330
6C
100
AcDbEntity
  8
Sichtbare Kanten(DIN)
100
AcDbCircle
 10
49.5482262806795
 20
23.74701913567044
 30
0.0
 40
1.999999999999997
100
AcDbArc
 50
90.0
 51
180.0
  0
LINE
  5
D5
330
6C
100
AcDbEntity
  8
Sichtbare Kanten(DIN)
100
AcDbLine
 10
47.5482262806795
 20
16.64701913567045
 30
0.0
 11
47.5482262806795
 21
23.74701913567044
 31
0.0
  0
ARC
  5
D6
330
6C
100
AcDbEntity
  8
Sichtbare Kanten(DIN)
100
AcDbCircle
 10
48.5482262806795
 20
16.64701913567045
 30
0.0
 40
1.000000000000005
100
AcDbArc
 50
180.0
 51
269.9999999999995
  0
LINE
  5
D7
330
6C
100
AcDbEntity
  8
Sichtbare Kanten(DIN)
100
AcDbLine
 10
48.94822628067949
 20
15.64701913567045
 30
0.0
 11
48.5482262806795
 21
15.64701913567045
 31
0.0
  0
ARC
  5
D8
330
6C
100
AcDbEntity
  8
Sichtbare Kanten(DIN)
100
AcDbCircle
 10
48.94822628067949
 20
16.64701913567045
 30
0.0
 40
1.000000000000005
100
AcDbArc
 50
270.0
 51
0.0
  0
LINE
  5
D9
330
6C
100
AcDbEntity
  8
Sichtbare Kanten(DIN)
100
AcDbLine
 10
49.9482262806795
 20
20.64701913567045
 30
0.0
 11
49.9482262806795
 21
16.64701913567045
 31
0.0
  0
LINE
  5
DA
330
6C
100
AcDbEntity
  8
Sichtbare Kanten(DIN)
100
AcDbLine
 10
50.0482262806795
 20
20.64701913567045
 30
0.0
 11
49.9482262806795
 21
20.64701913567045
 31
0.0
  0
LINE
  5
DB
330
6C
100
AcDbEntity
  8
Sichtbare Kanten(DIN)
100
AcDbLine
 10
100.1482262806795
 20
20.64701913567042
 30
0.0
 11
100.0482262806795
 21
20.64701913567042
 31
0.0
  0
LINE
  5
DC
330
6C
100
AcDbEntity
  8
Sichtbare Kanten(DIN)
100
AcDbLine
 10
100.1482262806795
 20
16.64701913567042
 30
0.0
 11
100.1482262806795
 21
20.64701913567042
 31
0.0
  0
ARC
  5
DD
330
6C
100
AcDbEntity
  8
Sichtbare Kanten(DIN)
100
AcDbCircle
 10
101.1482262806795
 20
16.64701913567042
 30
0.0
 40
1.000000000000005
100
AcDbArc
 50
180.0
 51
270.0
  0
LINE
  5
DE
330
6C
100
AcDbEntity
  8
Sichtbare Kanten(DIN)
100
AcDbLine
 10
101.5482262806795
 20
15.64701913567042
 30
0.0
 11
101.1482262806795
 21
15.64701913567042
 31
0.0
  0
ARC
  5
DF
330
6C
100
AcDbEntity
  8
Sichtbare Kanten(DIN)
100
AcDbCircle
 10
101.5482262806795
 20
16.64701913567042
 30
0.0
 40
1.000000000000005
100
AcDbArc
 50
270.000000000001
 51
0.0
  0
LINE
  5
E0
330
6C
100
AcDbEntity
  8
Sichtbare Kanten(DIN)
100
AcDbLine
 10
102.5482262806795
 20
23.74701913567041
 30
0.0
 11
102.5482262806795
 21
16.64701913567042
 31
0.0
  0
ARC
  5
E1
330
6C
100
AcDbEntity
  8
Sichtbare Kanten(DIN)
100
AcDbCircle
 10
100.5482262806795
 20
23.74701913567041
 30
0.0
 40
2.000000000000006
100
AcDbArc
 50
0.0
 51
90.0
  0
LINE
  5
E2
330
6C
100
AcDbEntity
  8
Sichtbare Kanten(DIN)
100
AcDbLine
 10
100.0482262806795
 20
25.74701913567042
 30
0.0
 11
100.5482262806795
 21
25.74701913567042
 31
0.0
  0
LINE
  5
E3
330
6C
100
AcDbEntity
  8
Sichtbare Kanten(DIN)
100
AcDbLine
 10
100.1482262806795
 20
71.1470191356704
 30
0.0
 11
100.0482262806795
 21
71.1470191356704
 31
0.0
  0
LINE
  5
E4
330
6C
100
AcDbEntity
  8
Sichtbare Kanten(DIN)
100
AcDbLine
 10
100.1482262806795
 20
67.14701913567042
 30
0.0
 11
100.1482262806795
 21
71.1470191356704
 31
0.0
  0
ARC
  5
E5
330
6C
100
AcDbEntity
  8
Sichtbare Kanten(DIN)
100
AcDbCircle
 10
101.1482262806795
 20
67.14701913567042
 30
0.0
 40
0.9999999999999964
100
AcDbArc
 50
180.0
 51
270.0
  0
LINE
  5
E6
330
6C
100
AcDbEntity
  8
Sichtbare Kanten(DIN)
100
AcDbLine
 10
101.5482262806795
 20
66.1470191356704
 30
0.0
 11
101.1482262806795
 21
66.1470191356704
 31
0.0
  0
ARC
  5
E7
330
6C
100
AcDbEntity
  8
Sichtbare Kanten(DIN)
100
AcDbCircle
 10
101.5482262806795
 20
67.14701913567042
 30
0.0
 40
1.000000000000005
100
AcDbArc
 50
270.0
 51
0.0
  0
LINE
  5
E8
330
6C
100
AcDbEntity
  8
Sichtbare Kanten(DIN)
100
AcDbLine
 10
102.5482262806795
 20
74.24701913567043
 30
0.0
 11
102.5482262806795
 21
67.14701913567042
 31
0.0
  0
ARC
  5
E9
330
6C
100
AcDbEntity
  8
Sichtbare Kanten(DIN)
100
AcDbCircle
 10
100.5482262806795
 20
74.24701913567043
 30
0.0
 40
1.999999999999992
100
AcDbArc
 50
0.0
 51
90.0
  0
LINE
  5
EA
330
6C
100
AcDbEntity
  8
Sichtbare Kanten(DIN)
100
AcDbLine
 10
100.0482262806795
 20
76.24701913567043
 30
0.0
 11
100.5482262806795
 21
76.24701913567043
 31
0.0
  0
LINE
  5
EB
330
6C
100
AcDbEntity
  8
Sichtbare Kanten(DIN)
100
AcDbLine
 10
100.1482262806796
 20
155.6470191356704
 30
0.0
 11
100.0482262806795
 21
155.6470191356704
 31
0.0
  0
LINE
  5
EC
330
6C
100
AcDbEntity
  8
Sichtbare Kanten(DIN)
100
AcDbLine
 10
100.1482262806796
 20
151.6470191356704
 30
0.0
 11
100.1482262806796
 21
155.6470191356704
 31
0.0
  0
ARC
  5
ED
330
6C
100
AcDbEntity
  8
Sichtbare Kanten(DIN)
100
AcDbCircle
 10
101.1482262806796
 20
151.6470191356705
 30
0.0
 40
1.000000000000049
100
AcDbArc
 50
180.0
 51
269.9999999999969
  0
LINE
  5
EE
330
6C
100
AcDbEntity
  8
Sichtbare Kanten(DIN)
100
AcDbLine
 10
101.5482262806795
 20
150.6470191356704
 30
0.0
 11
101.1482262806795
 21
150.6470191356704
 31
0.0
  0
ARC
  5
EF
330
6C
100
AcDbEntity
  8
Sichtbare Kanten(DIN)
100
AcDbCircle
 10
101.5482262806795
 20
151.6470191356705
 30
0.0
 40
1.000000000000049
100
AcDbArc
 50
270.0000000000031
 51
0.0
  0
LINE
  5
F0
330
6C
100
AcDbEntity
  8
Sichtbare Kanten(DIN)
100
AcDbLine
 10
102.5482262806795
 20
158.7470191356704
 30
0.0
 11
102.5482262806795
 21
151.6470191356704
 31
0.0
  0
ARC
  5
F1
330
6C
100
AcDbEntity
  8
Sichtbare Kanten(DIN)
100
AcDbCircle
 10
100.5482262806795
 20
158.7470191356704
 30
0.0
 40
1.999999999999992
100
AcDbArc
 50
0.0
 51
90.0
  0
LINE
  5
F2
330
6C
100
AcDbEntity
  8
Sichtbare Kanten(DIN)
100
AcDbLine
 10
100.0482262806795
 20
160.7470191356705
 30
0.0
 11
100.5482262806796
 21
160.7470191356705
 31
0.0
  0
LINE
  5
F3
330
6C
100
AcDbEntity
  8
Sichtbare Kanten(DIN)
100
AcDbLine
 10
100.1482262806796
 20
230.1470191356705
 30
0.0
 11
100.0482262806796
 21
230.1470191356705
 31
0.0
  0
LINE
  5
F4
330
6C
100
AcDbEntity
  8
Sichtbare Kanten(DIN)
100
AcDbLine
 10
100.1482262806796
 20
226.0470191356704
 30
0.0
 11
100.1482262806796
 21
230.1470191356705
 31
0.0
  0
ARC
  5
F5
330
6C
100
AcDbEntity
  8
Sichtbare Kanten(DIN)
100
AcDbCircle
 10
101.1482262806796
 20
226.0470191356705
 30
0.0
 40
1.000000000000049
100
AcDbArc
 50
180.0
 51
269.9999999999969
  0
LINE
  5
F6
330
6C
100
AcDbEntity
  8
Sichtbare Kanten(DIN)
100
AcDbLine
 10
101.5482262806796
 20
225.0470191356705
 30
0.0
 11
101.1482262806796
 21
225.0470191356705
 31
0.0
  0
ARC
  5
F7
330
6C
100
AcDbEntity
  8
Sichtbare Kanten(DIN)
100
AcDbCircle
 10
101.5482262806795
 20
226.0470191356705
 30
0.0
 40
1.000000000000049
100
AcDbArc
 50
270.0000000000031
 51
0.0
  0
LINE
  5
F8
330
6C
100
AcDbEntity
  8
Sichtbare Kanten(DIN)
100
AcDbLine
 10
102.5482262806796
 20
233.2470191356705
 30
0.0
 11
102.5482262806796
 21
226.0470191356704
 31
0.0
  0
ARC
  5
F9
330
6C
100
AcDbEntity
  8
Sichtbare Kanten(DIN)
100
AcDbCircle
 10
100.5482262806796
 20
233.2470191356705
 30
0.0
 40
1.999999999999992
100
AcDbArc
 50
0.0
 51
90.00000000000047
  0
LINE
  5
FA
330
6C
100
AcDbEntity
  8
Sichtbare Kanten(DIN)
100
AcDbLine
 10
100.0482262806796
 20
235.2470191356704
 30
0.0
 11
100.5482262806796
 21
235.2470191356704
 31
0.0
  0
LINE
  5
FB
330
6C
100
AcDbEntity
  8
Sichtbare Kanten(DIN)
100
AcDbLine
 10
100.1482262806796
 20
293.8470191356704
 30
0.0
 11
100.0482262806796
 21
293.8470191356704
 31
0.0
  0
LINE
  5
FC
330
6C
100
AcDbEntity
  8
Sichtbare Kanten(DIN)
100
AcDbLine
 10
100.1482262806796
 20
289.8470191356704
 30
0.0
 11
100.1482262806796
 21
293.8470191356704
 31
0.0
  0
LINE
  5
FD
330
6C
100
AcDbEntity
  8
Sichtbare Kanten(DIN)
100
AcDbLine
 10
102.5482262806796
 20
289.8470191356704
 30
0.0
 11
100.1482262806796
 21
289.8470191356704
 31
0.0
  0
LINE
  5
FE
330
6C
100
AcDbEntity
  8
Sichtbare Kanten(DIN)
100
AcDbLine
 10
102.5482262806796
 20
303.8470191356704
 30
0.0
 11
102.5482262806796
 21
303.6470191356705
 31
0.0
  0
LINE
  5
FF
330
6C
100
AcDbEntity
  8
Sichtbare Kanten(DIN)
100
AcDbLine
 10
102.5482262806796
 20
301.1470191356705
 30
0.0
 11
102.5482262806796
 21
289.8470191356704
 31
0.0
  0
LINE
  5
100
330
6C
100
AcDbEntity
  8
Sichtbare Kanten(DIN)
100
AcDbLine
 10
77.04822628067964
 20
303.8470191356704
 30
0.0
 11
102.5482262806796
 21
303.8470191356704
 31
0.0
  0
CIRCLE
  5
101
330
6C
100
AcDbEntity
  8
Sichtbare Kanten(DIN)
100
AcDbCircle
 10
75.0482262806795
 20
-13.35298086432958
 30
0.0
 40
6.5
  0
ARC
  5
102
330
6C
100
AcDbEntity
  8
Sichtbare Kanten(DIN)
100
AcDbCircle
 10
85.04822628067948
 20
-10.3529808643296
 30
0.0
 40
15.0
100
AcDbArc
 50
269.9999999999999
 51
0.0
  0
ARC
  5
103
330
6C
100
AcDbEntity
  8
Sichtbare Kanten(DIN)
100
AcDbCircle
 10
65.04822628067948
 20
-10.35298086432958
 30
0.0
 40
15.0
100
AcDbArc
 50
180.0
 51
269.9999999999999
  0
LINE
  5
104
330
6C
100
AcDbEntity
  8
Sichtbare Kanten(DIN)
100
AcDbLine
 10
100.0482262806795
 20
11.14701913567046
 30
0.0
 11
100.0482262806795
 21
-10.3529808643296
 31
0.0
  0
LINE
  5
105
330
6C
100
AcDbEntity
  8
Sichtbare Kanten(DIN)
100
AcDbLine
 10
50.04822628067948
 20
-10.35298086432957
 30
0.0
 11
50.0482262806795
 21
11.14701913567047
 31
0.0
  0
LINE
  5
106
330
6C
100
AcDbEntity
  8
Sichtbare Kanten(DIN)
100
AcDbLine
 10
85.04822628067948
 20
-25.35298086432959
 30
0.0
 11
65.04822628067948
 21
-25.35298086432959
 31
0.0
  0
LINE
  5
107
330
6C
100
AcDbEntity
  8
Sichtbare Kanten(DIN)
100
AcDbLine
 10
68.29822628067951
 20
14.64701913567042
 30
0.0
 11
81.79822628067951
 21
14.64701913567042
 31
0.0
  0
LINE
  5
108
330
6C
100
AcDbEntity
  8
Sichtbare Kanten(DIN)
100
AcDbLine
 10
81.79822628067952
 20
51.14701913567045
 30
0.0
 11
81.79822628067951
 21
11.14701913567048
 31
0.0
  0
ARC
  5
109
330
6C
100
AcDbEntity
  8
Sichtbare Kanten(DIN)
100
AcDbCircle
 10
76.79822628067952
 20
51.14701913567046
 30
0.0
 40
4.999999999999991
100
AcDbArc
 50
0.0
 51
90.0
  0
ARC
  5
10A
330
6C
100
AcDbEntity
  8
Sichtbare Kanten(DIN)
100
AcDbCircle
 10
66.29822628067953
 20
40.64701913567048
 30
0.0
 40
1.999999999999995
100
AcDbArc
 50
0.0
 51
89.99999999999975
  0
LINE
  5
10B
330
6C
100
AcDbEntity
  8
Sichtbare Kanten(DIN)
100
AcDbLine
 10
68.29822628067951
 20
11.14701913567048
 30
0.0
 11
68.29822628067953
 21
40.64701913567048
 31
0.0
  0
LINE
  5
10C
330
6C
100
AcDbEntity
  8
Sichtbare Kanten(DIN)
100
AcDbLine
 10
81.79822628067951
 20
11.14701913567047
 30
0.0
 11
95.0482262806795
 21
11.14701913567047
 31
0.0
  0
LINE
  5
10D
330
6C
100
AcDbEntity
  8
Sichtbare Kanten(DIN)
100
AcDbLine
 10
95.04822628067962
 20
301.1470191356705
 30
0.0
 11
81.79822628067965
 21
301.1470191356705
 31
0.0
  0
LINE
  5
10E
330
6C
100
AcDbEntity
  8
Sichtbare Kanten(DIN)
100
AcDbLine
 10
55.0482262806795
 20
11.14701913567049
 30
0.0
 11
68.29822628067951
 21
11.14701913567048
 31
0.0
  0
LINE
  5
10F
330
6C
100
AcDbEntity
  8
Sichtbare Kanten(DIN)
100
AcDbLine
 10
68.29822628067964
 20
301.1470191356705
 30
0.0
 11
55.04822628068001
 21
301.1470191356705
 31
0.0
  0
LINE
  5
110
330
6C
100
AcDbEntity
  8
Sichtbare Kanten(DIN)
100
AcDbLine
 10
81.79822628067965
 20
301.1470191356705
 30
0.0
 11
81.79822628067965
 21
261.1470191356705
 31
0.0
  0
ARC
  5
111
330
6C
100
AcDbEntity
  8
Sichtbare Kanten(DIN)
100
AcDbCircle
 10
76.79822628067961
 20
261.1470191356705
 30
0.0
 40
5.000000000000017
100
AcDbArc
 50
270.0000000000002
 51
0.0
  0
LINE
  5
112
330
6C
100
AcDbEntity
  8
Sichtbare Kanten(DIN)
100
AcDbLine
 10
76.79822628067963
 20
256.1470191356705
 30
0.0
 11
55.04822628067993
 21
256.1470191356705
 31
0.0
  0
LINE
  5
113
330
6C
100
AcDbEntity
  8
Sichtbare Kanten(DIN)
100
AcDbLine
 10
50.04822628067962
 20
256.1470191356705
 30
0.0
 11
55.04822628067993
 21
256.1470191356705
 31
0.0
  0
LINE
  5
114
330
6C
100
AcDbEntity
  8
Sichtbare Kanten(DIN)
100
AcDbLine
 10
55.04822628067994
 20
269.6470191356705
 30
0.0
 11
66.29822628067962
 21
269.6470191356705
 31
0.0
  0
LINE
  5
115
330
6C
100
AcDbEntity
  8
Sichtbare Kanten(DIN)
100
AcDbLine
 10
55.04822628067994
 20
269.6470191356705
 30
0.0
 11
50.04822628067962
 21
269.6470191356705
 31
0.0
  0
ARC
  5
116
330
6C
100
AcDbEntity
  8
Sichtbare Kanten(DIN)
100
AcDbCircle
 10
66.29822628067964
 20
271.6470191356705
 30
0.0
 40
1.999999999999992
100
AcDbArc
 50
269.9999999999995
 51
0.0
  0
LINE
  5
117
330
6C
100
AcDbEntity
  8
Sichtbare Kanten(DIN)
100
AcDbLine
 10
68.29822628067963
 20
271.6470191356705
 30
0.0
 11
68.29822628067964
 21
301.1470191356705
 31
0.0
  0
LINE
  5
118
330
6C
100
AcDbEntity
  8
Sichtbare Kanten(DIN)
100
AcDbLine
 10
55.04822628067952
 20
56.14701913567046
 30
0.0
 11
76.79822628067952
 21
56.14701913567046
 31
0.0
  0
LINE
  5
119
330
6C
100
AcDbEntity
  8
Sichtbare Kanten(DIN)
100
AcDbLine
 10
66.29822628067953
 20
42.64701913567047
 30
0.0
 11
55.04822628067952
 21
42.64701913567048
 31
0.0
  0
LINE
  5
11A
330
6C
100
AcDbEntity
  8
Sichtbare Kanten(DIN)
100
AcDbLine
 10
55.04822628067952
 20
56.14701913567046
 30
0.0
 11
50.04822628067952
 21
56.14701913567046
 31
0.0
  0
LINE
  5
11B
330
6C
100
AcDbEntity
  8
Sichtbare Kanten(DIN)
100
AcDbLine
 10
50.04822628067952
 20
42.64701913567047
 30
0.0
 11
55.04822628067952
 21
42.64701913567047
 31
0.0
  0
LINE
  5
11C
330
6C
100
AcDbEntity
  8
Sichtbare Kanten(DIN)
100
AcDbLine
 10
52.54822628067952
 20
56.14701913567047
 30
0.0
 11
52.54822628067952
 21
51.14701913567046
 31
0.0
  0
LINE
  5
11D
330
6C
100
AcDbEntity
  8
Sichtbare Kanten(DIN)
100
AcDbLine
 10
50.04822628067952
 20
51.14701913567046
 30
0.0
 11
50.04822628067952
 21
56.14701913567047
 31
0.0
  0
LINE
  5
11E
330
6C
100
AcDbEntity
  8
Sichtbare Kanten(DIN)
100
AcDbLine
 10
52.54822628067952
 20
51.14701913567046
 30
0.0
 11
52.54822628067952
 21
42.64701913567046
 31
0.0
  0
LINE
  5
11F
330
6C
100
AcDbEntity
  8
Sichtbare Kanten(DIN)
100
AcDbLine
 10
50.04822628067926
 20
42.64701913567046
 30
0.0
 11
50.04822628067927
 21
51.14701913567046
 31
0.0
  0
LINE
  5
120
330
6C
100
AcDbEntity
  8
Sichtbare Kanten(DIN)
100
AcDbLine
 10
100.0482262806795
 20
11.14701913567047
 30
0.0
 11
95.0482262806795
 21
11.14701913567048
 31
0.0
  0
LINE
  5
121
330
6C
100
AcDbEntity
  8
Sichtbare Kanten(DIN)
100
AcDbLine
 10
100.0482262806795
 20
11.14701913567047
 30
0.0
 11
100.0482262806796
 21
301.1470191356705
 31
0.0
  0
LINE
  5
122
330
6C
100
AcDbEntity
  8
Sichtbare Kanten(DIN)
100
AcDbLine
 10
100.0482262806796
 20
301.1470191356705
 30
0.0
 11
95.04822628067962
 21
301.1470191356705
 31
0.0
  0
LINE
  5
123
330
6C
100
AcDbEntity
  8
Sichtbare Kanten(DIN)
100
AcDbLine
 10
50.04822628067952
 20
56.14701913567046
 30
0.0
 11
50.04822628067962
 21
256.1470191356705
 31
0.0
  0
LINE
  5
124
330
6C
100
AcDbEntity
  8
Sichtbare Kanten(DIN)
100
AcDbLine
 10
50.0482262806795
 20
11.14701913567049
 30
0.0
 11
50.04822628067952
 21
42.64701913567047
 31
0.0
  0
LINE
  5
125
330
6C
100
AcDbEntity
  8
Sichtbare Kanten(DIN)
100
AcDbLine
 10
55.0482262806795
 20
11.14701913567049
 30
0.0
 11
50.0482262806795
 21
11.14701913567049
 31
0.0
  0
LINE
  5
126
330
6C
100
AcDbEntity
  8
Sichtbare Kanten(DIN)
100
AcDbLine
 10
50.04822628067962
 20
269.6470191356705
 30
0.0
 11
50.04822628067963
 21
301.1470191356705
 31
0.0
  0
LINE
  5
127
330
6C
100
AcDbEntity
  8
Sichtbare Kanten(DIN)
100
AcDbLine
 10
55.04822628068001
 20
301.1470191356705
 30
0.0
 11
50.04822628067963
 21
301.1470191356705
 31
0.0
  0
LINE
  5
128
330
6C
100
AcDbEntity
  8
Sichtbare Kanten(DIN)
100
AcDbLine
 10
50.04822628067962
 20
256.1470191356705
 30
0.0
 11
50.04822628067962
 21
264.6470191356705
 31
0.0
  0
LINE
  5
129
330
6C
100
AcDbEntity
  8
Sichtbare Kanten(DIN)
100
AcDbLine
 10
50.04822628067962
 20
264.6470191356705
 30
0.0
 11
50.04822628067962
 21
269.6470191356704
 31
0.0
  0
LINE
  5
12A
330
6C
100
AcDbEntity
  8
Sichtbare Kanten(DIN)
100
AcDbLine
 10
52.54822628067962
 20
269.6470191356705
 30
0.0
 11
52.54822628067962
 21
264.6470191356705
 31
0.0
  0
LINE
  5
12B
330
6C
100
AcDbEntity
  8
Sichtbare Kanten(DIN)
100
AcDbLine
 10
52.54822628067962
 20
264.6470191356705
 30
0.0
 11
52.54822628067962
 21
256.1470191356705
 31
0.0
  0
ARC
  5
12C
330
6C
100
AcDbEntity
  8
Sichtbare Kanten(DIN)
100
AcDbCircle
 10
48.79822628067967
 20
299.8970191356705
 30
0.0
 40
3.749999999999942
100
AcDbArc
 50
19.47122063448983
 51
90.00000000000026
  0
ARC
  5
12D
330
6C
100
AcDbEntity
  8
Sichtbare Kanten(DIN)
100
AcDbCircle
 10
48.79822628067966
 20
299.8970191356705
 30
0.0
 40
1.249999999999977
100
AcDbArc
 50
0.0
 51
90.00000000000039
  0
LINE
  5
12E
330
6C
100
AcDbEntity
  8
Sichtbare Kanten(DIN)
100
AcDbLine
 10
37.63100077221794
 20
303.6470191356704
 30
0.0
 11
36.04822628067961
 21
303.6470191356704
 31
0.0
  0
LINE
  5
12F
330
6C
100
AcDbEntity
  8
Sichtbare Kanten(DIN)
100
AcDbLine
 10
36.04822628067957
 20
301.1470191356705
 30
0.0
 11
37.63100077221793
 21
301.1470191356705
 31
0.0
  0
LINE
  5
130
330
6C
100
AcDbEntity
  8
Sichtbare Kanten(DIN)
100
AcDbLine
 10
114.0482262806797
 20
303.6470191356704
 30
0.0
 11
112.4654517891414
 21
303.6470191356704
 31
0.0
  0
LINE
  5
131
330
6C
100
AcDbEntity
  8
Sichtbare Kanten(DIN)
100
AcDbLine
 10
112.4654517891414
 20
301.1470191356704
 30
0.0
 11
114.0482262806797
 21
301.1470191356704
 31
0.0
  0
LINE
  5
132
330
6C
100
AcDbEntity
  8
Sichtbare Kanten(DIN)
100
AcDbLine
 10
36.04822628067962
 20
301.1470191356705
 30
0.0
 11
36.04822628067962
 21
303.6470191356704
 31
0.0
  0
LINE
  5
133
330
6C
100
AcDbEntity
  8
Sichtbare Kanten(DIN)
100
AcDbLine
 10
114.0482262806797
 20
301.1470191356704
 30
0.0
 11
114.0482262806797
 21
303.6470191356704
 31
0.0
  0
LINE
  5
134
330
6C
100
AcDbEntity
  8
Sichtbare Kanten(DIN)
100
AcDbLine
 10
37.6310007722179
 20
303.6470191356705
 30
0.0
 11
40.61200747831944
 21
303.6470191356705
 31
0.0
  0
LINE
  5
135
330
6C
100
AcDbEntity
  8
Sichtbare Kanten(DIN)
100
AcDbLine
 10
40.61200747831944
 20
301.1470191356705
 30
0.0
 11
37.6310007722179
 21
301.1470191356705
 31
0.0
  0
LINE
  5
136
330
6C
100
AcDbEntity
  8
Sichtbare Kanten(DIN)
100
AcDbLine
 10
109.4844450830399
 20
303.6470191356705
 30
0.0
 11
112.4654517891415
 21
303.6470191356705
 31
0.0
  0
LINE
  5
137
330
6C
100
AcDbEntity
  8
Sichtbare Kanten(DIN)
100
AcDbLine
 10
112.4654517891415
 20
301.1470191356705
 30
0.0
 11
109.4844450830399
 21
301.1470191356705
 31
0.0
  0
LINE
  5
138
330
6C
100
AcDbEntity
  8
Sichtbare Kanten(DIN)
100
AcDbLine
 10
48.79822628067966
 20
303.6470191356705
 30
0.0
 11
40.61200747831946
 21
303.6470191356705
 31
0.0
  0
LINE
  5
139
330
6C
100
AcDbEntity
  8
Sichtbare Kanten(DIN)
100
AcDbLine
 10
48.79822628067966
 20
301.1470191356705
 30
0.0
 11
40.61200747831946
 21
301.1470191356705
 31
0.0
  0
ARC
  5
13A
330
6C
100
AcDbEntity
  8
Sichtbare Kanten(DIN)
100
AcDbCircle
 10
101.2982262806797
 20
299.8970191356704
 30
0.0
 40
3.750000000000018
100
AcDbArc
 50
89.99999999999973
 51
160.5287793655094
  0
ARC
  5
13B
330
6C
100
AcDbEntity
  8
Sichtbare Kanten(DIN)
100
AcDbCircle
 10
101.2982262806797
 20
299.8970191356704
 30
0.0
 40
1.250000000000035
100
AcDbArc
 50
90.0
 51
180.0
  0
LINE
  5
13C
330
6C
100
AcDbEntity
  8
Sichtbare Kanten(DIN)
100
AcDbLine
 10
109.4844450830399
 20
303.6470191356705
 30
0.0
 11
101.2982262806797
 21
303.6470191356705
 31
0.0
  0
LINE
  5
13D
330
6C
100
AcDbEntity
  8
Sichtbare Kanten(DIN)
100
AcDbLine
 10
109.4844450830399
 20
301.1470191356705
 30
0.0
 11
101.2982262806797
 21
301.1470191356705
 31
0.0
  0
LINE
  5
13E
330
6C
100
AcDbEntity
  8
Sichtbare Kanten(DIN)
100
AcDbLine
 10
114.0482262806797
 20
301.1470191356704
 30
0.0
 11
121.5482262806796
 21
301.1470191356705
 31
0.0
  0
LINE
  5
13F
330
6C
100
AcDbEntity
  8
Sichtbare Kanten(DIN)
100
AcDbLine
 10
136.5482262806796
 20
286.1470191356705
 30
0.0
 11
136.5482262806796
 21
266.1470191356704
 31
0.0
  0
LINE
  5
140
330
6C
100
AcDbEntity
  8
Sichtbare Kanten(DIN)
100
AcDbLine
 10
121.5482262806796
 20
251.1470191356704
 30
0.0
 11
102.5482262806796
 21
251.1470191356704
 31
0.0
  0
LINE
  5
141
330
6C
100
AcDbEntity
  8
Sichtbare Kanten(DIN)
100
AcDbLine
 10
28.54822628067964
 20
301.1470191356705
 30
0.0
 11
36.04822628067962
 21
301.1470191356705
 31
0.0
  0
LINE
  5
142
330
6C
100
AcDbEntity
  8
Sichtbare Kanten(DIN)
100
AcDbLine
 10
47.54822628067964
 20
251.1470191356705
 30
0.0
 11
28.54822628067961
 21
251.1470191356705
 31
0.0
  0
LINE
  5
143
330
6C
100
AcDbEntity
  8
Sichtbare Kanten(DIN)
100
AcDbLine
 10
13.54822628067962
 20
266.1470191356705
 30
0.0
 11
13.54822628067963
 21
286.1470191356705
 31
0.0
  0
ARC
  5
144
330
6C
100
AcDbEntity
  8
Sichtbare Kanten(DIN)
100
AcDbCircle
 10
28.04822628067963
 20
283.1470191356704
 30
0.0
 40
6.500000000000007
100
AcDbArc
 50
0.0
 51
180.0
  0
LINE
  5
145
330
6C
100
AcDbEntity
  8
Sichtbare Kanten(DIN)
100
AcDbLine
 10
21.54822628067962
 20
269.1470191356704
 30
0.0
 11
21.54822628067962
 21
283.1470191356704
 31
0.0
  0
ARC
  5
146
330
6C
100
AcDbEntity
  8
Sichtbare Kanten(DIN)
100
AcDbCircle
 10
28.04822628067962
 20
269.1470191356704
 30
0.0
 40
6.499999999999996
100
AcDbArc
 50
180.0
 51
0.0
  0
LINE
  5
147
330
6C
100
AcDbEntity
  8
Sichtbare Kanten(DIN)
100
AcDbLine
 10
34.54822628067963
 20
283.1470191356704
 30
0.0
 11
34.54822628067962
 21
269.1470191356704
 31
0.0
  0
ARC
  5
148
330
6C
100
AcDbEntity
  8
Sichtbare Kanten(DIN)
100
AcDbCircle
 10
122.0482262806796
 20
283.1470191356705
 30
0.0
 40
6.500000000000012
100
AcDbArc
 50
0.0
 51
180.0
  0
LINE
  5
149
330
6C
100
AcDbEntity
  8
Sichtbare Kanten(DIN)
100
AcDbLine
 10
115.5482262806796
 20
269.1470191356704
 30
0.0
 11
115.5482262806796
 21
283.1470191356704
 31
0.0
  0
ARC
  5
14A
330
6C
100
AcDbEntity
  8
Sichtbare Kanten(DIN)
100
AcDbCircle
 10
122.0482262806796
 20
269.1470191356704
 30
0.0
 40
6.499999999999994
100
AcDbArc
 50
180.0
 51
0.0
  0
LINE
  5
14B
330
6C
100
AcDbEntity
  8
Sichtbare Kanten(DIN)
100
AcDbLine
 10
128.5482262806796
 20
283.1470191356704
 30
0.0
 11
128.5482262806796
 21
269.1470191356704
 31
0.0
  0
ARC
  5
14C
330
6C
100
AcDbEntity
  8
Sichtbare Kanten(DIN)
100
AcDbCircle
 10
28.5482262806796
 20
266.1470191356704
 30
0.0
 40
14.99999999999996
100
AcDbArc
 50
180.0
 51
270.0000000000001
  0
ARC
  5
14D
330
6C
100
AcDbEntity
  8
Sichtbare Kanten(DIN)
100
AcDbCircle
 10
121.5482262806796
 20
266.1470191356704
 30
0.0
 40
14.99999999999998
100
AcDbArc
 50
269.9999999999999
 51
0.0
  0
ARC
  5
14E
330
6C
100
AcDbEntity
  8
Sichtbare Kanten(DIN)
100
AcDbCircle
 10
28.54822628067961
 20
286.1470191356705
 30
0.0
 40
14.99999999999998
100
AcDbArc
 50
89.99999999999992
 51
180.0
  0
ARC
  5
14F
330
6C
100
AcDbEntity
  8
Sichtbare Kanten(DIN)
100
AcDbCircle
 10
121.5482262806796
 20
286.1470191356705
 30
0.0
 40
14.99999999999996
100
AcDbArc
 50
0.0
 51
90.00000000000005
  0
LINE
  5
150
330
6C
100
AcDbEntity
  8
Sichtbare Kanten(DIN)
100
AcDbLine
 10
50.04822628067962
 20
251.1470191356705
 30
0.0
 11
47.54822628067963
 21
251.1470191356705
 31
0.0
  0
LINE
  5
151
330
6C
100
AcDbEntity
  8
Sichtbare Kanten(DIN)
100
AcDbLine
 10
100.0482262806796
 20
251.1470191356704
 30
0.0
 11
102.5482262806796
 21
251.1470191356704
 31
0.0
  0
LINE
  5
152
330
6C
100
AcDbEntity
  8
Sichtbare Kanten(DIN)
100
AcDbLine
 10
250.5708003296155
 20
289.8470191356705
 30
0.0
 11
250.5708003296155
 21
301.1470191356705
 31
0.0
  0
LINE
  5
153
330
6C
100
AcDbEntity
  8
Sichtbare Kanten(DIN)
100
AcDbLine
 10
250.5708003296155
 20
303.6470191356705
 30
0.0
 11
250.5708003296155
 21
303.8470191356705
 31
0.0
  0
LINE
  5
154
330
6C
100
AcDbEntity
  8
Sichtbare Kanten(DIN)
100
AcDbLine
 10
250.570800329617
 20
235.2470191356705
 30
0.0
 11
250.570800329617
 21
251.1470191356705
 31
0.0
  0
LINE
  5
155
330
6C
100
AcDbEntity
  8
Sichtbare Kanten(DIN)
100
AcDbLine
 10
250.5708003296161
 20
235.2470191356704
 30
0.0
 11
250.5708003296155
 21
233.2470191356705
 31
0.0
  0
LINE
  5
156
330
6C
100
AcDbEntity
  8
Sichtbare Kanten(DIN)
100
AcDbLine
 10
250.5708003296155
 20
226.1470191356705
 30
0.0
 11
250.5708003296155
 21
233.2470191356705
 31
0.0
  0
LINE
  5
157
330
6C
100
AcDbEntity
  8
Sichtbare Kanten(DIN)
100
AcDbLine
 10
250.5708003296155
 20
226.1470191356705
 30
0.0
 11
250.5708003296158
 21
225.1470191356705
 31
0.0
  0
LINE
  5
158
330
6C
100
AcDbEntity
  8
Sichtbare Kanten(DIN)
100
AcDbLine
 10
250.570800329617
 20
160.7470191356705
 30
0.0
 11
250.570800329617
 21
176.6470191356705
 31
0.0
  0
LINE
  5
159
330
6C
100
AcDbEntity
  8
Sichtbare Kanten(DIN)
100
AcDbLine
 10
250.5708003296161
 20
160.7470191356705
 30
0.0
 11
250.5708003296155
 21
158.7470191356705
 31
0.0
  0
LINE
  5
15A
330
6C
100
AcDbEntity
  8
Sichtbare Kanten(DIN)
100
AcDbLine
 10
250.5708003296155
 20
151.6470191356705
 30
0.0
 11
250.5708003296155
 21
158.7470191356705
 31
0.0
  0
LINE
  5
15B
330
6C
100
AcDbEntity
  8
Sichtbare Kanten(DIN)
100
AcDbLine
 10
250.5708003296155
 20
151.6470191356705
 30
0.0
 11
250.5708003296158
 21
150.6470191356704
 31
0.0
  0
LINE
  5
15C
330
6C
100
AcDbEntity
  8
Sichtbare Kanten(DIN)
100
AcDbLine
 10
250.5708003296169
 20
76.24701913567045
 30
0.0
 11
250.5708003296169
 21
92.14701913567047
 31
0.0
  0
LINE
  5
15D
330
6C
100
AcDbEntity
  8
Sichtbare Kanten(DIN)
100
AcDbLine
 10
250.570800329616
 20
76.24701913567045
 30
0.0
 11
250.5708003296155
 21
74.24701913567047
 31
0.0
  0
LINE
  5
15E
330
6C
100
AcDbEntity
  8
Sichtbare Kanten(DIN)
100
AcDbLine
 10
250.5708003296155
 20
67.14701913567046
 30
0.0
 11
250.5708003296155
 21
74.24701913567047
 31
0.0
  0
LINE
  5
15F
330
6C
100
AcDbEntity
  8
Sichtbare Kanten(DIN)
100
AcDbLine
 10
250.5708003296155
 20
67.14701913567046
 30
0.0
 11
250.5708003296158
 21
66.14701913567046
 31
0.0
  0
LINE
  5
160
330
6C
100
AcDbEntity
  8
Sichtbare Kanten(DIN)
100
AcDbLine
 10
250.5708003296169
 20
25.74701913567046
 30
0.0
 11
250.5708003296169
 21
41.64701913567047
 31
0.0
  0
LINE
  5
161
330
6C
100
AcDbEntity
  8
Sichtbare Kanten(DIN)
100
AcDbLine
 10
250.570800329616
 20
25.74701913567044
 30
0.0
 11
250.5708003296155
 21
23.74701913567045
 31
0.0
  0
LINE
  5
162
330
6C
100
AcDbEntity
  8
Sichtbare Kanten(DIN)
100
AcDbLine
 10
250.5708003296155
 20
16.64701913567046
 30
0.0
 11
250.5708003296155
 21
23.74701913567045
 31
0.0
  0
LINE
  5
163
330
6C
100
AcDbEntity
  8
Sichtbare Kanten(DIN)
100
AcDbLine
 10
250.5708003296155
 20
16.64701913567045
 30
0.0
 11
250.5708003296157
 21
15.64701913567045
 31
0.0
  0
LINE
  5
164
330
6C
100
AcDbEntity
  8
Sichtbare Kanten(DIN)
100
AcDbLine
 10
250.5708003296155
 20
303.8470191356705
 30
0.0
 11
248.0708003296155
 21
303.8470191356705
 31
0.0
  0
LINE
  5
165
330
6C
100
AcDbEntity
  8
Sichtbare Kanten(DIN)
100
AcDbLine
 10
248.0708003296157
 20
15.64701913567045
 30
0.0
 11
248.0708003296154
 21
16.64701913567045
 31
0.0
  0
LINE
  5
166
330
6C
100
AcDbEntity
  8
Sichtbare Kanten(DIN)
100
AcDbLine
 10
248.0708003296154
 20
23.74701913567045
 30
0.0
 11
248.0708003296154
 21
16.64701913567046
 31
0.0
  0
LINE
  5
167
330
6C
100
AcDbEntity
  8
Sichtbare Kanten(DIN)
100
AcDbLine
 10
248.0708003296154
 20
23.74701913567045
 30
0.0
 11
248.0708003296161
 21
25.74701913567045
 31
0.0
  0
LINE
  5
168
330
6C
100
AcDbEntity
  8
Sichtbare Kanten(DIN)
100
AcDbLine
 10
248.0708003296169
 20
41.64701913567046
 30
0.0
 11
248.0708003296169
 21
31.64701913567047
 31
0.0
  0
LINE
  5
169
330
6C
100
AcDbEntity
  8
Sichtbare Kanten(DIN)
100
AcDbLine
 10
248.0708003296157
 20
66.14701913567045
 30
0.0
 11
248.0708003296155
 21
67.14701913567046
 31
0.0
  0
LINE
  5
16A
330
6C
100
AcDbEntity
  8
Sichtbare Kanten(DIN)
100
AcDbLine
 10
248.0708003296154
 20
74.24701913567047
 30
0.0
 11
248.0708003296154
 21
67.14701913567046
 31
0.0
  0
LINE
  5
16B
330
6C
100
AcDbEntity
  8
Sichtbare Kanten(DIN)
100
AcDbLine
 10
248.0708003296154
 20
74.24701913567047
 30
0.0
 11
248.0708003296161
 21
76.24701913567045
 31
0.0
  0
LINE
  5
16C
330
6C
100
AcDbEntity
  8
Sichtbare Kanten(DIN)
100
AcDbLine
 10
248.0708003296169
 20
92.14701913567049
 30
0.0
 11
248.0708003296169
 21
82.14701913567047
 31
0.0
  0
LINE
  5
16D
330
6C
100
AcDbEntity
  8
Sichtbare Kanten(DIN)
100
AcDbLine
 10
248.0708003296157
 20
150.6470191356704
 30
0.0
 11
248.0708003296155
 21
151.6470191356705
 31
0.0
  0
LINE
  5
16E
330
6C
100
AcDbEntity
  8
Sichtbare Kanten(DIN)
100
AcDbLine
 10
248.0708003296155
 20
158.7470191356705
 30
0.0
 11
248.0708003296155
 21
151.6470191356705
 31
0.0
  0
LINE
  5
16F
330
6C
100
AcDbEntity
  8
Sichtbare Kanten(DIN)
100
AcDbLine
 10
248.0708003296155
 20
158.7470191356705
 30
0.0
 11
248.0708003296161
 21
160.7470191356705
 31
0.0
  0
LINE
  5
170
330
6C
100
AcDbEntity
  8
Sichtbare Kanten(DIN)
100
AcDbLine
 10
248.0708003296169
 20
176.6470191356705
 30
0.0
 11
248.0708003296169
 21
166.6470191356705
 31
0.0
  0
LINE
  5
171
330
6C
100
AcDbEntity
  8
Sichtbare Kanten(DIN)
100
AcDbLine
 10
248.0708003296158
 20
225.1470191356705
 30
0.0
 11
248.0708003296155
 21
226.1470191356705
 31
0.0
  0
LINE
  5
172
330
6C
100
AcDbEntity
  8
Sichtbare Kanten(DIN)
100
AcDbLine
 10
248.0708003296155
 20
233.2470191356705
 30
0.0
 11
248.0708003296155
 21
226.1470191356705
 31
0.0
  0
LINE
  5
173
330
6C
100
AcDbEntity
  8
Sichtbare Kanten(DIN)
100
AcDbLine
 10
248.0708003296155
 20
233.2470191356705
 30
0.0
 11
248.0708003296161
 21
235.2470191356704
 31
0.0
  0
LINE
  5
174
330
6C
100
AcDbEntity
  8
Sichtbare Kanten(DIN)
100
AcDbLine
 10
248.0708003296169
 20
251.1470191356705
 30
0.0
 11
248.0708003296169
 21
241.1470191356705
 31
0.0
  0
LINE
  5
175
330
6C
100
AcDbEntity
  8
Sichtbare Kanten(DIN)
100
AcDbLine
 10
248.0708003296155
 20
303.8470191356705
 30
0.0
 11
248.0708003296155
 21
303.6470191356705
 31
0.0
  0
LINE
  5
176
330
6C
100
AcDbEntity
  8
Sichtbare Kanten(DIN)
100
AcDbLine
 10
248.0708003296155
 20
301.1470191356705
 30
0.0
 11
248.0708003296155
 21
289.8470191356705
 31
0.0
  0
LINE
  5
177
330
6C
100
AcDbEntity
  8
Sichtbare Kanten(DIN)
100
AcDbLine
 10
250.5708003296155
 20
289.8470191356705
 30
0.0
 11
248.0708003296155
 21
289.8470191356705
 31
0.0
  0
LINE
  5
178
330
6C
100
AcDbEntity
  8
Sichtbare Kanten(DIN)
100
AcDbLine
 10
250.5708003296161
 20
235.2470191356705
 30
0.0
 11
248.0708003296161
 21
235.2470191356705
 31
0.0
  0
LINE
  5
179
330
6C
100
AcDbEntity
  8
Sichtbare Kanten(DIN)
100
AcDbLine
 10
250.5708003296158
 20
225.1470191356705
 30
0.0
 11
248.0708003296158
 21
225.1470191356705
 31
0.0
  0
LINE
  5
17A
330
6C
100
AcDbEntity
  8
Sichtbare Kanten(DIN)
100
AcDbLine
 10
250.5708003296161
 20
160.7470191356705
 30
0.0
 11
248.0708003296161
 21
160.7470191356705
 31
0.0
  0
LINE
  5
17B
330
6C
100
AcDbEntity
  8
Sichtbare Kanten(DIN)
100
AcDbLine
 10
250.5708003296158
 20
150.6470191356704
 30
0.0
 11
248.0708003296157
 21
150.6470191356704
 31
0.0
  0
LINE
  5
17C
330
6C
100
AcDbEntity
  8
Sichtbare Kanten(DIN)
100
AcDbLine
 10
250.570800329616
 20
76.24701913567045
 30
0.0
 11
248.0708003296161
 21
76.24701913567045
 31
0.0
  0
LINE
  5
17D
330
6C
100
AcDbEntity
  8
Sichtbare Kanten(DIN)
100
AcDbLine
 10
250.5708003296158
 20
66.14701913567045
 30
0.0
 11
248.0708003296157
 21
66.14701913567045
 31
0.0
  0
LINE
  5
17E
330
6C
100
AcDbEntity
  8
Sichtbare Kanten(DIN)
100
AcDbLine
 10
250.570800329616
 20
25.74701913567046
 30
0.0
 11
248.0708003296161
 21
25.74701913567046
 31
0.0
  0
LINE
  5
17F
330
6C
100
AcDbEntity
  8
Sichtbare Kanten(DIN)
100
AcDbLine
 10
250.5708003296157
 20
15.64701913567046
 30
0.0
 11
248.0708003296157
 21
15.64701913567046
 31
0.0
  0
LINE
  5
180
330
6C
100
AcDbEntity
  8
Sichtbare Kanten(DIN)
100
AcDbLine
 10
206.4708003296206
 20
-25.35298086432956
 30
0.0
 11
206.4708003296161
 21
-10.35298086432955
 31
0.0
  0
LINE
  5
181
330
6C
100
AcDbEntity
  8
Sichtbare Kanten(DIN)
100
AcDbLine
 10
208.9708003296162
 20
-10.35298086432955
 30
0.0
 11
208.9708003296206
 21
-25.35298086432956
 31
0.0
  0
LINE
  5
182
330
6C
100
AcDbEntity
  8
Sichtbare Kanten(DIN)
100
AcDbLine
 10
206.4708003296206
 20
-25.35298086432956
 30
0.0
 11
208.9708003296206
 21
-25.35298086432956
 31
0.0
  0
LINE
  5
183
330
6C
100
AcDbEntity
  8
Sichtbare Kanten(DIN)
100
AcDbLine
 10
206.4708003296161
 20
12.14701913567045
 30
0.0
 11
206.4708003296161
 21
-10.35298086432955
 31
0.0
  0
LINE
  5
184
330
6C
100
AcDbEntity
  8
Sichtbare Kanten(DIN)
100
AcDbLine
 10
208.9708003296162
 20
-10.35298086432955
 30
0.0
 11
208.9708003296162
 21
12.14701913567045
 31
0.0
  0
ARC
  5
185
330
6C
100
AcDbEntity
  8
Sichtbare Kanten(DIN)
100
AcDbCircle
 10
211.4708003296162
 20
12.14701913567045
 30
0.0
 40
2.500000000000004
100
AcDbArc
 50
90.0
 51
180.0
  0
ARC
  5
186
330
6C
100
AcDbEntity
  8
Sichtbare Kanten(DIN)
100
AcDbCircle
 10
211.4708003296162
 20
12.14701913567044
 30
0.0
 40
5.000000000000017
100
AcDbArc
 50
89.99999999999959
 51
180.0
  0
LINE
  5
187
330
6C
100
AcDbEntity
  8
Sichtbare Kanten(DIN)
100
AcDbLine
 10
243.5708003296162
 20
14.64701913567044
 30
0.0
 11
211.4708003296162
 21
14.64701913567045
 31
0.0
  0
LINE
  5
188
330
6C
100
AcDbEntity
  8
Sichtbare Kanten(DIN)
100
AcDbLine
 10
243.5708003296162
 20
14.64701913567044
 30
0.0
 11
243.5708003296162
 21
17.14701913567044
 31
0.0
  0
LINE
  5
189
330
6C
100
AcDbEntity
  8
Sichtbare Kanten(DIN)
100
AcDbLine
 10
243.5708003296162
 20
17.14701913567044
 30
0.0
 11
211.4708003296162
 21
17.14701913567045
 31
0.0
  0
LINE
  5
18A
330
6C
100
AcDbEntity
  8
Sichtbare Kanten(DIN)
100
AcDbLine
 10
243.5708003296169
 20
14.64701913567044
 30
0.0
 11
243.9708003296169
 21
14.64701913567044
 31
0.0
  0
LINE
  5
18B
330
6C
100
AcDbEntity
  8
Sichtbare Kanten(DIN)
100
AcDbLine
 10
243.5708003296169
 20
17.14701913567044
 30
0.0
 11
243.9708003296169
 21
17.14701913567044
 31
0.0
  0
LINE
  5
18C
330
6C
100
AcDbEntity
  8
Sichtbare Kanten(DIN)
100
AcDbLine
 10
295.4708003296255
 20
42.64701913567044
 30
0.0
 11
295.4708003296255
 21
51.14701913567042
 31
0.0
  0
LINE
  5
18D
330
6C
100
AcDbEntity
  8
Sichtbare Kanten(DIN)
100
AcDbLine
 10
297.9708003296256
 20
51.14701913567042
 30
0.0
 11
297.9708003296256
 21
42.64701913567044
 31
0.0
  0
LINE
  5
18E
330
6C
100
AcDbEntity
  8
Sichtbare Kanten(DIN)
100
AcDbLine
 10
295.4708003296255
 20
51.14701913567042
 30
0.0
 11
295.4708003296241
 21
56.14701913567045
 31
0.0
  0
LINE
  5
18F
330
6C
100
AcDbEntity
  8
Sichtbare Kanten(DIN)
100
AcDbLine
 10
297.9708003296241
 20
56.14701913567043
 30
0.0
 11
297.9708003296256
 21
51.14701913567043
 31
0.0
  0
LINE
  5
190
330
6C
100
AcDbEntity
  8
Sichtbare Kanten(DIN)
100
AcDbLine
 10
297.9708003296256
 20
269.6470191356705
 30
0.0
 11
297.9708003296256
 21
261.1470191356705
 31
0.0
  0
LINE
  5
191
330
6C
100
AcDbEntity
  8
Sichtbare Kanten(DIN)
100
AcDbLine
 10
297.9708003296256
 20
261.1470191356705
 30
0.0
 11
297.9708003296241
 21
256.1470191356705
 31
0.0
  0
LINE
  5
192
330
6C
100
AcDbEntity
  8
Sichtbare Kanten(DIN)
100
AcDbLine
 10
295.4708003296241
 20
256.1470191356705
 30
0.0
 11
295.4708003296256
 21
261.1470191356705
 31
0.0
  0
LINE
  5
193
330
6C
100
AcDbEntity
  8
Sichtbare Kanten(DIN)
100
AcDbLine
 10
295.4708003296256
 20
261.1470191356705
 30
0.0
 11
295.4708003296256
 21
269.6470191356705
 31
0.0
  0
LINE
  5
194
330
6C
100
AcDbEntity
  8
Sichtbare Kanten(DIN)
100
AcDbLine
 10
292.9708003296162
 20
256.1470191356705
 30
0.0
 11
297.9708003296177
 21
256.1470191356705
 31
0.0
  0
LINE
  5
195
330
6C
100
AcDbEntity
  8
Sichtbare Kanten(DIN)
100
AcDbLine
 10
292.9708003296162
 20
256.1470191356705
 30
0.0
 11
281.7208003296165
 21
256.1470191356705
 31
0.0
  0
LINE
  5
196
330
6C
100
AcDbEntity
  8
Sichtbare Kanten(DIN)
100
AcDbLine
 10
271.2208003296165
 20
269.6470191356705
 30
0.0
 11
292.9708003296162
 21
269.6470191356705
 31
0.0
  0
LINE
  5
197
330
6C
100
AcDbEntity
  8
Sichtbare Kanten(DIN)
100
AcDbLine
 10
297.9708003296177
 20
269.6470191356705
 30
0.0
 11
292.9708003296162
 21
269.6470191356705
 31
0.0
  0
LINE
  5
198
330
6C
100
AcDbEntity
  8
Sichtbare Kanten(DIN)
100
AcDbLine
 10
297.9708003296177
 20
56.14701913567046
 30
0.0
 11
297.9708003296179
 21
256.1470191356705
 31
0.0
  0
LINE
  5
199
330
6C
100
AcDbEntity
  8
Sichtbare Kanten(DIN)
100
AcDbLine
 10
297.9708003296177
 20
11.14701913567048
 30
0.0
 11
297.9708003296177
 21
42.64701913567046
 31
0.0
  0
LINE
  5
19A
330
6C
100
AcDbEntity
  8
Sichtbare Kanten(DIN)
100
AcDbLine
 10
297.9708003296176
 20
11.14701913567048
 30
0.0
 11
292.9708003296161
 21
11.14701913567049
 31
0.0
  0
LINE
  5
19B
330
6C
100
AcDbEntity
  8
Sichtbare Kanten(DIN)
100
AcDbLine
 10
297.9708003296179
 20
269.6470191356705
 30
0.0
 11
297.9708003296177
 21
301.1470191356705
 31
0.0
  0
LINE
  5
19C
330
6C
100
AcDbEntity
  8
Sichtbare Kanten(DIN)
100
AcDbLine
 10
297.9708003296177
 20
301.1470191356705
 30
0.0
 11
292.9708003296162
 21
301.1470191356705
 31
0.0
  0
LINE
  5
19D
330
6C
100
AcDbEntity
  8
Sichtbare Kanten(DIN)
100
AcDbLine
 10
297.9708003296177
 20
56.14701913567046
 30
0.0
 11
292.9708003296161
 21
56.14701913567047
 31
0.0
  0
LINE
  5
19E
330
6C
100
AcDbEntity
  8
Sichtbare Kanten(DIN)
100
AcDbLine
 10
292.9708003296161
 20
42.64701913567047
 30
0.0
 11
297.9708003296177
 21
42.64701913567046
 31
0.0
  0
ARC
  5
19F
330
6C
100
AcDbEntity
  8
Sichtbare Kanten(DIN)
100
AcDbCircle
 10
274.7208003296162
 20
34.14701913567047
 30
0.0
 40
5.000000000000004
100
AcDbArc
 50
270.0
 51
0.0
  0
LINE
  5
1A0
330
6C
100
AcDbEntity
  8
Sichtbare Kanten(DIN)
100
AcDbLine
 10
279.7208003296162
 20
40.64701913567049
 30
0.0
 11
279.7208003296162
 21
34.14701913567046
 31
0.0
  0
ARC
  5
1A1
330
6C
100
AcDbEntity
  8
Sichtbare Kanten(DIN)
100
AcDbCircle
 10
281.7208003296162
 20
40.64701913567049
 30
0.0
 40
1.999999999999984
100
AcDbArc
 50
89.99999999999797
 51
180.0
  0
LINE
  5
1A2
330
6C
100
AcDbEntity
  8
Sichtbare Kanten(DIN)
100
AcDbLine
 10
292.9708003296162
 20
42.64701913567048
 30
0.0
 11
281.7208003296162
 21
42.64701913567048
 31
0.0
  0
ARC
  5
1A3
330
6C
100
AcDbEntity
  8
Sichtbare Kanten(DIN)
100
AcDbCircle
 10
271.2208003296161
 20
51.14701913567046
 30
0.0
 40
5.000000000000008
100
AcDbArc
 50
90.0
 51
180.0
  0
LINE
  5
1A4
330
6C
100
AcDbEntity
  8
Sichtbare Kanten(DIN)
100
AcDbLine
 10
266.2208003296162
 20
34.14701913567047
 30
0.0
 11
266.2208003296162
 21
51.14701913567046
 31
0.0
  0
ARC
  5
1A5
330
6C
100
AcDbEntity
  8
Sichtbare Kanten(DIN)
100
AcDbCircle
 10
271.2208003296161
 20
34.1470191356705
 30
0.0
 40
5.000000000000017
100
AcDbArc
 50
180.0
 51
270.0
  0
LINE
  5
1A6
330
6C
100
AcDbEntity
  8
Sichtbare Kanten(DIN)
100
AcDbLine
 10
274.7208003296162
 20
29.14701913567047
 30
0.0
 11
271.2208003296161
 21
29.14701913567047
 31
0.0
  0
LINE
  5
1A7
330
6C
100
AcDbEntity
  8
Sichtbare Kanten(DIN)
100
AcDbLine
 10
271.2208003296161
 20
56.14701913567046
 30
0.0
 11
292.9708003296161
 21
56.14701913567046
 31
0.0
  0
ARC
  5
1A8
330
6C
100
AcDbEntity
  8
Sichtbare Kanten(DIN)
100
AcDbCircle
 10
281.7208003296165
 20
254.1470191356705
 30
0.0
 40
1.999999999999992
100
AcDbArc
 50
89.99999999999898
 51
180.0
  0
LINE
  5
1A9
330
6C
100
AcDbEntity
  8
Sichtbare Kanten(DIN)
100
AcDbLine
 10
279.7208003296165
 20
254.1470191356705
 30
0.0
 11
279.7208003296165
 21
247.6470191356705
 31
0.0
  0
ARC
  5
1AA
330
6C
100
AcDbEntity
  8
Sichtbare Kanten(DIN)
100
AcDbCircle
 10
274.7208003296165
 20
247.6470191356705
 30
0.0
 40
5.000000000000017
100
AcDbArc
 50
270.0
 51
0.0
  0
LINE
  5
1AB
330
6C
100
AcDbEntity
  8
Sichtbare Kanten(DIN)
100
AcDbLine
 10
274.7208003296165
 20
242.6470191356705
 30
0.0
 11
271.2208003296165
 21
242.6470191356705
 31
0.0
  0
ARC
  5
1AC
330
6C
100
AcDbEntity
  8
Sichtbare Kanten(DIN)
100
AcDbCircle
 10
271.2208003296165
 20
247.6470191356705
 30
0.0
 40
5.000000000000035
100
AcDbArc
 50
180.0
 51
269.9999999999996
  0
LINE
  5
1AD
330
6C
100
AcDbEntity
  8
Sichtbare Kanten(DIN)
100
AcDbLine
 10
266.2208003296165
 20
247.6470191356705
 30
0.0
 11
266.2208003296165
 21
264.6470191356705
 31
0.0
  0
ARC
  5
1AE
330
6C
100
AcDbEntity
  8
Sichtbare Kanten(DIN)
100
AcDbCircle
 10
271.2208003296164
 20
264.6470191356705
 30
0.0
 40
4.999999999999946
100
AcDbArc
 50
89.99999999999959
 51
180.0
  0
LINE
  5
1AF
330
6C
100
AcDbEntity
  8
Sichtbare Kanten(DIN)
100
AcDbLine
 10
285.4708003296162
 20
301.1470191356705
 30
0.0
 11
292.9708003296162
 21
301.1470191356705
 31
0.0
  0
LINE
  5
1B0
330
6C
100
AcDbEntity
  8
Sichtbare Kanten(DIN)
100
AcDbLine
 10
211.4708003296161
 20
301.1470191356705
 30
0.0
 11
218.9708003296161
 21
301.1470191356705
 31
0.0
  0
LINE
  5
1B1
330
6C
100
AcDbEntity
  8
Sichtbare Kanten(DIN)
100
AcDbLine
 10
243.9708003296161
 20
176.6470191356704
 30
0.0
 11
243.9708003296161
 21
241.1470191356705
 31
0.0
  0
LINE
  5
1B2
330
6C
100
AcDbEntity
  8
Sichtbare Kanten(DIN)
100
AcDbLine
 10
243.9708003296161
 20
92.14701913567047
 30
0.0
 11
243.9708003296161
 21
166.6470191356704
 31
0.0
  0
LINE
  5
1B3
330
6C
100
AcDbEntity
  8
Sichtbare Kanten(DIN)
100
AcDbLine
 10
243.9708003296161
 20
41.64701913567046
 30
0.0
 11
243.9708003296161
 21
82.14701913567047
 31
0.0
  0
LINE
  5
1B4
330
6C
100
AcDbEntity
  8
Sichtbare Kanten(DIN)
100
AcDbLine
 10
243.9708003296161
 20
11.14701913567046
 30
0.0
 11
243.9708003296161
 21
31.64701913567047
 31
0.0
  0
LINE
  5
1B5
330
6C
100
AcDbEntity
  8
Sichtbare Kanten(DIN)
100
AcDbLine
 10
292.9708003296161
 20
11.14701913567049
 30
0.0
 11
243.9708003296161
 21
11.14701913567046
 31
0.0
  0
LINE
  5
1B6
330
6C
100
AcDbEntity
  8
Sichtbare Kanten(DIN)
100
AcDbLine
 10
285.4708003296162
 20
301.1470191356705
 30
0.0
 11
285.4708003296162
 21
298.6470191356705
 31
0.0
  0
LINE
  5
1B7
330
6C
100
AcDbEntity
  8
Sichtbare Kanten(DIN)
100
AcDbLine
 10
285.4708003296162
 20
298.6470191356705
 30
0.0
 11
282.9708003296162
 21
298.6470191356705
 31
0.0
  0
LINE
  5
1B8
330
6C
100
AcDbEntity
  8
Sichtbare Kanten(DIN)
100
AcDbLine
 10
221.4708003296161
 20
298.6470191356705
 30
0.0
 11
218.9708003296161
 21
298.6470191356705
 31
0.0
  0
LINE
  5
1B9
330
6C
100
AcDbEntity
  8
Sichtbare Kanten(DIN)
100
AcDbLine
 10
218.9708003296161
 20
298.6470191356705
 30
0.0
 11
218.9708003296161
 21
301.1470191356705
 31
0.0
  0
LINE
  5
1BA
330
6C
100
AcDbEntity
  8
Sichtbare Kanten(DIN)
100
AcDbLine
 10
282.9708003296162
 20
299.8970191356705
 30
0.0
 11
282.9708003296158
 21
301.1470191356705
 31
0.0
  0
LINE
  5
1BB
330
6C
100
AcDbEntity
  8
Sichtbare Kanten(DIN)
100
AcDbLine
 10
221.4708003296161
 20
299.8970191356704
 30
0.0
 11
221.4708003296158
 21
301.1470191356705
 31
0.0
  0
LINE
  5
1BC
330
6C
100
AcDbEntity
  8
Sichtbare Kanten(DIN)
100
AcDbLine
 10
282.9708003296162
 20
298.6470191356705
 30
0.0
 11
282.9708003296162
 21
299.8970191356705
 31
0.0
  0
LINE
  5
1BD
330
6C
100
AcDbEntity
  8
Sichtbare Kanten(DIN)
100
AcDbLine
 10
221.4708003296161
 20
299.8970191356704
 30
0.0
 11
221.4708003296161
 21
298.6470191356705
 31
0.0
  0
LINE
  5
1BE
330
6C
100
AcDbEntity
  8
Sichtbare Kanten(DIN)
100
AcDbLine
 10
250.6708003296162
 20
299.8970191356704
 30
0.0
 11
250.6708003296162
 21
293.4470191356705
 31
0.0
  0
LINE
  5
1BF
330
6C
100
AcDbEntity
  8
Sichtbare Kanten(DIN)
100
AcDbLine
 10
250.6708003296162
 20
293.4470191356705
 30
0.0
 11
250.5708003296163
 21
293.4470191356705
 31
0.0
  0
LINE
  5
1C0
330
6C
100
AcDbEntity
  8
Sichtbare Kanten(DIN)
100
AcDbLine
 10
250.6708003296158
 20
301.1470191356705
 30
0.0
 11
250.6708003296161
 21
299.8970191356704
 31
0.0
  0
LINE
  5
1C1
330
6C
100
AcDbEntity
  8
Sichtbare Kanten(DIN)
100
AcDbLine
 10
211.4708003296161
 20
251.1470191356705
 30
0.0
 11
250.6708003296161
 21
251.1470191356705
 31
0.0
  0
LINE
  5
1C2
330
6C
100
AcDbEntity
  8
Sichtbare Kanten(DIN)
100
AcDbLine
 10
250.6708003296161
 20
251.1470191356705
 30
0.0
 11
250.6708003296162
 21
230.1470191356705
 31
0.0
  0
LINE
  5
1C3
330
6C
100
AcDbEntity
  8
Sichtbare Kanten(DIN)
100
AcDbLine
 10
250.6708003296162
 20
230.1470191356705
 30
0.0
 11
250.5708003296162
 21
230.1470191356705
 31
0.0
  0
LINE
  5
1C4
330
6C
100
AcDbEntity
  8
Sichtbare Kanten(DIN)
100
AcDbLine
 10
248.0708003296161
 20
235.2470191356704
 30
0.0
 11
248.0708003296161
 21
241.1470191356705
 31
0.0
  0
LINE
  5
1C5
330
6C
100
AcDbEntity
  8
Sichtbare Kanten(DIN)
100
AcDbLine
 10
248.0708003296161
 20
241.1470191356705
 30
0.0
 11
243.9708003296161
 21
241.1470191356705
 31
0.0
  0
LINE
  5
1C6
330
6C
100
AcDbEntity
  8
Sichtbare Kanten(DIN)
100
AcDbLine
 10
243.9708003296161
 20
176.6470191356704
 30
0.0
 11
250.6708003296162
 21
176.6470191356704
 31
0.0
  0
LINE
  5
1C7
330
6C
100
AcDbEntity
  8
Sichtbare Kanten(DIN)
100
AcDbLine
 10
250.6708003296162
 20
176.6470191356704
 30
0.0
 11
250.6708003296162
 21
155.6470191356705
 31
0.0
  0
LINE
  5
1C8
330
6C
100
AcDbEntity
  8
Sichtbare Kanten(DIN)
100
AcDbLine
 10
250.6708003296162
 20
155.6470191356705
 30
0.0
 11
250.5708003296162
 21
155.6470191356705
 31
0.0
  0
LINE
  5
1C9
330
6C
100
AcDbEntity
  8
Sichtbare Kanten(DIN)
100
AcDbLine
 10
248.0708003296161
 20
160.7470191356705
 30
0.0
 11
248.0708003296161
 21
166.6470191356704
 31
0.0
  0
LINE
  5
1CA
330
6C
100
AcDbEntity
  8
Sichtbare Kanten(DIN)
100
AcDbLine
 10
248.0708003296161
 20
166.6470191356704
 30
0.0
 11
243.9708003296161
 21
166.6470191356704
 31
0.0
  0
LINE
  5
1CB
330
6C
100
AcDbEntity
  8
Sichtbare Kanten(DIN)
100
AcDbLine
 10
243.9708003296161
 20
92.14701913567047
 30
0.0
 11
250.6708003296162
 21
92.14701913567047
 31
0.0
  0
LINE
  5
1CC
330
6C
100
AcDbEntity
  8
Sichtbare Kanten(DIN)
100
AcDbLine
 10
250.6708003296162
 20
92.14701913567047
 30
0.0
 11
250.6708003296162
 21
71.14701913567046
 31
0.0
  0
LINE
  5
1CD
330
6C
100
AcDbEntity
  8
Sichtbare Kanten(DIN)
100
AcDbLine
 10
250.6708003296162
 20
71.14701913567046
 30
0.0
 11
250.5708003296162
 21
71.14701913567046
 31
0.0
  0
LINE
  5
1CE
330
6C
100
AcDbEntity
  8
Sichtbare Kanten(DIN)
100
AcDbLine
 10
248.0708003296161
 20
76.24701913567045
 30
0.0
 11
248.0708003296161
 21
82.14701913567047
 31
0.0
  0
LINE
  5
1CF
330
6C
100
AcDbEntity
  8
Sichtbare Kanten(DIN)
100
AcDbLine
 10
248.0708003296161
 20
82.14701913567047
 30
0.0
 11
243.9708003296161
 21
82.14701913567047
 31
0.0
  0
LINE
  5
1D0
330
6C
100
AcDbEntity
  8
Sichtbare Kanten(DIN)
100
AcDbLine
 10
243.9708003296161
 20
41.64701913567046
 30
0.0
 11
250.6708003296162
 21
41.64701913567046
 31
0.0
  0
LINE
  5
1D1
330
6C
100
AcDbEntity
  8
Sichtbare Kanten(DIN)
100
AcDbLine
 10
250.6708003296162
 20
41.64701913567046
 30
0.0
 11
250.6708003296162
 21
20.64701913567045
 31
0.0
  0
LINE
  5
1D2
330
6C
100
AcDbEntity
  8
Sichtbare Kanten(DIN)
100
AcDbLine
 10
250.6708003296162
 20
20.64701913567045
 30
0.0
 11
250.5708003296162
 21
20.64701913567045
 31
0.0
  0
LINE
  5
1D3
330
6C
100
AcDbEntity
  8
Sichtbare Kanten(DIN)
100
AcDbLine
 10
248.0708003296161
 20
25.74701913567045
 30
0.0
 11
248.0708003296161
 21
31.64701913567047
 31
0.0
  0
LINE
  5
1D4
330
6C
100
AcDbEntity
  8
Sichtbare Kanten(DIN)
100
AcDbLine
 10
248.0708003296161
 20
31.64701913567047
 30
0.0
 11
243.9708003296161
 21
31.64701913567047
 31
0.0
  0
LINE
  5
1D5
330
6C
100
AcDbEntity
  8
Sichtbare Kanten(DIN)
100
AcDbLine
 10
221.4708003296134
 20
303.6470191356705
 30
0.0
 11
224.1337557951995
 21
303.6470191356705
 31
0.0
  0
LINE
  5
1D6
330
6C
100
AcDbEntity
  8
Sichtbare Kanten(DIN)
100
AcDbLine
 10
280.3078448640255
 20
303.6470191356705
 30
0.0
 11
282.9708003296134
 21
303.6470191356705
 31
0.0
  0
LINE
  5
1D7
330
6C
100
AcDbEntity
  8
Sichtbare Kanten(DIN)
100
AcDbLine
 10
282.9708003296134
 20
301.1470191356705
 30
0.0
 11
280.3078448640255
 21
301.1470191356705
 31
0.0
  0
LINE
  5
1D8
330
6C
100
AcDbEntity
  8
Sichtbare Kanten(DIN)
100
AcDbLine
 10
224.1337557951995
 20
301.1470191356705
 30
0.0
 11
221.4708003296134
 21
301.1470191356705
 31
0.0
  0
LINE
  5
1D9
330
6C
100
AcDbEntity
  8
Sichtbare Kanten(DIN)
100
AcDbLine
 10
221.4708003296133
 20
303.6470191356705
 30
0.0
 11
221.4708003296133
 21
301.1470191356705
 31
0.0
  0
LINE
  5
1DA
330
6C
100
AcDbEntity
  8
Sichtbare Kanten(DIN)
100
AcDbLine
 10
282.9708003296134
 20
301.1470191356705
 30
0.0
 11
282.9708003296134
 21
303.6470191356705
 31
0.0
  0
LINE
  5
1DB
330
6C
100
AcDbEntity
  8
Sichtbare Kanten(DIN)
100
AcDbLine
 10
280.3078448640258
 20
303.6470191356705
 30
0.0
 11
224.1337557951995
 21
303.6470191356705
 31
0.0
  0
LINE
  5
1DC
330
6C
100
AcDbEntity
  8
Sichtbare Kanten(DIN)
100
AcDbLine
 10
224.1337557951997
 20
301.1470191356705
 30
0.0
 11
280.3078448640255
 21
301.1470191356705
 31
0.0
  0
LINE
  5
1DD
330
6C
100
AcDbEntity
  8
Sichtbare Kanten(DIN)
100
AcDbLine
 10
208.9708003296098
 20
301.1470191356705
 30
0.0
 11
206.4708003296098
 21
301.1470191356705
 31
0.0
  0
LINE
  5
1DE
330
6C
100
AcDbEntity
  8
Sichtbare Kanten(DIN)
100
AcDbLine
 10
208.9708003296053
 20
266.1470191356705
 30
0.0
 11
208.9708003296097
 21
251.1470191356705
 31
0.0
  0
LINE
  5
1DF
330
6C
100
AcDbEntity
  8
Sichtbare Kanten(DIN)
100
AcDbLine
 10
206.4708003296098
 20
251.1470191356705
 30
0.0
 11
206.4708003296053
 21
266.1470191356705
 31
0.0
  0
LINE
  5
1E0
330
6C
100
AcDbEntity
  8
Sichtbare Kanten(DIN)
100
AcDbLine
 10
206.4708003296098
 20
251.1470191356705
 30
0.0
 11
208.9708003296097
 21
251.1470191356705
 31
0.0
  0
LINE
  5
1E1
330
6C
100
AcDbEntity
  8
Sichtbare Kanten(DIN)
100
AcDbLine
 10
206.4708003296054
 20
286.1470191356705
 30
0.0
 11
206.4708003296098
 21
301.1470191356705
 31
0.0
  0
LINE
  5
1E2
330
6C
100
AcDbEntity
  8
Sichtbare Kanten(DIN)
100
AcDbLine
 10
208.9708003296098
 20
301.1470191356705
 30
0.0
 11
208.9708003296053
 21
286.1470191356705
 31
0.0
  0
LINE
  5
1E3
330
6C
100
AcDbEntity
  8
Sichtbare Kanten(DIN)
100
AcDbLine
 10
211.4708003296161
 20
301.1470191356705
 30
0.0
 11
208.9708003296154
 21
301.1470191356705
 31
0.0
  0
LINE
  5
1E4
330
6C
100
AcDbEntity
  8
Sichtbare Kanten(DIN)
100
AcDbLine
 10
211.4708003296161
 20
251.1470191356705
 30
0.0
 11
208.9708003296154
 21
251.1470191356705
 31
0.0
  0
LINE
  5
1E5
330
6C
100
AcDbEntity
  8
Sichtbare Kanten(DIN)
100
AcDbLine
 10
206.4708003296053
 20
286.1470191356705
 30
0.0
 11
206.4708003296053
 21
266.1470191356705
 31
0.0
  0
LINE
  5
1E6
330
6C
100
AcDbEntity
  8
Sichtbare Kanten(DIN)
100
AcDbLine
 10
208.9708003296053
 20
266.1470191356705
 30
0.0
 11
208.9708003296053
 21
286.1470191356705
 31
0.0
  0
LINE
  5
1E7
330
6C
100
AcDbEntity
  8
Sichtbare Kanten(DIN)
100
AcDbLine
 10
298.0708003296184
 20
86.14701913567047
 30
0.0
 11
297.9708003296185
 21
86.14701913567047
 31
0.0
  0
LINE
  5
1E8
330
6C
100
AcDbEntity
  8
Sichtbare Kanten(DIN)
100
AcDbLine
 10
298.0708003296184
 20
226.1470191356705
 30
0.0
 11
297.9708003296184
 21
226.1470191356705
 31
0.0
  0
LINE
  5
1E9
330
6C
100
AcDbEntity
  8
Sichtbare Kanten(DIN)
100
AcDbLine
 10
298.0708003296184
 20
226.1470191356705
 30
0.0
 11
298.0708003296184
 21
86.14701913567049
 31
0.0
  0
LINE
  5
1EA
330
6C
100
AcDbEntity
  8
Sichtbare Kanten(DIN)
100
AcDbLine
 10
77.04822628059935
 20
-131.4471304863854
 30
0.0
 11
77.04822628059935
 21
-133.9471304863854
 31
0.0
  0
LINE
  5
1EB
330
6C
100
AcDbEntity
  8
Sichtbare Kanten(DIN)
100
AcDbLine
 10
73.04822628059935
 20
-131.4471304863854
 30
0.0
 11
77.04822628059935
 21
-131.4471304863854
 31
0.0
  0
LINE
  5
1EC
330
6C
100
AcDbEntity
  8
Sichtbare Kanten(DIN)
100
AcDbLine
 10
73.04822628059935
 20
-133.9471304863854
 30
0.0
 11
73.04822628059935
 21
-131.4471304863854
 31
0.0
  0
LINE
  5
1ED
330
6C
100
AcDbEntity
  8
Sichtbare Kanten(DIN)
100
AcDbLine
 10
77.04822628059935
 20
-133.9471304863854
 30
0.0
 11
73.04822628059935
 21
-133.9471304863854
 31
0.0
  0
LINE
  5
1EE
330
6C
100
AcDbEntity
  8
Sichtbare Kanten(DIN)
100
AcDbLine
 10
47.54822628059935
 20
-133.9471304863854
 30
0.0
 11
73.04822628059935
 21
-133.9471304863854
 31
0.0
  0
LINE
  5
1EF
330
6C
100
AcDbEntity
  8
Sichtbare Kanten(DIN)
100
AcDbLine
 10
77.04822628059935
 20
-133.9471304863854
 30
0.0
 11
102.5482262805993
 21
-133.9471304863854
 31
0.0
  0
LINE
  5
1F0
330
6C
100
AcDbEntity
  8
Sichtbare Kanten(DIN)
100
AcDbLine
 10
73.04822628059935
 20
-131.4471304863854
 30
0.0
 11
47.54822628059935
 21
-131.4471304863854
 31
0.0
  0
LINE
  5
1F1
330
6C
100
AcDbEntity
  8
Sichtbare Kanten(DIN)
100
AcDbLine
 10
47.54822628059935
 20
-133.9471304863854
 30
0.0
 11
47.54822628059935
 21
-131.4471304863854
 31
0.0
  0
LINE
  5
1F2
330
6C
100
AcDbEntity
  8
Sichtbare Kanten(DIN)
100
AcDbLine
 10
102.5482262805993
 20
-131.4471304863854
 30
0.0
 11
77.04822628059935
 21
-131.4471304863854
 31
0.0
  0
LINE
  5
1F3
330
6C
100
AcDbEntity
  8
Sichtbare Kanten(DIN)
100
AcDbLine
 10
102.5482262805993
 20
-133.9471304863854
 30
0.0
 11
102.5482262805993
 21
-131.4471304863854
 31
0.0
  0
LINE
  5
1F4
330
6C
100
AcDbEntity
  8
Sichtbare Kanten(DIN)
100
AcDbLine
 10
100.0482262805992
 20
-89.84713048647202
 30
0.0
 11
100.0482262805992
 21
-90.517003467549
 31
0.0
  0
LINE
  5
1F5
330
6C
100
AcDbEntity
  8
Sichtbare Kanten(DIN)
100
AcDbLine
 10
100.0482262805992
 20
-89.84713048647201
 30
0.0
 11
50.04822628059921
 21
-89.84713048647201
 31
0.0
  0
LINE
  5
1F6
330
6C
100
AcDbEntity
  8
Sichtbare Kanten(DIN)
100
AcDbLine
 10
50.04822628059921
 20
-89.84713048647201
 30
0.0
 11
50.04822628059921
 21
-90.51700346754897
 31
0.0
  0
LINE
  5
1F7
330
6C
100
AcDbEntity
  8
Sichtbare Kanten(DIN)
100
AcDbLine
 10
95.04822628059933
 20
-181.3471304863861
 30
0.0
 11
81.79822628059936
 21
-181.3471304863861
 31
0.0
  0
LINE
  5
1F8
330
6C
100
AcDbEntity
  8
Sichtbare Kanten(DIN)
100
AcDbLine
 10
95.04822628059933
 20
-178.8471304863861
 30
0.0
 11
81.79822628059936
 21
-178.8471304863861
 31
0.0
  0
LINE
  5
1F9
330
6C
100
AcDbEntity
  8
Sichtbare Kanten(DIN)
100
AcDbLine
 10
68.29822628059935
 20
-181.3471304863861
 30
0.0
 11
55.04822628059972
 21
-181.3471304863861
 31
0.0
  0
LINE
  5
1FA
330
6C
100
AcDbEntity
  8
Sichtbare Kanten(DIN)
100
AcDbLine
 10
68.29822628059935
 20
-178.8471304863861
 30
0.0
 11
55.04822628059972
 21
-178.8471304863861
 31
0.0
  0
LINE
  5
1FB
330
6C
100
AcDbEntity
  8
Sichtbare Kanten(DIN)
100
AcDbLine
 10
81.79822628059936
 20
-181.347130486398
 30
0.0
 11
76.79822628059935
 21
-181.3471304863995
 31
0.0
  0
LINE
  5
1FC
330
6C
100
AcDbEntity
  8
Sichtbare Kanten(DIN)
100
AcDbLine
 10
76.79822628059934
 20
-181.3471304863995
 30
0.0
 11
68.29822628059933
 21
-181.3471304863995
 31
0.0
  0
LINE
  5
1FD
330
6C
100
AcDbEntity
  8
Sichtbare Kanten(DIN)
100
AcDbLine
 10
68.29822628059933
 20
-178.8471304863998
 30
0.0
 11
76.79822628059934
 21
-178.8471304863995
 31
0.0
  0
LINE
  5
1FE
330
6C
100
AcDbEntity
  8
Sichtbare Kanten(DIN)
100
AcDbLine
 10
76.79822628059934
 20
-178.8471304863995
 30
0.0
 11
81.79822628059936
 21
-178.847130486398
 31
0.0
  0
LINE
  5
1FF
330
6C
100
AcDbEntity
  8
Sichtbare Kanten(DIN)
100
AcDbLine
 10
68.29822628059935
 20
-181.3471304863861
 30
0.0
 11
68.29822628059935
 21
-178.8471304863861
 31
0.0
  0
LINE
  5
200
330
6C
100
AcDbEntity
  8
Sichtbare Kanten(DIN)
100
AcDbLine
 10
81.79822628059936
 20
-178.8471304863861
 30
0.0
 11
81.79822628059936
 21
-181.3471304863861
 31
0.0
  0
LINE
  5
201
330
6C
100
AcDbEntity
  8
Sichtbare Kanten(DIN)
100
AcDbLine
 10
50.04822628059934
 20
-168.8471304863861
 30
0.0
 11
50.04822628059934
 21
-176.3471304863861
 31
0.0
  0
LINE
  5
202
330
6C
100
AcDbEntity
  8
Sichtbare Kanten(DIN)
100
AcDbLine
 10
50.04822628059934
 20
-94.84713048638614
 30
0.0
 11
50.04822628059934
 21
-102.3471304863861
 31
0.0
  0
LINE
  5
203
330
6C
100
AcDbEntity
  8
Sichtbare Kanten(DIN)
100
AcDbLine
 10
52.54822628059934
 20
-176.3471304863861
 30
0.0
 11
52.54822628059934
 21
-168.8471304863861
 31
0.0
  0
LINE
  5
204
330
6C
100
AcDbEntity
  8
Sichtbare Kanten(DIN)
100
AcDbLine
 10
52.54822628059934
 20
-102.3471304863861
 30
0.0
 11
52.54822628059934
 21
-94.84713048638614
 31
0.0
  0
LINE
  5
205
330
6C
100
AcDbEntity
  8
Sichtbare Kanten(DIN)
100
AcDbLine
 10
50.04822628059934
 20
-168.8471304863869
 30
0.0
 11
50.04822628059934
 21
-166.3471304863869
 31
0.0
  0
LINE
  5
206
330
6C
100
AcDbEntity
  8
Sichtbare Kanten(DIN)
100
AcDbLine
 10
50.04822628059934
 20
-104.8471304863869
 30
0.0
 11
50.04822628059934
 21
-102.3471304863869
 31
0.0
  0
LINE
  5
207
330
6C
100
AcDbEntity
  8
Sichtbare Kanten(DIN)
100
AcDbLine
 10
52.54822628059934
 20
-104.8471304863865
 30
0.0
 11
52.54822628059934
 21
-131.4471304863865
 31
0.0
  0
LINE
  5
208
330
6C
100
AcDbEntity
  8
Sichtbare Kanten(DIN)
100
AcDbLine
 10
48.7982262805994
 20
-104.8471304863854
 30
0.0
 11
52.54822628059934
 21
-104.8471304863865
 31
0.0
  0
LINE
  5
209
330
6C
100
AcDbEntity
  8
Sichtbare Kanten(DIN)
100
AcDbLine
 10
48.79822628059937
 20
-166.3471304863854
 30
0.0
 11
52.54822628059935
 21
-166.3471304863865
 31
0.0
  0
LINE
  5
20A
330
6C
100
AcDbEntity
  8
Sichtbare Kanten(DIN)
100
AcDbLine
 10
52.54822628059934
 20
-134.0471304863865
 30
0.0
 11
52.54822628059934
 21
-166.3471304863865
 31
0.0
  0
LINE
  5
20B
330
6C
100
AcDbEntity
  8
Sichtbare Kanten(DIN)
100
AcDbLine
 10
52.54822628059934
 20
-168.8471304863861
 30
0.0
 11
50.04822628059934
 21
-168.8471304863861
 31
0.0
  0
LINE
  5
20C
330
6C
100
AcDbEntity
  8
Sichtbare Kanten(DIN)
100
AcDbLine
 10
52.54822628059934
 20
-166.3471304863869
 30
0.0
 11
52.54822628059934
 21
-168.8471304863869
 31
0.0
  0
LINE
  5
20D
330
6C
100
AcDbEntity
  8
Sichtbare Kanten(DIN)
100
AcDbLine
 10
52.54822628059934
 20
-102.3471304863869
 30
0.0
 11
52.54822628059934
 21
-104.8471304863869
 31
0.0
  0
LINE
  5
20E
330
6C
100
AcDbEntity
  8
Sichtbare Kanten(DIN)
100
AcDbLine
 10
50.04822628059934
 20
-102.3471304863861
 30
0.0
 11
52.54822628059934
 21
-102.3471304863861
 31
0.0
  0
LINE
  5
20F
330
6C
100
AcDbEntity
  8
Sichtbare Kanten(DIN)
100
AcDbLine
 10
50.04822628059934
 20
-134.0471304863884
 30
0.0
 11
50.04822628059934
 21
-133.9471304863885
 31
0.0
  0
LINE
  5
210
330
6C
100
AcDbEntity
  8
Sichtbare Kanten(DIN)
100
AcDbLine
 10
100.0482262805993
 20
-133.9471304863885
 30
0.0
 11
100.0482262805993
 21
-134.0471304863884
 31
0.0
  0
ARC
  5
211
330
6C
100
AcDbEntity
  8
Sichtbare Kanten(DIN)
100
AcDbCircle
 10
45.54822628059935
 20
-132.4471304863854
 30
0.0
 40
1.000000000000007
100
AcDbArc
 50
90.0
 51
180.0
  0
LINE
  5
212
330
6C
100
AcDbEntity
  8
Sichtbare Kanten(DIN)
100
AcDbLine
 10
44.54822628059935
 20
-133.0471304863854
 30
0.0
 11
44.54822628059935
 21
-132.4471304863854
 31
0.0
  0
ARC
  5
213
330
6C
100
AcDbEntity
  8
Sichtbare Kanten(DIN)
100
AcDbCircle
 10
45.54822628059935
 20
-133.0471304863854
 30
0.0
 40
1.000000000000005
100
AcDbArc
 50
180.0
 51
270.0
  0
LINE
  5
214
330
6C
100
AcDbEntity
  8
Sichtbare Kanten(DIN)
100
AcDbLine
 10
48.79822628059937
 20
-134.0471304863854
 30
0.0
 11
52.54822628059935
 21
-134.0471304863865
 31
0.0
  0
LINE
  5
215
330
6C
100
AcDbEntity
  8
Sichtbare Kanten(DIN)
100
AcDbLine
 10
48.79822628059937
 20
-134.0471304863854
 30
0.0
 11
45.54822628059934
 21
-134.0471304863854
 31
0.0
  0
LINE
  5
216
330
6C
100
AcDbEntity
  8
Sichtbare Kanten(DIN)
100
AcDbLine
 10
45.54822628059934
 20
-131.4471304863854
 30
0.0
 11
47.54822628059935
 21
-131.4471304863854
 31
0.0
  0
LINE
  5
217
330
6C
100
AcDbEntity
  8
Sichtbare Kanten(DIN)
100
AcDbLine
 10
52.54822628059934
 20
-133.9471304863885
 30
0.0
 11
52.54822628059934
 21
-134.0471304863884
 31
0.0
  0
LINE
  5
218
330
6C
100
AcDbEntity
  8
Sichtbare Kanten(DIN)
100
AcDbLine
 10
102.5482262805993
 20
-131.4471304863854
 30
0.0
 11
104.5482262805993
 21
-131.4471304863854
 31
0.0
  0
LINE
  5
219
330
6C
100
AcDbEntity
  8
Sichtbare Kanten(DIN)
100
AcDbLine
 10
97.54822628059935
 20
-134.0471304863884
 30
0.0
 11
97.54822628059935
 21
-133.9471304863885
 31
0.0
  0
ARC
  5
21A
330
6C
100
AcDbEntity
  8
Sichtbare Kanten(DIN)
100
AcDbCircle
 10
104.5482262805993
 20
-133.0471304863853
 30
0.0
 40
1.000000000000014
100
AcDbArc
 50
270.0
 51
0.0
  0
LINE
  5
21B
330
6C
100
AcDbEntity
  8
Sichtbare Kanten(DIN)
100
AcDbLine
 10
105.5482262805993
 20
-132.4471304863854
 30
0.0
 11
105.5482262805993
 21
-133.0471304863854
 31
0.0
  0
ARC
  5
21C
330
6C
100
AcDbEntity
  8
Sichtbare Kanten(DIN)
100
AcDbCircle
 10
104.5482262805993
 20
-132.4471304863854
 30
0.0
 40
1.000000000000003
100
AcDbArc
 50
0.0
 51
90.0
  0
LINE
  5
21D
330
6C
100
AcDbEntity
  8
Sichtbare Kanten(DIN)
100
AcDbLine
 10
97.54822628059935
 20
-134.0471304863865
 30
0.0
 11
101.2982262805994
 21
-134.0471304863854
 31
0.0
  0
LINE
  5
21E
330
6C
100
AcDbEntity
  8
Sichtbare Kanten(DIN)
100
AcDbLine
 10
104.5482262805993
 20
-134.0471304863854
 30
0.0
 11
101.2982262805994
 21
-134.0471304863854
 31
0.0
  0
LINE
  5
21F
330
6C
100
AcDbEntity
  8
Sichtbare Kanten(DIN)
100
AcDbLine
 10
100.0482262805993
 20
-94.84713048638614
 30
0.0
 11
100.0482262805993
 21
-102.3471304863861
 31
0.0
  0
LINE
  5
220
330
6C
100
AcDbEntity
  8
Sichtbare Kanten(DIN)
100
AcDbLine
 10
100.0482262805993
 20
-168.8471304863857
 30
0.0
 11
100.0482262805993
 21
-176.3471304863857
 31
0.0
  0
LINE
  5
221
330
6C
100
AcDbEntity
  8
Sichtbare Kanten(DIN)
100
AcDbLine
 10
97.54822628059935
 20
-168.8471304863857
 30
0.0
 11
97.54822628059935
 21
-176.3471304863857
 31
0.0
  0
LINE
  5
222
330
6C
100
AcDbEntity
  8
Sichtbare Kanten(DIN)
100
AcDbLine
 10
97.54822628059933
 20
-94.84713048638614
 30
0.0
 11
97.54822628059935
 21
-102.3471304863861
 31
0.0
  0
LINE
  5
223
330
6C
100
AcDbEntity
  8
Sichtbare Kanten(DIN)
100
AcDbLine
 10
100.0482262805993
 20
-102.3471304863869
 30
0.0
 11
100.0482262805993
 21
-104.8471304863869
 31
0.0
  0
LINE
  5
224
330
6C
100
AcDbEntity
  8
Sichtbare Kanten(DIN)
100
AcDbLine
 10
100.0482262805993
 20
-166.3471304863865
 30
0.0
 11
100.0482262805993
 21
-168.8471304863865
 31
0.0
  0
LINE
  5
225
330
6C
100
AcDbEntity
  8
Sichtbare Kanten(DIN)
100
AcDbLine
 10
97.54822628059935
 20
-166.3471304863861
 30
0.0
 11
97.54822628059935
 21
-134.0471304863865
 31
0.0
  0
LINE
  5
226
330
6C
100
AcDbEntity
  8
Sichtbare Kanten(DIN)
100
AcDbLine
 10
101.2982262805994
 20
-166.347130486385
 30
0.0
 11
97.54822628059935
 21
-166.3471304863861
 31
0.0
  0
LINE
  5
227
330
6C
100
AcDbEntity
  8
Sichtbare Kanten(DIN)
100
AcDbLine
 10
101.2982262805993
 20
-104.8471304863854
 30
0.0
 11
97.54822628059935
 21
-104.8471304863865
 31
0.0
  0
LINE
  5
228
330
6C
100
AcDbEntity
  8
Sichtbare Kanten(DIN)
100
AcDbLine
 10
97.54822628059935
 20
-131.4471304863865
 30
0.0
 11
97.54822628059935
 21
-104.8471304863865
 31
0.0
  0
LINE
  5
229
330
6C
100
AcDbEntity
  8
Sichtbare Kanten(DIN)
100
AcDbLine
 10
100.0482262805993
 20
-168.8471304863857
 30
0.0
 11
97.54822628059935
 21
-168.8471304863857
 31
0.0
  0
LINE
  5
22A
330
6C
100
AcDbEntity
  8
Sichtbare Kanten(DIN)
100
AcDbLine
 10
97.54822628059935
 20
-102.3471304863861
 30
0.0
 11
100.0482262805993
 21
-102.3471304863861
 31
0.0
  0
LINE
  5
22B
330
6C
100
AcDbEntity
  8
Sichtbare Kanten(DIN)
100
AcDbLine
 10
97.54822628059935
 20
-104.8471304863869
 30
0.0
 11
97.54822628059935
 21
-102.3471304863869
 31
0.0
  0
LINE
  5
22C
330
6C
100
AcDbEntity
  8
Sichtbare Kanten(DIN)
100
AcDbLine
 10
97.54822628059935
 20
-168.8471304863865
 30
0.0
 11
97.54822628059935
 21
-166.3471304863865
 31
0.0
  0
LINE
  5
22D
330
6C
100
AcDbEntity
  8
Sichtbare Kanten(DIN)
100
AcDbLine
 10
40.61200747823916
 20
-104.8471304863854
 30
0.0
 11
48.7982262805994
 21
-104.8471304863854
 31
0.0
  0
LINE
  5
22E
330
6C
100
AcDbEntity
  8
Sichtbare Kanten(DIN)
100
AcDbLine
 10
48.79822628059937
 20
-166.3471304863854
 30
0.0
 11
40.61200747823916
 21
-166.3471304863854
 31
0.0
  0
ARC
  5
22F
330
6C
100
AcDbEntity
  8
Sichtbare Kanten(DIN)
100
AcDbCircle
 10
40.61200747823914
 20
-107.8471304863854
 30
0.0
 40
2.999999999999986
100
AcDbArc
 50
89.99999999999968
 51
173.5493044737873
  0
ARC
  5
230
330
6C
100
AcDbEntity
  8
Sichtbare Kanten(DIN)
100
AcDbCircle
 10
40.61200747823914
 20
-163.3471304863854
 30
0.0
 40
2.999999999999993
100
AcDbArc
 50
186.4506955262127
 51
270.0000000000002
  0
ARC
  5
231
330
6C
100
AcDbEntity
  8
Sichtbare Kanten(DIN)
100
AcDbCircle
 10
109.4844450829596
 20
-163.347130486385
 30
0.0
 40
2.999999999999998
100
AcDbArc
 50
269.9999999999997
 51
353.5493044737874
  0
ARC
  5
232
330
6C
100
AcDbEntity
  8
Sichtbare Kanten(DIN)
100
AcDbCircle
 10
109.4844450829596
 20
-107.8471304863854
 30
0.0
 40
2.999999999999984
100
AcDbArc
 50
6.450695526212339
 51
90.0
  0
ARC
  5
233
330
6C
100
AcDbEntity
  8
Sichtbare Kanten(DIN)
100
AcDbCircle
 10
286.0482262805965
 20
-135.5971304863854
 30
0.0
 40
249.9999999999971
100
AcDbArc
 50
173.5493044737872
 51
186.4506955262128
  0
ARC
  5
234
330
6C
100
AcDbEntity
  8
Sichtbare Kanten(DIN)
100
AcDbCircle
 10
-135.9517737194003
 20
-135.5971304863854
 30
0.0
 40
249.9999999999998
100
AcDbArc
 50
353.5493044737874
 51
6.450695526212673
  0
LINE
  5
235
330
6C
100
AcDbEntity
  8
Sichtbare Kanten(DIN)
100
AcDbLine
 10
109.4844450829596
 20
-166.347130486385
 30
0.0
 11
101.2982262805994
 21
-166.347130486385
 31
0.0
  0
LINE
  5
236
330
6C
100
AcDbEntity
  8
Sichtbare Kanten(DIN)
100
AcDbLine
 10
101.2982262805994
 20
-104.8471304863854
 30
0.0
 11
109.4844450829596
 21
-104.8471304863854
 31
0.0
  0
ARC
  5
237
330
6C
100
AcDbEntity
  8
Sichtbare Kanten(DIN)
100
AcDbCircle
 10
55.04822628059934
 20
-176.3471304863861
 30
0.0
 40
2.499999999999999
100
AcDbArc
 50
180.0
 51
270.0000000000084
  0
ARC
  5
238
330
6C
100
AcDbEntity
  8
Sichtbare Kanten(DIN)
100
AcDbCircle
 10
55.04822628059935
 20
-176.3471304863861
 30
0.0
 40
5.000000000000005
100
AcDbArc
 50
180.0
 51
270.0000000000041
  0
ARC
  5
239
330
6C
100
AcDbEntity
  8
Sichtbare Kanten(DIN)
100
AcDbCircle
 10
95.04822628059933
 20
-176.3471304863861
 30
0.0
 40
5.000000000000008
100
AcDbArc
 50
270.0
 51
0.0
  0
ARC
  5
23A
330
6C
100
AcDbEntity
  8
Sichtbare Kanten(DIN)
100
AcDbCircle
 10
95.04822628059939
 20
-176.3471304863861
 30
0.0
 40
2.499999999999991
100
AcDbArc
 50
269.9999999999996
 51
0.0
  0
ARC
  5
23B
330
6C
100
AcDbEntity
  8
Sichtbare Kanten(DIN)
100
AcDbCircle
 10
102.5482262805993
 20
-94.84713048638614
 30
0.0
 40
2.5
100
AcDbArc
 50
89.99999999999959
 51
180.0
  0
ARC
  5
23C
330
6C
100
AcDbEntity
  8
Sichtbare Kanten(DIN)
100
AcDbCircle
 10
102.5482262805993
 20
-94.84713048638612
 30
0.0
 40
4.999999999999991
100
AcDbArc
 50
90.0
 51
180.0
  0
LINE
  5
23D
330
6C
100
AcDbEntity
  8
Sichtbare Kanten(DIN)
100
AcDbLine
 10
102.5482262805993
 20
-92.34713048638614
 30
0.0
 11
121.5482262805993
 21
-92.34713048638614
 31
0.0
  0
LINE
  5
23E
330
6C
100
AcDbEntity
  8
Sichtbare Kanten(DIN)
100
AcDbLine
 10
121.5482262805993
 20
-89.84713048638614
 30
0.0
 11
102.5482262805993
 21
-89.84713048638614
 31
0.0
  0
ARC
  5
23F
330
6C
100
AcDbEntity
  8
Sichtbare Kanten(DIN)
100
AcDbCircle
 10
47.54822628059934
 20
-94.84713048638612
 30
0.0
 40
5.000000000000001
100
AcDbArc
 50
0.0
 51
89.99999999999976
  0
ARC
  5
240
330
6C
100
AcDbEntity
  8
Sichtbare Kanten(DIN)
100
AcDbCircle
 10
47.54822628059934
 20
-94.84713048638612
 30
0.0
 40
2.500000000000006
100
AcDbArc
 50
0.0
 51
89.9999999999996
  0
LINE
  5
241
330
6C
100
AcDbEntity
  8
Sichtbare Kanten(DIN)
100
AcDbLine
 10
47.54822628059936
 20
-89.84713048638612
 30
0.0
 11
28.54822628059935
 21
-89.84713048638614
 31
0.0
  0
LINE
  5
242
330
6C
100
AcDbEntity
  8
Sichtbare Kanten(DIN)
100
AcDbLine
 10
28.54822628059935
 20
-92.34713048638614
 30
0.0
 11
47.54822628059936
 21
-92.34713048638612
 31
0.0
  0
LINE
  5
243
330
6C
100
AcDbEntity
  8
Sichtbare Kanten(DIN)
100
AcDbLine
 10
13.54822628059935
 20
-89.84713048639058
 30
0.0
 11
28.54822628059935
 21
-89.84713048638612
 31
0.0
  0
LINE
  5
244
330
6C
100
AcDbEntity
  8
Sichtbare Kanten(DIN)
100
AcDbLine
 10
136.5482262805993
 20
-92.3471304863906
 30
0.0
 11
136.5482262805993
 21
-89.8471304863906
 31
0.0
  0
LINE
  5
245
330
6C
100
AcDbEntity
  8
Sichtbare Kanten(DIN)
100
AcDbLine
 10
121.5482262805993
 20
-89.84713048638614
 30
0.0
 11
136.5482262805993
 21
-89.8471304863906
 31
0.0
  0
LINE
  5
246
330
6C
100
AcDbEntity
  8
Sichtbare Kanten(DIN)
100
AcDbLine
 10
28.54822628059935
 20
-92.34713048638612
 30
0.0
 11
13.54822628059934
 21
-92.34713048639058
 31
0.0
  0
LINE
  5
247
330
6C
100
AcDbEntity
  8
Sichtbare Kanten(DIN)
100
AcDbLine
 10
13.54822628059934
 20
-89.8471304863906
 30
0.0
 11
13.54822628059934
 21
-92.34713048639058
 31
0.0
  0
LINE
  5
248
330
6C
100
AcDbEntity
  8
Sichtbare Kanten(DIN)
100
AcDbLine
 10
136.5482262805993
 20
-92.3471304863906
 30
0.0
 11
121.5482262805993
 21
-92.34713048638614
 31
0.0
  0
LINE
  5
249
330
6C
100
AcDbEntity
  8
Sichtbare Kanten(DIN)
100
AcDbLine
 10
92.41072628059932
 20
-181.4471304864084
 30
0.0
 11
92.41072628059932
 21
-181.3471304864084
 31
0.0
  0
LINE
  5
24A
330
6C
100
AcDbEntity
  8
Sichtbare Kanten(DIN)
100
AcDbLine
 10
57.68572628059931
 20
-181.4471304864084
 30
0.0
 11
57.68572628059931
 21
-181.3471304864084
 31
0.0
  0
LINE
  5
24B
330
6C
100
AcDbEntity
  8
Sichtbare Kanten(DIN)
100
AcDbLine
 10
92.41072628059932
 20
-181.4471304864084
 30
0.0
 11
57.68572628059931
 21
-181.4471304864084
 31
0.0
  0
ENDSEC
  0
SECTION
  2
OBJECTS
  0
DICTIONARY
  5
C
330
0
100
AcDbDictionary
281
     1
  3
ACAD_COLOR
350
63
  3
ACAD_GROUP
350
D
  3
ACAD_LAYOUT
350
62
  3
ACAD_MATERIAL
350
10
  3
ACAD_MLEADERSTYLE
350
66
  3
ACAD_MLINESTYLE
350
5F
  3
ACAD_PLOTSETTINGS
350
61
  3
ACAD_PLOTSTYLENAME
350
E
  3
ACAD_SCALELIST
350
42
  3
ACAD_TABLESTYLE
350
64
  3
ACAD_VISUALSTYLE
350
29
  3
ACDB_RECOMPOSE_DATA
350
25B
  3
AcDbVariableDictionary
350
24C
  3
DWGPROPS
350
25C
  0
DICTIONARY
  5
63
102
{ACAD_REACTORS
330
C
102
}
330
C
100
AcDbDictionary
281
     1
  0
DICTIONARY
  5
D
102
{ACAD_REACTORS
330
C
102
}
330
C
100
AcDbDictionary
281
     1
  0
DICTIONARY
  5
62
102
{ACAD_REACTORS
330
C
102
}
330
C
100
AcDbDictionary
281
     1
  3
Layout1
350
6B
  3
Layout2
350
73
  3
Model
350
6F
  0
DICTIONARY
  5
10
102
{ACAD_REACTORS
330
C
102
}
330
C
100
AcDbDictionary
281
     1
  3
ByBlock
350
19
  3
ByLayer
350
11
  3
Global
350
21
  0
DICTIONARY
  5
66
102
{ACAD_REACTORS
330
C
102
}
330
C
100
AcDbDictionary
281
     1
  3
Standard
350
67
  0
DICTIONARY
  5
5F
102
{ACAD_REACTORS
330
C
102
}
330
C
100
AcDbDictionary
281
     1
  3
Standard
350
60
  0
DICTIONARY
  5
61
102
{ACAD_REACTORS
330
C
102
}
330
C
100
AcDbDictionary
281
     1
  0
ACDBDICTIONARYWDFLT
  5
E
102
{ACAD_REACTORS
330
C
102
}
330
C
100
AcDbDictionary
281
     1
  3
Normal
350
F
100
AcDbDictionaryWithDefault
340
F
  0
DICTIONARY
  5
42
102
{ACAD_REACTORS
330
C
102
}
330
C
100
AcDbDictionary
281
     1
  3
A0
350
43
  3
A1
350
44
  3
A2
350
45
  3
A3
350
46
  3
A4
350
47
  3
A5
350
48
  3
A6
350
49
  3
A7
350
4A
  3
A8
350
4B
  3
A9
350
4C
  3
B0
350
4D
  3
B1
350
4E
  3
B2
350
4F
  3
B3
350
50
  3
B4
350
51
  3
B5
350
52
  3
B6
350
53
  0
DICTIONARY
  5
64
102
{ACAD_REACTORS
330
C
102
}
330
C
100
AcDbDictionary
281
     1
  3
Standard
350
65
  0
DICTIONARY
  5
29
102
{ACAD_REACTORS
330
C
102
}
330
C
100
AcDbDictionary
281
     1
  3
2dWireframe
350
2F
  3
Basic
350
2E
  3
Brighten
350
35
  3
ColorChange
350
39
  3
Conceptual
350
32
  3
Dim
350
34
  3
EdgeColorOff
350
41
  3
Facepattern
350
38
  3
Flat
350
2A
  3
FlatWithEdges
350
2B
  3
Gouraud
350
2C
  3
GouraudWithEdges
350
2D
  3
Hidden
350
31
  3
JitterOff
350
3F
  3
Linepattern
350
37
  3
OverhangOff
350
40
  3
Realistic
350
33
  3
Shaded
350
3E
  3
Shaded with edges
350
3D
  3
Shades of Gray
350
3A
  3
Sketchy
350
3B
  3
Thicken
350
36
  3
Wireframe
350
30
  3
X-Ray
350
3C
  0
XRECORD
  5
25B
102
{ACAD_REACTORS
330
C
102
}
330
C
100
AcDbXrecord
280
     1
 90
        1
330
65
  0
DICTIONARY
  5
24C
102
{ACAD_REACTORS
330
C
102
}
330
C
100
AcDbDictionary
281
     1
  3
CANNOSCALE
350
250
  3
CMLEADERSTYLE
350
24E
  3
CTABLESTYLE
350
24D
  3
DIMASSOC
350
257
  3
HIDETEXT
350
256
  3
INDEXCTL
350
255
  3
LAYEREVAL
350
252
  3
LAYERNOTIFY
350
253
  3
LIGHTINGUNITS
350
251
  3
MSLTSCALE
350
24F
  3
SORTENTS
350
254
  3
XCLIPFRAME
350
258
  0
XRECORD
  5
25C
102
{ACAD_REACTORS
330
C
102
}
330
C
100
AcDbXrecord
280
     1
  1
DWGPROPS COOKIE
  2

  3

  4
S.Rübsamen
  6

  7

  8

  9

300
Manager=
301
Firma=
302
Kategorie=
303
Bauteilnummer=
304
Bezeichnung=
305
Projekt=
306
Konstrukteur=S.Rübsamen
307
Ingenieur=
308
Bevollmächtigter=
309
Kostenstelle=
 40
0.0000146180555556
 41
2455798.501859838
 42
2455798.501859838
  1

 90
       34
300
Zulieferer=
300
Benutzerstatus=
300
Konstruktionsstatus=InBearbeitung
300
Kontrolliert von=
300
Konstruktion genehmigt von=
300
Fertigung genehmigt von=
300
Gewicht=
300
Oberfläche=
300
Oberfläche_2=roh
300
Werkstoff=Edelstahl V2A
300
Zeichnungs_Nr.=
300
Benennung2=
300
Benennung3=
300
Werkstoff_DIN=1.4301 / ASTM 304
300
Oberfläche_3=
300
ZeichnungsNr Index=
300
Änderung_a=
300
Änderung_b=
300
Datum_a=
300
Datum_b=
300
Status_a=
300
Status_b=
300
Name_a=
300
Name_b=
  0
LAYOUT
  5
6B
102
{ACAD_XDICTIONARY
360
292
102
}
102
{ACAD_REACTORS
330
62
102
}
330
62
100
AcDbPlotSettings
  1

  2

  4

  6

 40
0.0
 41
0.0
 42
0.0
 43
0.0
 44
0.0
 45
0.0
 46
0.0
 47
0.0
 48
0.0
 49
0.0
140
0.0
141
0.0
142
1.0
143
1.0
 70
   688
 72
     0
 73
     0
 74
     5
  7

 75
    16
147
1.0
148
0.0
149
0.0
100
AcDbLayout
  1
Layout1
 70
     1
 71
     1
 10
0.0
 20
0.0
 11
12.0
 21
9.0
 12
0.0
 22
0.0
 32
0.0
 14
0.0
 24
0.0
 34
0.0
 15
0.0
 25
0.0
 35
0.0
146
0.0
 13
0.0
 23
0.0
 33
0.0
 16
1.0
 26
0.0
 36
0.0
 17
0.0
 27
1.0
 37
0.0
 76
     0
330
68
  0
LAYOUT
  5
73
102
{ACAD_XDICTIONARY
360
296
102
}
102
{ACAD_REACTORS
330
62
102
}
330
62
100
AcDbPlotSettings
  1

  2

  4

  6

 40
0.0
 41
0.0
 42
0.0
 43
0.0
 44
0.0
 45
0.0
 46
0.0
 47
0.0
 48
0.0
 49
0.0
140
0.0
141
0.0
142
1.0
143
1.0
 70
   688
 72
     0
 73
     0
 74
     5
  7

 75
    16
147
1.0
148
0.0
149
0.0
100
AcDbLayout
  1
Layout2
 70
     1
 71
     2
 10
0.0
 20
0.0
 11
12.0
 21
9.0
 12
0.0
 22
0.0
 32
0.0
 14
0.0
 24
0.0
 34
0.0
 15
0.0
 25
0.0
 35
0.0
146
0.0
 13
0.0
 23
0.0
 33
0.0
 16
1.0
 26
0.0
 36
0.0
 17
0.0
 27
1.0
 37
0.0
 76
     0
330
70
  0
LAYOUT
  5
6F
102
{ACAD_XDICTIONARY
360
294
102
}
102
{ACAD_REACTORS
330
62
102
}
330
62
100
AcDbPlotSettings
  1

  2

  4

  6

 40
0.0
 41
0.0
 42
0.0
 43
0.0
 44
0.0
 45
0.0
 46
0.0
 47
0.0
 48
0.0
 49
0.0
140
0.0
141
0.0
142
1.0
143
1.0
 70
  1712
 72
     0
 73
     0
 74
     0
  7

 75
     0
147
1.0
148
0.0
149
0.0
100
AcDbLayout
  1
Model
 70
     1
 71
     0
 10
0.0
 20
0.0
 11
12.0
 21
9.0
 12
0.0
 22
0.0
 32
0.0
 14
0.0
 24
0.0
 34
0.0
 15
0.0
 25
0.0
 35
0.0
146
0.0
 13
0.0
 23
0.0
 33
0.0
 16
1.0
 26
0.0
 36
0.0
 17
0.0
 27
1.0
 37
0.0
 76
     0
330
6C
  0
MATERIAL
  5
19
102
{ACAD_XDICTIONARY
360
1A
102
}
102
{ACAD_REACTORS
330
10
102
}
330
10
100
AcDbMaterial
  1
ByBlock
 72
     0
 43
0.0208333333333333
 43
0.0
 43
0.0
 43
0.0
 43
0.0
 43
0.0208333333333333
 43
0.0
 43
0.0
 43
0.0
 43
0.0
 43
1.0
 43
0.0
 43
0.0
 43
0.0
 43
0.0
 43
1.0
 77
     0
 47
0.0208333333333333
 47
0.0
 47
0.0
 47
0.0
 47
0.0
 47
0.0208333333333333
 47
0.0
 47
0.0
 47
0.0
 47
0.0
 47
1.0
 47
0.0
 47
0.0
 47
0.0
 47
0.0
 47
1.0
171
     0
 49
0.0208333333333333
 49
0.0
 49
0.0
 49
0.0
 49
0.0
 49
0.0208333333333333
 49
0.0
 49
0.0
 49
0.0
 49
0.0
 49
1.0
 49
0.0
 49
0.0
 49
0.0
 49
0.0
 49
1.0
175
     0
142
0.0208333333333333
142
0.0
142
0.0
142
0.0
142
0.0
142
0.0208333333333333
142
0.0
142
0.0
142
0.0
142
0.0
142
1.0
142
0.0
142
0.0
142
0.0
142
0.0
142
1.0
179
     0
144
0.0208333333333333
144
0.0
144
0.0
144
0.0
144
0.0
144
0.0208333333333333
144
0.0
144
0.0
144
0.0
144
0.0
144
1.0
144
0.0
144
0.0
144
0.0
144
0.0
144
1.0
147
0.0208333333333333
147
0.0
147
0.0
147
0.0
147
0.0
147
0.0208333333333333
147
0.0
147
0.0
147
0.0
147
0.0
147
1.0
147
0.0
147
0.0
147
0.0
147
0.0
147
1.0
  0
MATERIAL
  5
11
102
{ACAD_XDICTIONARY
360
12
102
}
102
{ACAD_REACTORS
330
10
102
}
330
10
100
AcDbMaterial
  1
ByLayer
 72
     0
 43
0.0208333333333333
 43
0.0
 43
0.0
 43
0.0
 43
0.0
 43
0.0208333333333333
 43
0.0
 43
0.0
 43
0.0
 43
0.0
 43
1.0
 43
0.0
 43
0.0
 43
0.0
 43
0.0
 43
1.0
 77
     0
 47
0.0208333333333333
 47
0.0
 47
0.0
 47
0.0
 47
0.0
 47
0.0208333333333333
 47
0.0
 47
0.0
 47
0.0
 47
0.0
 47
1.0
 47
0.0
 47
0.0
 47
0.0
 47
0.0
 47
1.0
171
     0
 49
0.0208333333333333
 49
0.0
 49
0.0
 49
0.0
 49
0.0
 49
0.0208333333333333
 49
0.0
 49
0.0
 49
0.0
 49
0.0
 49
1.0
 49
0.0
 49
0.0
 49
0.0
 49
0.0
 49
1.0
175
     0
142
0.0208333333333333
142
0.0
142
0.0
142
0.0
142
0.0
142
0.0208333333333333
142
0.0
142
0.0
142
0.0
142
0.0
142
1.0
142
0.0
142
0.0
142
0.0
142
0.0
142
1.0
179
     0
144
0.0208333333333333
144
0.0
144
0.0
144
0.0
144
0.0
144
0.0208333333333333
144
0.0
144
0.0
144
0.0
144
0.0
144
1.0
144
0.0
144
0.0
144
0.0
144
0.0
144
1.0
147
0.0208333333333333
147
0.0
147
0.0
147
0.0
147
0.0
147
0.0208333333333333
147
0.0
147
0.0
147
0.0
147
0.0
147
1.0
147
0.0
147
0.0
147
0.0
147
0.0
147
1.0
  0
MATERIAL
  5
21
102
{ACAD_XDICTIONARY
360
22
102
}
102
{ACAD_REACTORS
330
10
102
}
330
10
100
AcDbMaterial
  1
Global
 72
     0
 43
0.0208333333333333
 43
0.0
 43
0.0
 43
0.0
 43
0.0
 43
0.0208333333333333
 43
0.0
 43
0.0
 43
0.0
 43
0.0
 43
1.0
 43
0.0
 43
0.0
 43
0.0
 43
0.0
 43
1.0
 77
     0
 47
0.0208333333333333
 47
0.0
 47
0.0
 47
0.0
 47
0.0
 47
0.0208333333333333
 47
0.0
 47
0.0
 47
0.0
 47
0.0
 47
1.0
 47
0.0
 47
0.0
 47
0.0
 47
0.0
 47
1.0
171
     0
 49
0.0208333333333333
 49
0.0
 49
0.0
 49
0.0
 49
0.0
 49
0.0208333333333333
 49
0.0
 49
0.0
 49
0.0
 49
0.0
 49
1.0
 49
0.0
 49
0.0
 49
0.0
 49
0.0
 49
1.0
175
     0
142
0.0208333333333333
142
0.0
142
0.0
142
0.0
142
0.0
142
0.0208333333333333
142
0.0
142
0.0
142
0.0
142
0.0
142
1.0
142
0.0
142
0.0
142
0.0
142
0.0
142
1.0
179
     0
144
0.0208333333333333
144
0.0
144
0.0
144
0.0
144
0.0
144
0.0208333333333333
144
0.0
144
0.0
144
0.0
144
0.0
144
1.0
144
0.0
144
0.0
144
0.0
144
0.0
144
1.0
147
0.0208333333333333
147
0.0
147
0.0
147
0.0
147
0.0
147
0.0208333333333333
147
0.0
147
0.0
147
0.0
147
0.0
147
1.0
147
0.0
147
0.0
147
0.0
147
0.0
147
1.0
  0
MLEADERSTYLE
  5
67
102
{ACAD_REACTORS
330
66
102
}
330
66
100
AcDbMLeaderStyle
170
     2
171
     1
172
     0
 90
        2
 40
0.0
 41
0.0
173
     1
 91
-1056964608
340
5B
 92
       -2
290
     1
 42
0.09
291
     1
 43
0.36
  3
Standard
 44
0.18
300

342
55
174
     1
178
     6
175
     1
176
     0
 93
-1056964608
 45
0.18
292
     0
297
     0
 46
0.18
 94
-1056964608
 47
1.0
 49
1.0
140
1.0
293
     1
141
0.0
294
     1
177
     0
142
1.0
295
     0
296
     0
143
0.125
1001
ACAD_MLEADERVER
1070
     2
  0
MLINESTYLE
  5
60
102
{ACAD_REACTORS
330
5F
102
}
330
5F
100
AcDbMlineStyle
  2
STANDARD
 70
     0
  3

 62
   256
 51
90.0
 52
90.0
 71
     2
 49
0.5
 62
   256
  6
BYLAYER
 49
-0.5
 62
   256
  6
BYLAYER
  0
ACDBPLACEHOLDER
  5
F
102
{ACAD_REACTORS
330
E
102
}
330
E
  0
SCALE
  5
43
102
{ACAD_REACTORS
330
42
102
}
330
42
100
AcDbScale
 70
     0
300
1:1
140
1.0
141
1.0
290
     1
  0
SCALE
  5
44
102
{ACAD_REACTORS
330
42
102
}
330
42
100
AcDbScale
 70
     0
300
1/128" = 1'-0"
140
0.0078125
141
12.0
290
     0
  0
SCALE
  5
45
102
{ACAD_REACTORS
330
42
102
}
330
42
100
AcDbScale
 70
     0
300
1/64" = 1'-0"
140
0.015625
141
12.0
290
     0
  0
SCALE
  5
46
102
{ACAD_REACTORS
330
42
102
}
330
42
100
AcDbScale
 70
     0
300
1/32" = 1'-0"
140
0.03125
141
12.0
290
     0
  0
SCALE
  5
47
102
{ACAD_REACTORS
330
42
102
}
330
42
100
AcDbScale
 70
     0
300
1/16" = 1'-0"
140
0.0625
141
12.0
290
     0
  0
SCALE
  5
48
102
{ACAD_REACTORS
330
42
102
}
330
42
100
AcDbScale
 70
     0
300
3/32" = 1'-0"
140
0.09375
141
12.0
290
     0
  0
SCALE
  5
49
102
{ACAD_REACTORS
330
42
102
}
330
42
100
AcDbScale
 70
     0
300
1/8" = 1'-0"
140
0.125
141
12.0
290
     0
  0
SCALE
  5
4A
102
{ACAD_REACTORS
330
42
102
}
330
42
100
AcDbScale
 70
     0
300
3/16" = 1'-0"
140
0.1875
141
12.0
290
     0
  0
SCALE
  5
4B
102
{ACAD_REACTORS
330
42
102
}
330
42
100
AcDbScale
 70
     0
300
1/4" = 1'-0"
140
0.25
141
12.0
290
     0
  0
SCALE
  5
4C
102
{ACAD_REACTORS
330
42
102
}
330
42
100
AcDbScale
 70
     0
300
3/8" = 1'-0"
140
0.375
141
12.0
290
     0
  0
SCALE
  5
4D
102
{ACAD_REACTORS
330
42
102
}
330
42
100
AcDbScale
 70
     0
300
1/2" = 1'-0"
140
0.5
141
12.0
290
     0
  0
SCALE
  5
4E
102
{ACAD_REACTORS
330
42
102
}
330
42
100
AcDbScale
 70
     0
300
3/4" = 1'-0"
140
0.75
141
12.0
290
     0
  0
SCALE
  5
4F
102
{ACAD_REACTORS
330
42
102
}
330
42
100
AcDbScale
 70
     0
300
1" = 1'-0"
140
1.0
141
12.0
290
     0
  0
SCALE
  5
50
102
{ACAD_REACTORS
330
42
102
}
330
42
100
AcDbScale
 70
     0
300
1-1/2" = 1'-0"
140
1.5
141
12.0
290
     0
  0
SCALE
  5
51
102
{ACAD_REACTORS
330
42
102
}
330
42
100
AcDbScale
 70
     0
300
3" = 1'-0"
140
3.0
141
12.0
290
     0
  0
SCALE
  5
52
102
{ACAD_REACTORS
330
42
102
}
330
42
100
AcDbScale
 70
     0
300
6" = 1'-0"
140
6.0
141
12.0
290
     0
  0
SCALE
  5
53
102
{ACAD_REACTORS
330
42
102
}
330
42
100
AcDbScale
 70
     0
300
1'-0" = 1'-0"
140
12.0
141
12.0
290
     0
  0
TABLESTYLE
  5
65
102
{ACAD_XDICTIONARY
360
259
102
}
102
{ACAD_REACTORS
330
64
102
}
330
64
100
AcDbTableStyle
  3
Standard
 70
     0
 71
     0
 40
0.06
 41
0.06
280
     0
281
     0
  7
Standard
140
0.18
170
     2
 62
     0
 63
     7
283
     0
274
    -2
284
     1
 64
     0
275
    -2
285
     1
 65
     0
276
    -2
286
     1
 66
     0
277
    -2
287
     1
 67
     0
278
    -2
288
     1
 68
     0
279
    -2
289
     1
 69
     0
  7
Standard
140
0.25
170
     5
 62
     0
 63
     7
283
     0
274
    -2
284
     1
 64
     0
275
    -2
285
     1
 65
     0
276
    -2
286
     1
 66
     0
277
    -2
287
     1
 67
     0
278
    -2
288
     1
 68
     0
279
    -2
289
     1
 69
     0
  7
Standard
140
0.18
170
     5
 62
     0
 63
     7
283
     0
274
    -2
284
     1
 64
     0
275
    -2
285
     1
 65
     0
276
    -2
286
     1
 66
     0
277
    -2
287
     1
 67
     0
278
    -2
288
     1
 68
     0
279
    -2
289
     1
 69
     0
  0
VISUALSTYLE
  5
2F
102
{ACAD_XDICTIONARY
360
26A
102
}
102
{ACAD_REACTORS
330
29
102
}
330
29
100
AcDbVisualStyle
  2
2dWireframe
 70
     4
 71
     0
 72
     2
 73
     0
 90
        0
 40
-0.6
 41
-30.0
 62
     5
 63
     7
 74
     1
 91
        4
 64
     7
 65
   257
 75
     1
175
     1
 42
1.0
 92
        0
 66
   257
 43
1.0
 76
     1
 77
     6
 78
     2
 67
     7
 79
     5
170
     0
171
     0
290
     0
174
     0
 93
        1
 44
0.0
173
     0
291
     0
 45
0.0
1001
ACAD
1000
AcDbSavedByObjectVersion
1070
     0
  0
VISUALSTYLE
  5
2E
102
{ACAD_XDICTIONARY
360
268
102
}
102
{ACAD_REACTORS
330
29
102
}
330
29
100
AcDbVisualStyle
  2
Basic
 70
     7
 71
     1
 72
     0
 73
     1
 90
        0
 40
-0.6
 41
-30.0
 62
     5
 63
     7
 74
     0
 91
        4
 64
     7
 65
   257
 75
     1
175
     1
 42
1.0
 92
        8
 66
     7
 43
1.0
 76
     1
 77
     6
 78
     2
 67
     7
 79
     5
170
     0
171
     0
290
     0
174
     0
 93
        1
 44
0.0
173
     0
291
     1
 45
0.0
1001
ACAD
1000
AcDbSavedByObjectVersion
1070
     0
  0
VISUALSTYLE
  5
35
102
{ACAD_XDICTIONARY
360
276
102
}
102
{ACAD_REACTORS
330
29
102
}
330
29
100
AcDbVisualStyle
  2
Brighten
 70
    12
 71
     2
 72
     2
 73
     0
 90
        0
 40
-0.6
 41
-30.0
 62
     5
 63
     7
 74
     1
 91
        4
 64
     7
 65
   257
 75
     1
175
     1
 42
1.0
 92
        8
 66
     7
 43
1.0
 76
     1
 77
     6
 78
     2
 67
     7
 79
     5
170
     0
171
     0
290
     0
174
     0
 93
        1
 44
50.0
173
     0
291
     1
 45
0.0
1001
ACAD
1000
AcDbSavedByObjectVersion
1070
     0
  0
VISUALSTYLE
  5
39
102
{ACAD_XDICTIONARY
360
27E
102
}
102
{ACAD_REACTORS
330
29
102
}
330
29
100
AcDbVisualStyle
  2
ColorChange
 70
    16
 71
     2
 72
     2
 73
     3
 90
        0
 40
-0.6
 41
-30.0
 62
     5
 63
     8
 74
     1
 91
        4
 64
     7
 65
   257
 75
     1
175
     1
 42
1.0
 92
        8
 66
     8
 43
1.0
 76
     1
 77
     6
 78
     2
 67
     7
 79
     5
170
     0
171
     0
290
     0
174
     0
 93
        1
 44
0.0
173
     0
291
     1
 45
0.0
1001
ACAD
1000
AcDbSavedByObjectVersion
1070
     0
  0
VISUALSTYLE
  5
32
102
{ACAD_XDICTIONARY
360
270
102
}
102
{ACAD_REACTORS
330
29
102
}
330
29
100
AcDbVisualStyle
  2
Conceptual
 70
     9
 71
     3
 72
     2
 73
     0
 90
        0
 40
-0.6
 41
-30.0
 62
     5
 63
     7
 74
     2
 91
        2
 64
     7
 65
   257
 75
     1
175
     1
 42
179.0
 92
        8
 66
     7
 43
1.0
 76
     1
 77
     6
 78
     2
 67
     7
 79
     3
170
     0
171
     0
290
     0
174
     0
 93
        1
 44
0.0
173
     0
291
     0
 45
0.0
1001
ACAD
1000
AcDbSavedByObjectVersion
1070
     0
  0
VISUALSTYLE
  5
34
102
{ACAD_XDICTIONARY
360
274
102
}
102
{ACAD_REACTORS
330
29
102
}
330
29
100
AcDbVisualStyle
  2
Dim
 70
    11
 71
     2
 72
     2
 73
     0
 90
        0
 40
-0.6
 41
-30.0
 62
     5
 63
     7
 74
     1
 91
        4
 64
     7
 65
   257
 75
     1
175
     1
 42
1.0
 92
        8
 66
     7
 43
1.0
 76
     1
 77
     6
 78
     2
 67
     7
 79
     5
170
     0
171
     0
290
     0
174
     0
 93
        1
 44
-50.0
173
     0
291
     1
 45
0.0
1001
ACAD
1000
AcDbSavedByObjectVersion
1070
     0
  0
VISUALSTYLE
  5
41
102
{ACAD_XDICTIONARY
360
28E
102
}
102
{ACAD_REACTORS
330
29
102
}
330
29
100
AcDbVisualStyle
  2
EdgeColorOff
 70
    22
 71
     2
 72
     2
 73
     0
 90
        0
 40
-0.6
 41
-30.0
 62
     5
 63
     7
 74
     1
 91
        4
 64
     7
 65
   257
 75
     1
175
     1
 42
1.0
 92
        8
 66
     7
 43
1.0
 76
     1
 77
     6
 78
     2
 67
     7
 79
     5
170
     0
171
     0
290
     0
174
     0
 93
        1
 44
0.0
173
     0
291
     1
 45
0.0
1001
ACAD
1000
AcDbSavedByObjectVersion
1070
     0
  0
VISUALSTYLE
  5
38
102
{ACAD_XDICTIONARY
360
27C
102
}
102
{ACAD_REACTORS
330
29
102
}
330
29
100
AcDbVisualStyle
  2
Facepattern
 70
    15
 71
     2
 72
     2
 73
     0
 90
        0
 40
-0.6
 41
-30.0
 62
     5
 63
     7
 74
     1
 91
        4
 64
     7
 65
   257
 75
     1
175
     1
 42
1.0
 92
        8
 66
     7
 43
1.0
 76
     1
 77
     6
 78
     2
 67
     7
 79
     5
170
     0
171
     0
290
     0
174
     0
 93
        1
 44
0.0
173
     0
291
     1
 45
0.0
1001
ACAD
1000
AcDbSavedByObjectVersion
1070
     0
  0
VISUALSTYLE
  5
2A
102
{ACAD_XDICTIONARY
360
260
102
}
102
{ACAD_REACTORS
330
29
102
}
330
29
100
AcDbVisualStyle
  2
Flat
 70
     0
 71
     2
 72
     1
 73
     1
 90
        2
 40
-0.6
 41
30.0
 62
     5
 63
     7
 74
     0
 91
        0
 64
     7
 65
   257
 75
     1
175
     1
 42
1.0
 92
        8
 66
     7
 43
1.0
 76
     1
 77
     6
 78
     2
 67
     7
 79
     5
170
     0
171
     0
290
     0
174
     0
 93
       13
 44
0.0
173
     0
291
     1
 45
0.0
1001
ACAD
1000
AcDbSavedByObjectVersion
1070
     0
  0
VISUALSTYLE
  5
2B
102
{ACAD_XDICTIONARY
360
262
102
}
102
{ACAD_REACTORS
330
29
102
}
330
29
100
AcDbVisualStyle
  2
FlatWithEdges
 70
     1
 71
     2
 72
     1
 73
     1
 90
        2
 40
-0.6
 41
30.0
 62
     5
 63
     7
 74
     1
 91
        0
 64
     7
 65
   257
 75
     1
175
     1
 42
1.0
 92
        0
 66
   257
 43
1.0
 76
     1
 77
     6
 78
     2
 67
     7
 79
     5
170
     0
171
     0
290
     0
174
     0
 93
       13
 44
0.0
173
     0
291
     1
 45
0.0
1001
ACAD
1000
AcDbSavedByObjectVersion
1070
     0
  0
VISUALSTYLE
  5
2C
102
{ACAD_XDICTIONARY
360
264
102
}
102
{ACAD_REACTORS
330
29
102
}
330
29
100
AcDbVisualStyle
  2
Gouraud
 70
     2
 71
     2
 72
     2
 73
     1
 90
        2
 40
-0.6
 41
30.0
 62
     5
 63
     7
 74
     0
 91
        0
 64
     7
 65
   257
 75
     1
175
     1
 42
1.0
 92
        0
 66
     7
 43
1.0
 76
     1
 77
     6
 78
     2
 67
     7
 79
     5
170
     0
171
     0
290
     0
174
     0
 93
       13
 44
0.0
173
     0
291
     1
 45
0.0
1001
ACAD
1000
AcDbSavedByObjectVersion
1070
     0
  0
VISUALSTYLE
  5
2D
102
{ACAD_XDICTIONARY
360
266
102
}
102
{ACAD_REACTORS
330
29
102
}
330
29
100
AcDbVisualStyle
  2
GouraudWithEdges
 70
     3
 71
     2
 72
     2
 73
     1
 90
        2
 40
-0.6
 41
30.0
 62
     5
 63
     7
 74
     1
 91
        0
 64
     7
 65
   257
 75
     1
175
     1
 42
1.0
 92
        0
 66
   257
 43
1.0
 76
     1
 77
     6
 78
     2
 67
     7
 79
     5
170
     0
171
     0
290
     0
174
     0
 93
       13
 44
0.0
173
     0
291
     1
 45
0.0
1001
ACAD
1000
AcDbSavedByObjectVersion
1070
     0
  0
VISUALSTYLE
  5
31
102
{ACAD_XDICTIONARY
360
26E
102
}
102
{ACAD_REACTORS
330
29
102
}
330
29
100
AcDbVisualStyle
  2
Hidden
 70
     6
 71
     1
 72
     2
 73
     2
 90
        0
 40
-0.6
 41
-30.0
 62
     5
 63
     7
 74
     2
 91
        2
 64
     7
 65
   257
 75
     2
175
     1
 42
40.0
 92
        0
 66
   257
 43
1.0
 76
     1
 77
     6
 78
     2
 67
     7
 79
     3
170
     0
171
     0
290
     0
174
     0
 93
        1
 44
0.0
173
     0
291
     0
 45
0.0
1001
ACAD
1000
AcDbSavedByObjectVersion
1070
     0
  0
VISUALSTYLE
  5
3F
102
{ACAD_XDICTIONARY
360
28A
102
}
102
{ACAD_REACTORS
330
29
102
}
330
29
100
AcDbVisualStyle
  2
JitterOff
 70
    20
 71
     2
 72
     2
 73
     0
 90
        0
 40
-0.6
 41
-30.0
 62
     5
 63
     7
 74
     1
 91
        4
 64
     7
 65
   257
 75
     1
175
     1
 42
1.0
 92
       10
 66
     7
 43
1.0
 76
     1
 77
     6
 78
     2
 67
     7
 79
     5
170
     0
171
     0
290
     0
174
     0
 93
        1
 44
0.0
173
     0
291
     1
 45
0.0
1001
ACAD
1000
AcDbSavedByObjectVersion
1070
     0
  0
VISUALSTYLE
  5
37
102
{ACAD_XDICTIONARY
360
27A
102
}
102
{ACAD_REACTORS
330
29
102
}
330
29
100
AcDbVisualStyle
  2
Linepattern
 70
    14
 71
     2
 72
     2
 73
     0
 90
        0
 40
-0.6
 41
-30.0
 62
     5
 63
     7
 74
     1
 91
        4
 64
     7
 65
   257
 75
     7
175
     7
 42
1.0
 92
        8
 66
     7
 43
1.0
 76
     1
 77
     6
 78
     2
 67
     7
 79
     5
170
     0
171
     0
290
     0
174
     0
 93
        1
 44
0.0
173
     0
291
     1
 45
0.0
1001
ACAD
1000
AcDbSavedByObjectVersion
1070
     0
  0
VISUALSTYLE
  5
40
102
{ACAD_XDICTIONARY
360
28C
102
}
102
{ACAD_REACTORS
330
29
102
}
330
29
100
AcDbVisualStyle
  2
OverhangOff
 70
    21
 71
     2
 72
     2
 73
     0
 90
        0
 40
-0.6
 41
-30.0
 62
     5
 63
     7
 74
     1
 91
        4
 64
     7
 65
   257
 75
     1
175
     1
 42
1.0
 92
        9
 66
     7
 43
1.0
 76
     1
 77
     6
 78
     2
 67
     7
 79
     5
170
     0
171
     0
290
     0
174
     0
 93
        1
 44
0.0
173
     0
291
     1
 45
0.0
1001
ACAD
1000
AcDbSavedByObjectVersion
1070
     0
  0
VISUALSTYLE
  5
33
102
{ACAD_XDICTIONARY
360
272
102
}
102
{ACAD_REACTORS
330
29
102
}
330
29
100
AcDbVisualStyle
  2
Realistic
 70
     8
 71
     2
 72
     3
 73
     0
 90
        2
 40
-0.6
 41
30.0
 62
     5
 63
     7
 74
     0
 91
        0
 64
     7
 65
   257
 75
     1
175
     1
 42
1.0
 92
        8
 66
   257
 43
1.0
 76
     1
 77
     6
 78
     2
 67
     7
 79
     3
170
     0
171
     0
290
     0
174
     0
 93
       13
 44
0.0
173
     0
291
     0
 45
0.0
1001
ACAD
1000
AcDbSavedByObjectVersion
1070
     0
  0
VISUALSTYLE
  5
3E
102
{ACAD_XDICTIONARY
360
288
102
}
102
{ACAD_REACTORS
330
29
102
}
330
29
100
AcDbVisualStyle
  2
Shaded
 70
    27
 71
     2
 72
     2
 73
     1
 90
        2
 40
-0.6
 41
30.0
 62
     5
 63
     7
 74
     0
 91
        4
 64
     7
 65
   257
 75
     1
175
     1
 42
1.0
 92
        8
 66
   257
 43
1.0
 76
     1
 77
     6
 78
     2
 67
     8
 79
     3
170
     0
171
     0
290
     0
174
     0
 93
        5
 44
0.0
173
     0
291
     0
 45
0.0
1001
ACAD
1000
AcDbSavedByObjectVersion
1070
     0
  0
VISUALSTYLE
  5
3D
102
{ACAD_XDICTIONARY
360
286
102
}
102
{ACAD_REACTORS
330
29
102
}
330
29
100
AcDbVisualStyle
  2
Shaded with edges
 70
    26
 71
     2
 72
     2
 73
     1
 90
        2
 40
-0.6
 41
30.0
 62
     5
 63
     7
 74
     1
 91
       10
 64
     7
 65
   257
 75
     2
175
     1
 42
1.0
 92
        8
 66
   257
 43
1.0
 76
     1
 77
     6
 78
     2
 67
     7
 79
     3
170
     0
171
     0
290
     0
174
     0
 93
        5
 44
0.0
173
     0
291
     0
 45
0.0
1001
ACAD
1000
AcDbSavedByObjectVersion
1070
     0
  0
VISUALSTYLE
  5
3A
102
{ACAD_XDICTIONARY
360
280
102
}
102
{ACAD_REACTORS
330
29
102
}
330
29
100
AcDbVisualStyle
  2
Shades of Gray
 70
    23
 71
     2
 72
     2
 73
     3
 90
        0
 40
-0.6
 41
-30.0
 62
     5
 63
     7
 74
     2
 91
        2
 64
     7
 65
     7
 75
     1
175
     1
 42
40.0
 92
        8
 66
     7
 43
1.0
 76
     1
 77
     6
 78
     2
 67
     7
 79
     3
170
     0
171
     0
290
     0
174
     0
 93
        1
 44
0.0
173
     0
291
     0
 45
0.0
1001
ACAD
1000
AcDbSavedByObjectVersion
1070
     0
  0
VISUALSTYLE
  5
3B
102
{ACAD_XDICTIONARY
360
282
102
}
102
{ACAD_REACTORS
330
29
102
}
330
29
100
AcDbVisualStyle
  2
Sketchy
 70
    24
 71
     1
 72
     2
 73
     2
 90
        0
 40
-0.6
 41
-30.0
 62
     5
 63
     7
 74
     2
 91
        2
 64
     7
 65
     7
 75
     1
175
     1
 42
40.0
 92
       11
 66
     7
 43
1.0
 76
     1
 77
     6
 78
     2
 67
     7
 79
     6
170
     0
171
     0
290
     0
174
     0
 93
        1
 44
0.0
173
     0
291
     0
 45
0.0
1001
ACAD
1000
AcDbSavedByObjectVersion
1070
     0
  0
VISUALSTYLE
  5
36
102
{ACAD_XDICTIONARY
360
278
102
}
102
{ACAD_REACTORS
330
29
102
}
330
29
100
AcDbVisualStyle
  2
Thicken
 70
    13
 71
     2
 72
     2
 73
     0
 90
        0
 40
-0.6
 41
-30.0
 62
     5
 63
     7
 74
     1
 91
        4
 64
     7
 65
   257
 75
     1
175
     1
 42
1.0
 92
       12
 66
     7
 43
1.0
 76
     1
 77
     6
 78
     2
 67
     7
 79
     5
170
     0
171
     0
290
     0
174
     0
 93
        1
 44
0.0
173
     0
291
     1
 45
0.0
1001
ACAD
1000
AcDbSavedByObjectVersion
1070
     0
  0
VISUALSTYLE
  5
30
102
{ACAD_XDICTIONARY
360
26C
102
}
102
{ACAD_REACTORS
330
29
102
}
330
29
100
AcDbVisualStyle
  2
Wireframe
 70
     5
 71
     0
 72
     2
 73
     0
 90
        0
 40
-0.6
 41
-30.0
 62
     5
 63
     7
 74
     1
 91
        4
 64
     7
 65
   257
 75
     1
175
     1
 42
1.0
 92
        0
 66
   257
 43
1.0
 76
     1
 77
     6
 78
     2
 67
     7
 79
     3
170
     0
171
     0
290
     0
174
     0
 93
        1
 44
0.0
173
     0
291
     0
 45
0.0
1001
ACAD
1000
AcDbSavedByObjectVersion
1070
     0
  0
VISUALSTYLE
  5
3C
102
{ACAD_XDICTIONARY
360
284
102
}
102
{ACAD_REACTORS
330
29
102
}
330
29
100
AcDbVisualStyle
  2
X-Ray
 70
    25
 71
     2
 72
     2
 73
     1
 90
        1
 40
0.5
 41
-30.0
 62
     5
 63
     7
 74
     1
 91
        0
 64
     7
 65
   257
 75
     1
175
     1
 42
1.0
 92
        8
 66
     7
 43
1.0
 76
     1
 77
     6
 78
     2
 67
     7
 79
     3
170
     0
171
     0
290
     0
174
     0
 93
       13
 44
0.0
173
     0
291
     0
 45
0.0
1001
ACAD
1000
AcDbSavedByObjectVersion
1070
     0
  0
DICTIONARYVAR
  5
250
102
{ACAD_REACTORS
330
24C
102
}
330
24C
100
DictionaryVariables
280
     0
  1
1:1
  0
DICTIONARYVAR
  5
24E
102
{ACAD_REACTORS
330
24C
102
}
330
24C
100
DictionaryVariables
280
     0
  1
STANDARD
  0
DICTIONARYVAR
  5
24D
102
{ACAD_REACTORS
330
24C
102
}
330
24C
100
DictionaryVariables
280
     0
  1
STANDARD
  0
DICTIONARYVAR
  5
257
102
{ACAD_REACTORS
330
24C
102
}
330
24C
100
DictionaryVariables
280
     0
  1
1
  0
DICTIONARYVAR
  5
256
102
{ACAD_REACTORS
330
24C
102
}
330
24C
100
DictionaryVariables
280
     0
  1
1
  0
DICTIONARYVAR
  5
255
102
{ACAD_REACTORS
330
24C
102
}
330
24C
100
DictionaryVariables
280
     0
  1
0
  0
DICTIONARYVAR
  5
252
102
{ACAD_REACTORS
330
24C
102
}
330
24C
100
DictionaryVariables
280
     0
  1
0
  0
DICTIONARYVAR
  5
253
102
{ACAD_REACTORS
330
24C
102
}
330
24C
100
DictionaryVariables
280
     0
  1
0
  0
DICTIONARYVAR
  5
251
102
{ACAD_REACTORS
330
24C
102
}
330
24C
100
DictionaryVariables
280
     0
  1
2
  0
DICTIONARYVAR
  5
24F
102
{ACAD_REACTORS
330
24C
102
}
330
24C
100
DictionaryVariables
280
     0
  1
1
  0
DICTIONARYVAR
  5
254
102
{ACAD_REACTORS
330
24C
102
}
330
24C
100
DictionaryVariables
280
     0
  1
127
  0
DICTIONARYVAR
  5
258
102
{ACAD_REACTORS
330
24C
102
}
330
24C
100
DictionaryVariables
280
     0
  1
2
  0
DICTIONARY
  5
292
330
6B
100
AcDbDictionary
280
     1
281
     1
  3
ACAD_XREC_ROUNDTRIP
360
293
  0
DICTIONARY
  5
296
330
73
100
AcDbDictionary
280
     1
281
     1
  3
ACAD_XREC_ROUNDTRIP
360
297
  0
DICTIONARY
  5
294
330
6F
100
AcDbDictionary
280
     1
281
     1
  3
ACAD_XREC_ROUNDTRIP
360
295
  0
DICTIONARY
  5
1A
330
19
100
AcDbDictionary
280
     1
281
     1
  3
ACAD_XREC_ROUNDTRIP
360
25E
  3
BUMPTILE
360
1C
  3
DIFFUSETILE
360
1B
  3
OPACITYTILE
360
1F
  3
REFLECTIONTILE
360
1E
  3
REFRACTIONTILE
360
20
  3
SPECULARTILE
360
1D
  0
DICTIONARY
  5
12
330
11
100
AcDbDictionary
280
     1
281
     1
  3
ACAD_XREC_ROUNDTRIP
360
25D
  3
BUMPTILE
360
14
  3
DIFFUSETILE
360
13
  3
OPACITYTILE
360
17
  3
REFLECTIONTILE
360
16
  3
REFRACTIONTILE
360
18
  3
SPECULARTILE
360
15
  0
DICTIONARY
  5
22
330
21
100
AcDbDictionary
280
     1
281
     1
  3
ACAD_XREC_ROUNDTRIP
360
25F
  3
BUMPTILE
360
24
  3
DIFFUSETILE
360
23
  3
OPACITYTILE
360
27
  3
REFLECTIONTILE
360
26
  3
REFRACTIONTILE
360
28
  3
SPECULARTILE
360
25
  0
DICTIONARY
  5
259
330
65
100
AcDbDictionary
280
     1
281
     1
  3
ACAD_ROUNDTRIP_2008_TABLESTYLE_CELLSTYLEMAP
360
25A
  3
ACAD_XREC_ROUNDTRIP
360
290
  0
DICTIONARY
  5
26A
330
2F
100
AcDbDictionary
280
     1
281
     1
  3
ACAD_XREC_ROUNDTRIP
360
26B
  0
DICTIONARY
  5
268
330
2E
100
AcDbDictionary
280
     1
281
     1
  3
ACAD_XREC_ROUNDTRIP
360
269
  0
DICTIONARY
  5
276
330
35
100
AcDbDictionary
280
     1
281
     1
  3
ACAD_XREC_ROUNDTRIP
360
277
  0
DICTIONARY
  5
27E
330
39
100
AcDbDictionary
280
     1
281
     1
  3
ACAD_XREC_ROUNDTRIP
360
27F
  0
DICTIONARY
  5
270
330
32
100
AcDbDictionary
280
     1
281
     1
  3
ACAD_XREC_ROUNDTRIP
360
271
  0
DICTIONARY
  5
274
330
34
100
AcDbDictionary
280
     1
281
     1
  3
ACAD_XREC_ROUNDTRIP
360
275
  0
DICTIONARY
  5
28E
330
41
100
AcDbDictionary
280
     1
281
     1
  3
ACAD_XREC_ROUNDTRIP
360
28F
  0
DICTIONARY
  5
27C
330
38
100
AcDbDictionary
280
     1
281
     1
  3
ACAD_XREC_ROUNDTRIP
360
27D
  0
DICTIONARY
  5
260
330
2A
100
AcDbDictionary
280
     1
281
     1
  3
ACAD_XREC_ROUNDTRIP
360
261
  0
DICTIONARY
  5
262
330
2B
100
AcDbDictionary
280
     1
281
     1
  3
ACAD_XREC_ROUNDTRIP
360
263
  0
DICTIONARY
  5
264
330
2C
100
AcDbDictionary
280
     1
281
     1
  3
ACAD_XREC_ROUNDTRIP
360
265
  0
DICTIONARY
  5
266
330
2D
100
AcDbDictionary
280
     1
281
     1
  3
ACAD_XREC_ROUNDTRIP
360
267
  0
DICTIONARY
  5
26E
330
31
100
AcDbDictionary
280
     1
281
     1
  3
ACAD_XREC_ROUNDTRIP
360
26F
  0
DICTIONARY
  5
28A
330
3F
100
AcDbDictionary
280
     1
281
     1
  3
ACAD_XREC_ROUNDTRIP
360
28B
  0
DICTIONARY
  5
27A
330
37
100
AcDbDictionary
280
     1
281
     1
  3
ACAD_XREC_ROUNDTRIP
360
27B
  0
DICTIONARY
  5
28C
330
40
100
AcDbDictionary
280
     1
281
     1
  3
ACAD_XREC_ROUNDTRIP
360
28D
  0
DICTIONARY
  5
272
330
33
100
AcDbDictionary
280
     1
281
     1
  3
ACAD_XREC_ROUNDTRIP
360
273
  0
DICTIONARY
  5
288
330
3E
100
AcDbDictionary
280
     1
281
     1
  3
ACAD_XREC_ROUNDTRIP
360
289
  0
DICTIONARY
  5
286
330
3D
100
AcDbDictionary
280
     1
281
     1
  3
ACAD_XREC_ROUNDTRIP
360
287
  0
DICTIONARY
  5
280
330
3A
100
AcDbDictionary
280
     1
281
     1
  3
ACAD_XREC_ROUNDTRIP
360
281
  0
DICTIONARY
  5
282
330
3B
100
AcDbDictionary
280
     1
281
     1
  3
ACAD_XREC_ROUNDTRIP
360
283
  0
DICTIONARY
  5
278
330
36
100
AcDbDictionary
280
     1
281
     1
  3
ACAD_XREC_ROUNDTRIP
360
279
  0
DICTIONARY
  5
26C
330
30
100
AcDbDictionary
280
     1
281
     1
  3
ACAD_XREC_ROUNDTRIP
360
26D
  0
DICTIONARY
  5
284
330
3C
100
AcDbDictionary
280
     1
281
     1
  3
ACAD_XREC_ROUNDTRIP
360
285
  0
XRECORD
  5
293
102
{ACAD_REACTORS
330
292
102
}
330
292
100
AcDbXrecord
280
     1
102
SHADEPLOT
 70
     0
102
SHADEPLOTRESLEVEL
 70
     2
102
SHADEPLOTCUSTOMDPI
 70
   300
  0
XRECORD
  5
297
102
{ACAD_REACTORS
330
296
102
}
330
296
100
AcDbXrecord
280
     1
102
SHADEPLOT
 70
     0
102
SHADEPLOTRESLEVEL
 70
     2
102
SHADEPLOTCUSTOMDPI
 70
   300
  0
XRECORD
  5
295
102
{ACAD_REACTORS
330
294
102
}
330
294
100
AcDbXrecord
280
     1
102
SHADEPLOT
 70
     0
102
SHADEPLOTRESLEVEL
 70
     2
102
SHADEPLOTCUSTOMDPI
 70
   300
  0
XRECORD
  5
25E
102
{ACAD_REACTORS
330
1A
102
}
330
1A
100
AcDbXrecord
280
     1
102
MATERIAL
148
0.0
149
0.0
149
0.0
 93
        0
 94
      127
282
     0
 72
     0
 77
     0
171
     0
175
     0
179
     0
273
     0
  0
XRECORD
  5
1C
102
{ACAD_REACTORS
330
1A
102
}
330
1A
100
AcDbXrecord
280
     1
270
     1
271
     1
  0
XRECORD
  5
1B
102
{ACAD_REACTORS
330
1A
102
}
330
1A
100
AcDbXrecord
280
     1
270
     1
271
     1
  0
XRECORD
  5
1F
102
{ACAD_REACTORS
330
1A
102
}
330
1A
100
AcDbXrecord
280
     1
270
     1
271
     1
  0
XRECORD
  5
1E
102
{ACAD_REACTORS
330
1A
102
}
330
1A
100
AcDbXrecord
280
     1
270
     1
271
     1
  0
XRECORD
  5
20
102
{ACAD_REACTORS
330
1A
102
}
330
1A
100
AcDbXrecord
280
     1
270
     1
271
     1
  0
XRECORD
  5
1D
102
{ACAD_REACTORS
330
1A
102
}
330
1A
100
AcDbXrecord
280
     1
270
     1
271
     1
  0
XRECORD
  5
25D
102
{ACAD_REACTORS
330
12
102
}
330
12
100
AcDbXrecord
280
     1
102
MATERIAL
148
0.0
149
0.0
149
0.0
 93
        0
 94
      127
282
     0
 72
     0
 77
     0
171
     0
175
     0
179
     0
273
     0
  0
XRECORD
  5
14
102
{ACAD_REACTORS
330
12
102
}
330
12
100
AcDbXrecord
280
     1
270
     1
271
     1
  0
XRECORD
  5
13
102
{ACAD_REACTORS
330
12
102
}
330
12
100
AcDbXrecord
280
     1
270
     1
271
     1
  0
XRECORD
  5
17
102
{ACAD_REACTORS
330
12
102
}
330
12
100
AcDbXrecord
280
     1
270
     1
271
     1
  0
XRECORD
  5
16
102
{ACAD_REACTORS
330
12
102
}
330
12
100
AcDbXrecord
280
     1
270
     1
271
     1
  0
XRECORD
  5
18
102
{ACAD_REACTORS
330
12
102
}
330
12
100
AcDbXrecord
280
     1
270
     1
271
     1
  0
XRECORD
  5
15
102
{ACAD_REACTORS
330
12
102
}
330
12
100
AcDbXrecord
280
     1
270
     1
271
     1
  0
XRECORD
  5
25F
102
{ACAD_REACTORS
330
22
102
}
330
22
100
AcDbXrecord
280
     1
102
MATERIAL
148
0.0
149
0.0
149
0.0
 93
        0
 94
      127
282
     0
 72
     0
 77
     0
171
     0
175
     0
179
     0
273
     0
  0
XRECORD
  5
24
102
{ACAD_REACTORS
330
22
102
}
330
22
100
AcDbXrecord
280
     1
270
     1
271
     1
  0
XRECORD
  5
23
102
{ACAD_REACTORS
330
22
102
}
330
22
100
AcDbXrecord
280
     1
270
     1
271
     1
  0
XRECORD
  5
27
102
{ACAD_REACTORS
330
22
102
}
330
22
100
AcDbXrecord
280
     1
270
     1
271
     1
  0
XRECORD
  5
26
102
{ACAD_REACTORS
330
22
102
}
330
22
100
AcDbXrecord
280
     1
270
     1
271
     1
  0
XRECORD
  5
28
102
{ACAD_REACTORS
330
22
102
}
330
22
100
AcDbXrecord
280
     1
270
     1
271
     1
  0
XRECORD
  5
25
102
{ACAD_REACTORS
330
22
102
}
330
22
100
AcDbXrecord
280
     1
270
     1
271
     1
  0
CELLSTYLEMAP
  5
25A
102
{ACAD_REACTORS
330
259
102
}
330
259
100
AcDbCellStyleMap
 90
        3
300
CELLSTYLE
  1
TABLEFORMAT_BEGIN
 90
        5
170
     1
 91
        0
 92
    32768
 62
   257
 93
        1
300
CONTENTFORMAT
  1
CONTENTFORMAT_BEGIN
 90
        0
 91
        0
 92
      512
 93
        0
300

 40
0.0
140
1.0
 94
        5
 62
     0
340
55
144
0.25
309
CONTENTFORMAT_END
171
     0
 94
        0
309
TABLEFORMAT_END
  1
CELLSTYLE_BEGIN
 90
        1
 91
        1
300
_TITLE
309
CELLSTYLE_END
300
CELLSTYLE
  1
TABLEFORMAT_BEGIN
 90
        5
170
     1
 91
        0
 92
        0
 62
   257
 93
        1
300
CONTENTFORMAT
  1
CONTENTFORMAT_BEGIN
 90
        0
 91
        0
 92
      512
 93
        0
300

 40
0.0
140
1.0
 94
        5
 62
     0
340
55
144
0.18
309
CONTENTFORMAT_END
171
     0
 94
        0
309
TABLEFORMAT_END
  1
CELLSTYLE_BEGIN
 90
        2
 91
        1
300
_HEADER
309
CELLSTYLE_END
300
CELLSTYLE
  1
TABLEFORMAT_BEGIN
 90
        5
170
     1
 91
        0
 92
        0
 62
   257
 93
        1
300
CONTENTFORMAT
  1
CONTENTFORMAT_BEGIN
 90
        0
 91
        0
 92
      512
 93
        0
300

 40
0.0
140
1.0
 94
        2
 62
     0
340
55
144
0.18
309
CONTENTFORMAT_END
171
     0
 94
        0
309
TABLEFORMAT_END
  1
CELLSTYLE_BEGIN
 90
        3
 91
        2
300
_DATA
309
CELLSTYLE_END
  0
XRECORD
  5
290
102
{ACAD_REACTORS
330
259
102
}
330
259
100
AcDbXrecord
280
     1
102
ACAD_ROUNDTRIP_PRE2007_TABLESTYLE
 90
      512
 91
        0
  1

 92
      512
 93
        0
  2

 94
      512
 95
        0
  3

  0
XRECORD
  5
26B
102
{ACAD_REACTORS
330
26A
102
}
330
26A
100
AcDbXrecord
280
     1
102
RTVSPropertyOp0
 70
     1
102
RTVSPropertyOp1
 70
     1
102
RTVSPropertyOp2
 70
     1
102
RTVSPropertyOp3
 70
     1
102
RTVSPropertyOp4
 70
     1
102
RTVSPropertyOp5
 70
     1
102
RTVSPropertyOp6
 70
     1
102
RTVSPropertyOp7
 70
     1
102
RTVSPropertyOp8
 70
     1
102
RTVSPropertyOp9
 70
     1
102
RTVSPropertyOp10
 70
     1
102
RTVSPropertyOp11
 70
     1
102
RTVSPropertyOp12
 70
     1
102
RTVSPropertyOp13
 70
     1
102
RTVSPropertyOp14
 70
     1
102
RTVSPropertyOp15
 70
     1
102
RTVSPropertyOp16
 70
     1
102
RTVSPropertyOp17
 70
     1
102
RTVSPropertyOp18
 70
     1
102
RTVSPropertyOp19
 70
     1
102
RTVSPropertyOp20
 70
     1
102
RTVSPropertyOp21
 70
     1
102
RTVSPropertyOp22
 70
     1
102
RTVSPropertyOp23
 70
     1
102
RTVSPropertyOp24
 70
     1
102
RTVSPropertyOp25
 70
     1
102
RTVSPropertyOp26
 70
     1
102
RTVSPropertyOp27
 70
     1
102
RTVSPropertyOp28
 70
     1
102
RTVSPropertyOp29
 70
     1
102
RTVSPropertyOp30
 70
     1
102
RTVSPropertyOp31
 70
     1
102
RTVSPropertyOp32
 70
     1
  0
XRECORD
  5
269
102
{ACAD_REACTORS
330
268
102
}
330
268
100
AcDbXrecord
280
     1
102
RTVSPropertyOp0
 70
     1
102
RTVSPropertyOp1
 70
     1
102
RTVSPropertyOp2
 70
     1
102
RTVSPropertyOp3
 70
     1
102
RTVSPropertyOp4
 70
     1
102
RTVSPropertyOp5
 70
     1
102
RTVSPropertyOp6
 70
     1
102
RTVSPropertyOp7
 70
     1
102
RTVSPropertyOp8
 70
     1
102
RTVSPropertyOp9
 70
     1
102
RTVSPropertyOp10
 70
     1
102
RTVSPropertyOp11
 70
     1
102
RTVSPropertyOp12
 70
     1
102
RTVSPropertyOp13
 70
     1
102
RTVSPropertyOp14
 70
     1
102
RTVSPropertyOp15
 70
     1
102
RTVSPropertyOp16
 70
     1
102
RTVSPropertyOp17
 70
     1
102
RTVSPropertyOp18
 70
     1
102
RTVSPropertyOp19
 70
     1
102
RTVSPropertyOp20
 70
     1
102
RTVSPropertyOp21
 70
     1
102
RTVSPropertyOp22
 70
     1
102
RTVSPropertyOp23
 70
     1
102
RTVSPropertyOp24
 70
     1
102
RTVSPropertyOp25
 70
     1
102
RTVSPropertyOp26
 70
     1
102
RTVSPropertyOp27
 70
     1
102
RTVSPropertyOp28
 70
     1
102
RTVSPropertyOp29
 70
     1
102
RTVSPropertyOp30
 70
     1
102
RTVSPropertyOp31
 70
     1
102
RTVSPropertyOp32
 70
     1
  0
XRECORD
  5
277
102
{ACAD_REACTORS
330
276
102
}
330
276
100
AcDbXrecord
280
     1
102
RTVSPropertyOp0
 70
     1
102
RTVSPropertyOp1
 70
     1
102
RTVSPropertyOp2
 70
     1
102
RTVSPropertyOp3
 70
     1
102
RTVSPropertyOp4
 70
     1
102
RTVSPropertyOp5
 70
     1
102
RTVSPropertyOp6
 70
     1
102
RTVSPropertyOp7
 70
     1
102
RTVSPropertyOp8
 70
     1
102
RTVSPropertyOp9
 70
     1
102
RTVSPropertyOp10
 70
     1
102
RTVSPropertyOp11
 70
     1
102
RTVSPropertyOp12
 70
     1
102
RTVSPropertyOp13
 70
     1
102
RTVSPropertyOp14
 70
     1
102
RTVSPropertyOp15
 70
     1
102
RTVSPropertyOp16
 70
     1
102
RTVSPropertyOp17
 70
     1
102
RTVSPropertyOp18
 70
     1
102
RTVSPropertyOp19
 70
     1
102
RTVSPropertyOp20
 70
     1
102
RTVSPropertyOp21
 70
     1
102
RTVSPropertyOp22
 70
     1
102
RTVSPropertyOp23
 70
     1
102
RTVSPropertyOp24
 70
     1
102
RTVSPropertyOp25
 70
     1
102
RTVSPropertyOp26
 70
     1
102
RTVSPropertyOp27
 70
     1
102
RTVSPropertyOp28
 70
     1
102
RTVSPropertyOp29
 70
     1
102
RTVSPropertyOp30
 70
     1
102
RTVSPropertyOp31
 70
     1
102
RTVSPropertyOp32
 70
     1
  0
XRECORD
  5
27F
102
{ACAD_REACTORS
330
27E
102
}
330
27E
100
AcDbXrecord
280
     1
102
RTVSPropertyOp0
 70
     1
102
RTVSPropertyOp1
 70
     1
102
RTVSPropertyOp2
 70
     1
102
RTVSPropertyOp3
 70
     1
102
RTVSPropertyOp4
 70
     1
102
RTVSPropertyOp5
 70
     1
102
RTVSPropertyOp6
 70
     1
102
RTVSPropertyOp7
 70
     1
102
RTVSPropertyOp8
 70
     1
102
RTVSPropertyOp9
 70
     1
102
RTVSPropertyOp10
 70
     1
102
RTVSPropertyOp11
 70
     1
102
RTVSPropertyOp12
 70
     1
102
RTVSPropertyOp13
 70
     1
102
RTVSPropertyOp14
 70
     1
102
RTVSPropertyOp15
 70
     1
102
RTVSPropertyOp16
 70
     1
102
RTVSPropertyOp17
 70
     1
102
RTVSPropertyOp18
 70
     1
102
RTVSPropertyOp19
 70
     1
102
RTVSPropertyOp20
 70
     1
102
RTVSPropertyOp21
 70
     1
102
RTVSPropertyOp22
 70
     1
102
RTVSPropertyOp23
 70
     1
102
RTVSPropertyOp24
 70
     1
102
RTVSPropertyOp25
 70
     1
102
RTVSPropertyOp26
 70
     1
102
RTVSPropertyOp27
 70
     1
102
RTVSPropertyOp28
 70
     1
102
RTVSPropertyOp29
 70
     1
102
RTVSPropertyOp30
 70
     1
102
RTVSPropertyOp31
 70
     1
102
RTVSPropertyOp32
 70
     1
  0
XRECORD
  5
271
102
{ACAD_REACTORS
330
270
102
}
330
270
100
AcDbXrecord
280
     1
102
RTVSPropertyOp0
 70
     1
102
RTVSPropertyOp1
 70
     1
102
RTVSPropertyOp2
 70
     1
102
RTVSPropertyOp3
 70
     1
102
RTVSPropertyOp4
 70
     1
102
RTVSPropertyOp5
 70
     1
102
RTVSPropertyOp6
 70
     1
102
RTVSPropertyOp7
 70
     1
102
RTVSPropertyOp8
 70
     1
102
RTVSPropertyOp9
 70
     1
102
RTVSPropertyOp10
 70
     1
102
RTVSPropertyOp11
 70
     1
102
RTVSPropertyOp12
 70
     1
102
RTVSPropertyOp13
 70
     1
102
RTVSPropertyOp14
 70
     1
102
RTVSPropertyOp15
 70
     1
102
RTVSPropertyOp16
 70
     1
102
RTVSPropertyOp17
 70
     1
102
RTVSPropertyOp18
 70
     1
102
RTVSPropertyOp19
 70
     1
102
RTVSPropertyOp20
 70
     1
102
RTVSPropertyOp21
 70
     1
102
RTVSPropertyOp22
 70
     1
102
RTVSPropertyOp23
 70
     1
102
RTVSPropertyOp24
 70
     1
102
RTVSPropertyOp25
 70
     1
102
RTVSPropertyOp26
 70
     1
102
RTVSPropertyOp27
 70
     1
102
RTVSPropertyOp28
 70
     1
102
RTVSPropertyOp29
 70
     1
102
RTVSPropertyOp30
 70
     1
102
RTVSPropertyOp31
 70
     1
102
RTVSPropertyOp32
 70
     1
  0
XRECORD
  5
275
102
{ACAD_REACTORS
330
274
102
}
330
274
100
AcDbXrecord
280
     1
102
RTVSPropertyOp0
 70
     1
102
RTVSPropertyOp1
 70
     1
102
RTVSPropertyOp2
 70
     1
102
RTVSPropertyOp3
 70
     1
102
RTVSPropertyOp4
 70
     1
102
RTVSPropertyOp5
 70
     1
102
RTVSPropertyOp6
 70
     1
102
RTVSPropertyOp7
 70
     1
102
RTVSPropertyOp8
 70
     1
102
RTVSPropertyOp9
 70
     1
102
RTVSPropertyOp10
 70
     1
102
RTVSPropertyOp11
 70
     1
102
RTVSPropertyOp12
 70
     1
102
RTVSPropertyOp13
 70
     1
102
RTVSPropertyOp14
 70
     1
102
RTVSPropertyOp15
 70
     1
102
RTVSPropertyOp16
 70
     1
102
RTVSPropertyOp17
 70
     1
102
RTVSPropertyOp18
 70
     1
102
RTVSPropertyOp19
 70
     1
102
RTVSPropertyOp20
 70
     1
102
RTVSPropertyOp21
 70
     1
102
RTVSPropertyOp22
 70
     1
102
RTVSPropertyOp23
 70
     1
102
RTVSPropertyOp24
 70
     1
102
RTVSPropertyOp25
 70
     1
102
RTVSPropertyOp26
 70
     1
102
RTVSPropertyOp27
 70
     1
102
RTVSPropertyOp28
 70
     1
102
RTVSPropertyOp29
 70
     1
102
RTVSPropertyOp30
 70
     1
102
RTVSPropertyOp31
 70
     1
102
RTVSPropertyOp32
 70
     1
  0
XRECORD
  5
28F
102
{ACAD_REACTORS
330
28E
102
}
330
28E
100
AcDbXrecord
280
     1
102
RTVSPropertyOp0
 70
     0
102
RTVSPropertyOp1
 70
     0
102
RTVSPropertyOp2
 70
     0
102
RTVSPropertyOp3
 70
     0
102
RTVSPropertyOp4
 70
     0
102
RTVSPropertyOp5
 70
     0
102
RTVSPropertyOp6
 70
     0
102
RTVSPropertyOp7
 70
     0
102
RTVSPropertyOp8
 70
     0
102
RTVSPropertyOp9
 70
     0
102
RTVSPropertyOp10
 70
     0
102
RTVSPropertyOp11
 70
     0
102
RTVSPropertyOp12
 70
     0
102
RTVSPropertyOp13
 70
     0
102
RTVSPropertyOp14
 70
     2
102
RTVSPropertyOp15
 70
     0
102
RTVSPropertyOp16
 70
     0
102
RTVSPropertyOp17
 70
     0
102
RTVSPropertyOp18
 70
     0
102
RTVSPropertyOp19
 70
     0
102
RTVSPropertyOp20
 70
     0
102
RTVSPropertyOp21
 70
     0
102
RTVSPropertyOp22
 70
     0
102
RTVSPropertyOp23
 70
     0
102
RTVSPropertyOp24
 70
     0
102
RTVSPropertyOp25
 70
     0
102
RTVSPropertyOp26
 70
     0
102
RTVSPropertyOp27
 70
     0
102
RTVSPropertyOp28
 70
     0
102
RTVSPropertyOp29
 70
     0
102
RTVSPropertyOp30
 70
     0
102
RTVSPropertyOp31
 70
     0
102
RTVSPropertyOp32
 70
     0
  0
XRECORD
  5
27D
102
{ACAD_REACTORS
330
27C
102
}
330
27C
100
AcDbXrecord
280
     1
102
RTVSPropertyOp0
 70
     1
102
RTVSPropertyOp1
 70
     1
102
RTVSPropertyOp2
 70
     1
102
RTVSPropertyOp3
 70
     1
102
RTVSPropertyOp4
 70
     1
102
RTVSPropertyOp5
 70
     1
102
RTVSPropertyOp6
 70
     1
102
RTVSPropertyOp7
 70
     1
102
RTVSPropertyOp8
 70
     1
102
RTVSPropertyOp9
 70
     1
102
RTVSPropertyOp10
 70
     1
102
RTVSPropertyOp11
 70
     1
102
RTVSPropertyOp12
 70
     1
102
RTVSPropertyOp13
 70
     1
102
RTVSPropertyOp14
 70
     1
102
RTVSPropertyOp15
 70
     1
102
RTVSPropertyOp16
 70
     1
102
RTVSPropertyOp17
 70
     1
102
RTVSPropertyOp18
 70
     1
102
RTVSPropertyOp19
 70
     1
102
RTVSPropertyOp20
 70
     1
102
RTVSPropertyOp21
 70
     1
102
RTVSPropertyOp22
 70
     1
102
RTVSPropertyOp23
 70
     1
102
RTVSPropertyOp24
 70
     1
102
RTVSPropertyOp25
 70
     1
102
RTVSPropertyOp26
 70
     1
102
RTVSPropertyOp27
 70
     1
102
RTVSPropertyOp28
 70
     1
102
RTVSPropertyOp29
 70
     1
102
RTVSPropertyOp30
 70
     1
102
RTVSPropertyOp31
 70
     1
102
RTVSPropertyOp32
 70
     1
  0
XRECORD
  5
261
102
{ACAD_REACTORS
330
260
102
}
330
260
100
AcDbXrecord
280
     1
102
RTVSPropertyOp0
 70
     1
102
RTVSPropertyOp1
 70
     1
102
RTVSPropertyOp2
 70
     1
102
RTVSPropertyOp3
 70
     1
102
RTVSPropertyOp4
 70
     1
102
RTVSPropertyOp5
 70
     1
102
RTVSPropertyOp6
 70
     1
102
RTVSPropertyOp7
 70
     1
102
RTVSPropertyOp8
 70
     1
102
RTVSPropertyOp9
 70
     1
102
RTVSPropertyOp10
 70
     1
102
RTVSPropertyOp11
 70
     1
102
RTVSPropertyOp12
 70
     1
102
RTVSPropertyOp13
 70
     1
102
RTVSPropertyOp14
 70
     1
102
RTVSPropertyOp15
 70
     1
102
RTVSPropertyOp16
 70
     1
102
RTVSPropertyOp17
 70
     1
102
RTVSPropertyOp18
 70
     1
102
RTVSPropertyOp19
 70
     1
102
RTVSPropertyOp20
 70
     1
102
RTVSPropertyOp21
 70
     1
102
RTVSPropertyOp22
 70
     1
102
RTVSPropertyOp23
 70
     1
102
RTVSPropertyOp24
 70
     1
102
RTVSPropertyOp25
 70
     1
102
RTVSPropertyOp26
 70
     1
102
RTVSPropertyOp27
 70
     1
102
RTVSPropertyOp28
 70
     1
102
RTVSPropertyOp29
 70
     1
102
RTVSPropertyOp30
 70
     1
102
RTVSPropertyOp31
 70
     1
102
RTVSPropertyOp32
 70
     1
  0
XRECORD
  5
263
102
{ACAD_REACTORS
330
262
102
}
330
262
100
AcDbXrecord
280
     1
102
RTVSPropertyOp0
 70
     1
102
RTVSPropertyOp1
 70
     1
102
RTVSPropertyOp2
 70
     1
102
RTVSPropertyOp3
 70
     1
102
RTVSPropertyOp4
 70
     1
102
RTVSPropertyOp5
 70
     1
102
RTVSPropertyOp6
 70
     1
102
RTVSPropertyOp7
 70
     1
102
RTVSPropertyOp8
 70
     1
102
RTVSPropertyOp9
 70
     1
102
RTVSPropertyOp10
 70
     1
102
RTVSPropertyOp11
 70
     1
102
RTVSPropertyOp12
 70
     1
102
RTVSPropertyOp13
 70
     1
102
RTVSPropertyOp14
 70
     1
102
RTVSPropertyOp15
 70
     1
102
RTVSPropertyOp16
 70
     1
102
RTVSPropertyOp17
 70
     1
102
RTVSPropertyOp18
 70
     1
102
RTVSPropertyOp19
 70
     1
102
RTVSPropertyOp20
 70
     1
102
RTVSPropertyOp21
 70
     1
102
RTVSPropertyOp22
 70
     1
102
RTVSPropertyOp23
 70
     1
102
RTVSPropertyOp24
 70
     1
102
RTVSPropertyOp25
 70
     1
102
RTVSPropertyOp26
 70
     1
102
RTVSPropertyOp27
 70
     1
102
RTVSPropertyOp28
 70
     1
102
RTVSPropertyOp29
 70
     1
102
RTVSPropertyOp30
 70
     1
102
RTVSPropertyOp31
 70
     1
102
RTVSPropertyOp32
 70
     1
  0
XRECORD
  5
265
102
{ACAD_REACTORS
330
264
102
}
330
264
100
AcDbXrecord
280
     1
102
RTVSPropertyOp0
 70
     1
102
RTVSPropertyOp1
 70
     1
102
RTVSPropertyOp2
 70
     1
102
RTVSPropertyOp3
 70
     1
102
RTVSPropertyOp4
 70
     1
102
RTVSPropertyOp5
 70
     1
102
RTVSPropertyOp6
 70
     1
102
RTVSPropertyOp7
 70
     1
102
RTVSPropertyOp8
 70
     1
102
RTVSPropertyOp9
 70
     1
102
RTVSPropertyOp10
 70
     1
102
RTVSPropertyOp11
 70
     1
102
RTVSPropertyOp12
 70
     1
102
RTVSPropertyOp13
 70
     1
102
RTVSPropertyOp14
 70
     1
102
RTVSPropertyOp15
 70
     1
102
RTVSPropertyOp16
 70
     1
102
RTVSPropertyOp17
 70
     1
102
RTVSPropertyOp18
 70
     1
102
RTVSPropertyOp19
 70
     1
102
RTVSPropertyOp20
 70
     1
102
RTVSPropertyOp21
 70
     1
102
RTVSPropertyOp22
 70
     1
102
RTVSPropertyOp23
 70
     1
102
RTVSPropertyOp24
 70
     1
102
RTVSPropertyOp25
 70
     1
102
RTVSPropertyOp26
 70
     1
102
RTVSPropertyOp27
 70
     1
102
RTVSPropertyOp28
 70
     1
102
RTVSPropertyOp29
 70
     1
102
RTVSPropertyOp30
 70
     1
102
RTVSPropertyOp31
 70
     1
102
RTVSPropertyOp32
 70
     1
  0
XRECORD
  5
267
102
{ACAD_REACTORS
330
266
102
}
330
266
100
AcDbXrecord
280
     1
102
RTVSPropertyOp0
 70
     1
102
RTVSPropertyOp1
 70
     1
102
RTVSPropertyOp2
 70
     1
102
RTVSPropertyOp3
 70
     1
102
RTVSPropertyOp4
 70
     1
102
RTVSPropertyOp5
 70
     1
102
RTVSPropertyOp6
 70
     1
102
RTVSPropertyOp7
 70
     1
102
RTVSPropertyOp8
 70
     1
102
RTVSPropertyOp9
 70
     1
102
RTVSPropertyOp10
 70
     1
102
RTVSPropertyOp11
 70
     1
102
RTVSPropertyOp12
 70
     1
102
RTVSPropertyOp13
 70
     1
102
RTVSPropertyOp14
 70
     1
102
RTVSPropertyOp15
 70
     1
102
RTVSPropertyOp16
 70
     1
102
RTVSPropertyOp17
 70
     1
102
RTVSPropertyOp18
 70
     1
102
RTVSPropertyOp19
 70
     1
102
RTVSPropertyOp20
 70
     1
102
RTVSPropertyOp21
 70
     1
102
RTVSPropertyOp22
 70
     1
102
RTVSPropertyOp23
 70
     1
102
RTVSPropertyOp24
 70
     1
102
RTVSPropertyOp25
 70
     1
102
RTVSPropertyOp26
 70
     1
102
RTVSPropertyOp27
 70
     1
102
RTVSPropertyOp28
 70
     1
102
RTVSPropertyOp29
 70
     1
102
RTVSPropertyOp30
 70
     1
102
RTVSPropertyOp31
 70
     1
102
RTVSPropertyOp32
 70
     1
  0
XRECORD
  5
26F
102
{ACAD_REACTORS
330
26E
102
}
330
26E
100
AcDbXrecord
280
     1
102
RTVSPropertyOp0
 70
     1
102
RTVSPropertyOp1
 70
     1
102
RTVSPropertyOp2
 70
     1
102
RTVSPropertyOp3
 70
     1
102
RTVSPropertyOp4
 70
     1
102
RTVSPropertyOp5
 70
     1
102
RTVSPropertyOp6
 70
     1
102
RTVSPropertyOp7
 70
     1
102
RTVSPropertyOp8
 70
     1
102
RTVSPropertyOp9
 70
     1
102
RTVSPropertyOp10
 70
     1
102
RTVSPropertyOp11
 70
     1
102
RTVSPropertyOp12
 70
     1
102
RTVSPropertyOp13
 70
     1
102
RTVSPropertyOp14
 70
     1
102
RTVSPropertyOp15
 70
     1
102
RTVSPropertyOp16
 70
     1
102
RTVSPropertyOp17
 70
     1
102
RTVSPropertyOp18
 70
     1
102
RTVSPropertyOp19
 70
     1
102
RTVSPropertyOp20
 70
     1
102
RTVSPropertyOp21
 70
     1
102
RTVSPropertyOp22
 70
     1
102
RTVSPropertyOp23
 70
     1
102
RTVSPropertyOp24
 70
     1
102
RTVSPropertyOp25
 70
     1
102
RTVSPropertyOp26
 70
     1
102
RTVSPropertyOp27
 70
     1
102
RTVSPropertyOp28
 70
     1
102
RTVSPropertyOp29
 70
     1
102
RTVSPropertyOp30
 70
     1
102
RTVSPropertyOp31
 70
     1
102
RTVSPropertyOp32
 70
     1
  0
XRECORD
  5
28B
102
{ACAD_REACTORS
330
28A
102
}
330
28A
100
AcDbXrecord
280
     1
102
RTVSPropertyOp0
 70
     0
102
RTVSPropertyOp1
 70
     0
102
RTVSPropertyOp2
 70
     0
102
RTVSPropertyOp3
 70
     0
102
RTVSPropertyOp4
 70
     0
102
RTVSPropertyOp5
 70
     0
102
RTVSPropertyOp6
 70
     0
102
RTVSPropertyOp7
 70
     0
102
RTVSPropertyOp8
 70
     0
102
RTVSPropertyOp9
 70
     0
102
RTVSPropertyOp10
 70
     0
102
RTVSPropertyOp11
 70
     0
102
RTVSPropertyOp12
 70
     0
102
RTVSPropertyOp13
 70
     0
102
RTVSPropertyOp14
 70
     2
102
RTVSPropertyOp15
 70
     0
102
RTVSPropertyOp16
 70
     0
102
RTVSPropertyOp17
 70
     0
102
RTVSPropertyOp18
 70
     0
102
RTVSPropertyOp19
 70
     0
102
RTVSPropertyOp20
 70
     0
102
RTVSPropertyOp21
 70
     0
102
RTVSPropertyOp22
 70
     0
102
RTVSPropertyOp23
 70
     0
102
RTVSPropertyOp24
 70
     0
102
RTVSPropertyOp25
 70
     0
102
RTVSPropertyOp26
 70
     0
102
RTVSPropertyOp27
 70
     0
102
RTVSPropertyOp28
 70
     0
102
RTVSPropertyOp29
 70
     0
102
RTVSPropertyOp30
 70
     0
102
RTVSPropertyOp31
 70
     0
102
RTVSPropertyOp32
 70
     0
  0
XRECORD
  5
27B
102
{ACAD_REACTORS
330
27A
102
}
330
27A
100
AcDbXrecord
280
     1
102
RTVSPropertyOp0
 70
     1
102
RTVSPropertyOp1
 70
     1
102
RTVSPropertyOp2
 70
     1
102
RTVSPropertyOp3
 70
     1
102
RTVSPropertyOp4
 70
     1
102
RTVSPropertyOp5
 70
     1
102
RTVSPropertyOp6
 70
     1
102
RTVSPropertyOp7
 70
     1
102
RTVSPropertyOp8
 70
     1
102
RTVSPropertyOp9
 70
     1
102
RTVSPropertyOp10
 70
     1
102
RTVSPropertyOp11
 70
     1
102
RTVSPropertyOp12
 70
     1
102
RTVSPropertyOp13
 70
     1
102
RTVSPropertyOp14
 70
     1
102
RTVSPropertyOp15
 70
     1
102
RTVSPropertyOp16
 70
     1
102
RTVSPropertyOp17
 70
     1
102
RTVSPropertyOp18
 70
     1
102
RTVSPropertyOp19
 70
     1
102
RTVSPropertyOp20
 70
     1
102
RTVSPropertyOp21
 70
     1
102
RTVSPropertyOp22
 70
     1
102
RTVSPropertyOp23
 70
     1
102
RTVSPropertyOp24
 70
     1
102
RTVSPropertyOp25
 70
     1
102
RTVSPropertyOp26
 70
     1
102
RTVSPropertyOp27
 70
     1
102
RTVSPropertyOp28
 70
     1
102
RTVSPropertyOp29
 70
     1
102
RTVSPropertyOp30
 70
     1
102
RTVSPropertyOp31
 70
     1
102
RTVSPropertyOp32
 70
     1
  0
XRECORD
  5
28D
102
{ACAD_REACTORS
330
28C
102
}
330
28C
100
AcDbXrecord
280
     1
102
RTVSPropertyOp0
 70
     0
102
RTVSPropertyOp1
 70
     0
102
RTVSPropertyOp2
 70
     0
102
RTVSPropertyOp3
 70
     0
102
RTVSPropertyOp4
 70
     0
102
RTVSPropertyOp5
 70
     0
102
RTVSPropertyOp6
 70
     0
102
RTVSPropertyOp7
 70
     0
102
RTVSPropertyOp8
 70
     0
102
RTVSPropertyOp9
 70
     0
102
RTVSPropertyOp10
 70
     0
102
RTVSPropertyOp11
 70
     0
102
RTVSPropertyOp12
 70
     0
102
RTVSPropertyOp13
 70
     0
102
RTVSPropertyOp14
 70
     2
102
RTVSPropertyOp15
 70
     0
102
RTVSPropertyOp16
 70
     0
102
RTVSPropertyOp17
 70
     0
102
RTVSPropertyOp18
 70
     0
102
RTVSPropertyOp19
 70
     0
102
RTVSPropertyOp20
 70
     0
102
RTVSPropertyOp21
 70
     0
102
RTVSPropertyOp22
 70
     0
102
RTVSPropertyOp23
 70
     0
102
RTVSPropertyOp24
 70
     0
102
RTVSPropertyOp25
 70
     0
102
RTVSPropertyOp26
 70
     0
102
RTVSPropertyOp27
 70
     0
102
RTVSPropertyOp28
 70
     0
102
RTVSPropertyOp29
 70
     0
102
RTVSPropertyOp30
 70
     0
102
RTVSPropertyOp31
 70
     0
102
RTVSPropertyOp32
 70
     0
  0
XRECORD
  5
273
102
{ACAD_REACTORS
330
272
102
}
330
272
100
AcDbXrecord
280
     1
102
RTVSPropertyOp0
 70
     1
102
RTVSPropertyOp1
 70
     1
102
RTVSPropertyOp2
 70
     1
102
RTVSPropertyOp3
 70
     1
102
RTVSPropertyOp4
 70
     1
102
RTVSPropertyOp5
 70
     1
102
RTVSPropertyOp6
 70
     1
102
RTVSPropertyOp7
 70
     1
102
RTVSPropertyOp8
 70
     1
102
RTVSPropertyOp9
 70
     1
102
RTVSPropertyOp10
 70
     1
102
RTVSPropertyOp11
 70
     1
102
RTVSPropertyOp12
 70
     1
102
RTVSPropertyOp13
 70
     1
102
RTVSPropertyOp14
 70
     1
102
RTVSPropertyOp15
 70
     1
102
RTVSPropertyOp16
 70
     1
102
RTVSPropertyOp17
 70
     1
102
RTVSPropertyOp18
 70
     1
102
RTVSPropertyOp19
 70
     1
102
RTVSPropertyOp20
 70
     1
102
RTVSPropertyOp21
 70
     1
102
RTVSPropertyOp22
 70
     1
102
RTVSPropertyOp23
 70
     1
102
RTVSPropertyOp24
 70
     1
102
RTVSPropertyOp25
 70
     1
102
RTVSPropertyOp26
 70
     1
102
RTVSPropertyOp27
 70
     1
102
RTVSPropertyOp28
 70
     1
102
RTVSPropertyOp29
 70
     1
102
RTVSPropertyOp30
 70
     1
102
RTVSPropertyOp31
 70
     1
102
RTVSPropertyOp32
 70
     1
  0
XRECORD
  5
289
102
{ACAD_REACTORS
330
288
102
}
330
288
100
AcDbXrecord
280
     1
102
RTVSPropertyOp0
 70
     1
102
RTVSPropertyOp1
 70
     1
102
RTVSPropertyOp2
 70
     1
102
RTVSPropertyOp3
 70
     1
102
RTVSPropertyOp4
 70
     1
102
RTVSPropertyOp5
 70
     1
102
RTVSPropertyOp6
 70
     1
102
RTVSPropertyOp7
 70
     1
102
RTVSPropertyOp8
 70
     1
102
RTVSPropertyOp9
 70
     1
102
RTVSPropertyOp10
 70
     1
102
RTVSPropertyOp11
 70
     1
102
RTVSPropertyOp12
 70
     1
102
RTVSPropertyOp13
 70
     1
102
RTVSPropertyOp14
 70
     1
102
RTVSPropertyOp15
 70
     1
102
RTVSPropertyOp16
 70
     1
102
RTVSPropertyOp17
 70
     1
102
RTVSPropertyOp18
 70
     1
102
RTVSPropertyOp19
 70
     1
102
RTVSPropertyOp20
 70
     1
102
RTVSPropertyOp21
 70
     1
102
RTVSPropertyOp22
 70
     1
102
RTVSPropertyOp23
 70
     1
102
RTVSPropertyOp24
 70
     1
102
RTVSPropertyOp25
 70
     1
102
RTVSPropertyOp26
 70
     1
102
RTVSPropertyOp27
 70
     1
102
RTVSPropertyOp28
 70
     1
102
RTVSPropertyOp29
 70
     1
102
RTVSPropertyOp30
 70
     1
102
RTVSPropertyOp31
 70
     1
102
RTVSPropertyOp32
 70
     1
  0
XRECORD
  5
287
102
{ACAD_REACTORS
330
286
102
}
330
286
100
AcDbXrecord
280
     1
102
RTVSPropertyOp0
 70
     1
102
RTVSPropertyOp1
 70
     1
102
RTVSPropertyOp2
 70
     1
102
RTVSPropertyOp3
 70
     1
102
RTVSPropertyOp4
 70
     1
102
RTVSPropertyOp5
 70
     1
102
RTVSPropertyOp6
 70
     1
102
RTVSPropertyOp7
 70
     1
102
RTVSPropertyOp8
 70
     1
102
RTVSPropertyOp9
 70
     1
102
RTVSPropertyOp10
 70
     1
102
RTVSPropertyOp11
 70
     1
102
RTVSPropertyOp12
 70
     1
102
RTVSPropertyOp13
 70
     1
102
RTVSPropertyOp14
 70
     1
102
RTVSPropertyOp15
 70
     1
102
RTVSPropertyOp16
 70
     1
102
RTVSPropertyOp17
 70
     1
102
RTVSPropertyOp18
 70
     1
102
RTVSPropertyOp19
 70
     1
102
RTVSPropertyOp20
 70
     1
102
RTVSPropertyOp21
 70
     1
102
RTVSPropertyOp22
 70
     1
102
RTVSPropertyOp23
 70
     1
102
RTVSPropertyOp24
 70
     1
102
RTVSPropertyOp25
 70
     1
102
RTVSPropertyOp26
 70
     1
102
RTVSPropertyOp27
 70
     1
102
RTVSPropertyOp28
 70
     1
102
RTVSPropertyOp29
 70
     1
102
RTVSPropertyOp30
 70
     1
102
RTVSPropertyOp31
 70
     1
102
RTVSPropertyOp32
 70
     1
  0
XRECORD
  5
281
102
{ACAD_REACTORS
330
280
102
}
330
280
100
AcDbXrecord
280
     1
102
RTVSPropertyOp0
 70
     1
102
RTVSPropertyOp1
 70
     1
102
RTVSPropertyOp2
 70
     1
102
RTVSPropertyOp3
 70
     1
102
RTVSPropertyOp4
 70
     1
102
RTVSPropertyOp5
 70
     1
102
RTVSPropertyOp6
 70
     1
102
RTVSPropertyOp7
 70
     1
102
RTVSPropertyOp8
 70
     1
102
RTVSPropertyOp9
 70
     1
102
RTVSPropertyOp10
 70
     1
102
RTVSPropertyOp11
 70
     1
102
RTVSPropertyOp12
 70
     1
102
RTVSPropertyOp13
 70
     1
102
RTVSPropertyOp14
 70
     1
102
RTVSPropertyOp15
 70
     1
102
RTVSPropertyOp16
 70
     1
102
RTVSPropertyOp17
 70
     1
102
RTVSPropertyOp18
 70
     1
102
RTVSPropertyOp19
 70
     1
102
RTVSPropertyOp20
 70
     1
102
RTVSPropertyOp21
 70
     1
102
RTVSPropertyOp22
 70
     1
102
RTVSPropertyOp23
 70
     1
102
RTVSPropertyOp24
 70
     1
102
RTVSPropertyOp25
 70
     1
102
RTVSPropertyOp26
 70
     1
102
RTVSPropertyOp27
 70
     1
102
RTVSPropertyOp28
 70
     1
102
RTVSPropertyOp29
 70
     1
102
RTVSPropertyOp30
 70
     1
102
RTVSPropertyOp31
 70
     1
102
RTVSPropertyOp32
 70
     1
  0
XRECORD
  5
283
102
{ACAD_REACTORS
330
282
102
}
330
282
100
AcDbXrecord
280
     1
102
RTVSPropertyOp0
 70
     1
102
RTVSPropertyOp1
 70
     1
102
RTVSPropertyOp2
 70
     1
102
RTVSPropertyOp3
 70
     1
102
RTVSPropertyOp4
 70
     1
102
RTVSPropertyOp5
 70
     1
102
RTVSPropertyOp6
 70
     1
102
RTVSPropertyOp7
 70
     1
102
RTVSPropertyOp8
 70
     1
102
RTVSPropertyOp9
 70
     1
102
RTVSPropertyOp10
 70
     1
102
RTVSPropertyOp11
 70
     1
102
RTVSPropertyOp12
 70
     1
102
RTVSPropertyOp13
 70
     1
102
RTVSPropertyOp14
 70
     1
102
RTVSPropertyOp15
 70
     1
102
RTVSPropertyOp16
 70
     1
102
RTVSPropertyOp17
 70
     1
102
RTVSPropertyOp18
 70
     1
102
RTVSPropertyOp19
 70
     1
102
RTVSPropertyOp20
 70
     1
102
RTVSPropertyOp21
 70
     1
102
RTVSPropertyOp22
 70
     1
102
RTVSPropertyOp23
 70
     1
102
RTVSPropertyOp24
 70
     1
102
RTVSPropertyOp25
 70
     1
102
RTVSPropertyOp26
 70
     1
102
RTVSPropertyOp27
 70
     1
102
RTVSPropertyOp28
 70
     1
102
RTVSPropertyOp29
 70
     1
102
RTVSPropertyOp30
 70
     1
102
RTVSPropertyOp31
 70
     1
102
RTVSPropertyOp32
 70
     1
  0
XRECORD
  5
279
102
{ACAD_REACTORS
330
278
102
}
330
278
100
AcDbXrecord
280
     1
102
RTVSPropertyOp0
 70
     1
102
RTVSPropertyOp1
 70
     1
102
RTVSPropertyOp2
 70
     1
102
RTVSPropertyOp3
 70
     1
102
RTVSPropertyOp4
 70
     1
102
RTVSPropertyOp5
 70
     1
102
RTVSPropertyOp6
 70
     1
102
RTVSPropertyOp7
 70
     1
102
RTVSPropertyOp8
 70
     1
102
RTVSPropertyOp9
 70
     1
102
RTVSPropertyOp10
 70
     1
102
RTVSPropertyOp11
 70
     1
102
RTVSPropertyOp12
 70
     1
102
RTVSPropertyOp13
 70
     1
102
RTVSPropertyOp14
 70
     1
102
RTVSPropertyOp15
 70
     1
102
RTVSPropertyOp16
 70
     1
102
RTVSPropertyOp17
 70
     1
102
RTVSPropertyOp18
 70
     1
102
RTVSPropertyOp19
 70
     1
102
RTVSPropertyOp20
 70
     1
102
RTVSPropertyOp21
 70
     1
102
RTVSPropertyOp22
 70
     1
102
RTVSPropertyOp23
 70
     1
102
RTVSPropertyOp24
 70
     1
102
RTVSPropertyOp25
 70
     1
102
RTVSPropertyOp26
 70
     1
102
RTVSPropertyOp27
 70
     1
102
RTVSPropertyOp28
 70
     1
102
RTVSPropertyOp29
 70
     1
102
RTVSPropertyOp30
 70
     1
102
RTVSPropertyOp31
 70
     1
102
RTVSPropertyOp32
 70
     1
  0
XRECORD
  5
26D
102
{ACAD_REACTORS
330
26C
102
}
330
26C
100
AcDbXrecord
280
     1
102
RTVSPropertyOp0
 70
     1
102
RTVSPropertyOp1
 70
     1
102
RTVSPropertyOp2
 70
     1
102
RTVSPropertyOp3
 70
     1
102
RTVSPropertyOp4
 70
     1
102
RTVSPropertyOp5
 70
     1
102
RTVSPropertyOp6
 70
     1
102
RTVSPropertyOp7
 70
     1
102
RTVSPropertyOp8
 70
     1
102
RTVSPropertyOp9
 70
     1
102
RTVSPropertyOp10
 70
     1
102
RTVSPropertyOp11
 70
     1
102
RTVSPropertyOp12
 70
     1
102
RTVSPropertyOp13
 70
     1
102
RTVSPropertyOp14
 70
     1
102
RTVSPropertyOp15
 70
     1
102
RTVSPropertyOp16
 70
     1
102
RTVSPropertyOp17
 70
     1
102
RTVSPropertyOp18
 70
     1
102
RTVSPropertyOp19
 70
     1
102
RTVSPropertyOp20
 70
     1
102
RTVSPropertyOp21
 70
     1
102
RTVSPropertyOp22
 70
     1
102
RTVSPropertyOp23
 70
     1
102
RTVSPropertyOp24
 70
     1
102
RTVSPropertyOp25
 70
     1
102
RTVSPropertyOp26
 70
     1
102
RTVSPropertyOp27
 70
     1
102
RTVSPropertyOp28
 70
     1
102
RTVSPropertyOp29
 70
     1
102
RTVSPropertyOp30
 70
     1
102
RTVSPropertyOp31
 70
     1
102
RTVSPropertyOp32
 70
     1
  0
XRECORD
  5
285
102
{ACAD_REACTORS
330
284
102
}
330
284
100
AcDbXrecord
280
     1
102
RTVSPropertyOp0
 70
     1
102
RTVSPropertyOp1
 70
     1
102
RTVSPropertyOp2
 70
     1
102
RTVSPropertyOp3
 70
     1
102
RTVSPropertyOp4
 70
     1
102
RTVSPropertyOp5
 70
     1
102
RTVSPropertyOp6
 70
     1
102
RTVSPropertyOp7
 70
     1
102
RTVSPropertyOp8
 70
     1
102
RTVSPropertyOp9
 70
     1
102
RTVSPropertyOp10
 70
     1
102
RTVSPropertyOp11
 70
     1
102
RTVSPropertyOp12
 70
     1
102
RTVSPropertyOp13
 70
     1
102
RTVSPropertyOp14
 70
     1
102
RTVSPropertyOp15
 70
     1
102
RTVSPropertyOp16
 70
     1
102
RTVSPropertyOp17
 70
     1
102
RTVSPropertyOp18
 70
     1
102
RTVSPropertyOp19
 70
     1
102
RTVSPropertyOp20
 70
     1
102
RTVSPropertyOp21
 70
     1
102
RTVSPropertyOp22
 70
     1
102
RTVSPropertyOp23
 70
     1
102
RTVSPropertyOp24
 70
     1
102
RTVSPropertyOp25
 70
     1
102
RTVSPropertyOp26
 70
     1
102
RTVSPropertyOp27
 70
     1
102
RTVSPropertyOp28
 70
     1
102
RTVSPropertyOp29
 70
     1
102
RTVSPropertyOp30
 70
     1
102
RTVSPropertyOp31
 70
     1
102
RTVSPropertyOp32
 70
     1
  0
ENDSEC
  0
EOF
