  0
SECTION
  2
HEADER
  9
$ACADVER
  1
AC1015
  9
$ACADMAINTVER
 70
    18
  9
$DWGCODEPAGE
  3
ANSI_1252
  9
$INSBASE
 10
0.0
 20
0.0
 30
0.0
  9
$EXTMIN
 10
0.0
 20
0.0
 30
0.0
  9
$EXTMAX
 10
420.0
 20
297.0
 30
0.0
  9
$LIMMIN
 10
0.0
 20
0.0
  9
$LIMMAX
 10
420.0
 20
297.0
  9
$ORTHOMODE
 70
     0
  9
$REGENMODE
 70
     1
  9
$FILLMODE
 70
     1
  9
$QTEXTMODE
 70
     0
  9
$MIRRTEXT
 70
     0
  9
$LTSCALE
 40
1.0
  9
$ATTMODE
 70
     1
  9
$TEXTSIZE
 40
0.2
  9
$TRACEWID
 40
0.05
  9
$TEXTSTYLE
  7
Standard
  9
$CLAYER
  8
0
  9
$CELTYPE
  6
ByLayer
  9
$CECOLOR
 62
   256
  9
$CELTSCALE
 40
1.0
  9
$DISPSILH
 70
     0
  9
$DIMSCALE
 40
1.0
  9
$DIMASZ
 40
1.799999999999999
  9
$DIMEXO
 40
0.0625
  9
$DIMDLI
 40
0.38
  9
$DIMRND
 40
0.0
  9
$DIMDLE
 40
0.0
  9
$DIMEXE
 40
0.18
  9
$DIMTP
 40
0.0
  9
$DIMTM
 40
0.0
  9
$DIMTXT
 40
0.25
  9
$DIMCEN
 40
0.09
  9
$DIMTSZ
 40
0.0
  9
$DIMTOL
 70
     0
  9
$DIMLIM
 70
     0
  9
$DIMTIH
 70
     1
  9
$DIMTOH
 70
     1
  9
$DIMSE1
 70
     0
  9
$DIMSE2
 70
     0
  9
$DIMTAD
 70
     0
  9
$DIMZIN
 70
     0
  9
$DIMBLK
  1

  9
$DIMASO
 70
     1
  9
$DIMSHO
 70
     1
  9
$DIMPOST
  1

  9
$DIMAPOST
  1

  9
$DIMALT
 70
     0
  9
$DIMALTD
 70
     2
  9
$DIMALTF
 40
25.4
  9
$DIMLFAC
 40
1.0
  9
$DIMTOFL
 70
     0
  9
$DIMTVP
 40
0.0
  9
$DIMTIX
 70
     0
  9
$DIMSOXD
 70
     0
  9
$DIMSAH
 70
     0
  9
$DIMBLK1
  1

  9
$DIMBLK2
  1

  9
$DIMSTYLE
  2
Standard
  9
$DIMCLRD
 70
     0
  9
$DIMCLRE
 70
     0
  9
$DIMCLRT
 70
     0
  9
$DIMTFAC
 40
1.0
  9
$DIMGAP
 40
0.09
  9
$DIMJUST
 70
     0
  9
$DIMSD1
 70
     0
  9
$DIMSD2
 70
     0
  9
$DIMTOLJ
 70
     1
  9
$DIMTZIN
 70
     0
  9
$DIMALTZ
 70
     0
  9
$DIMALTTZ
 70
     0
  9
$DIMUPT
 70
     0
  9
$DIMDEC
 70
     4
  9
$DIMTDEC
 70
     4
  9
$DIMALTU
 70
     2
  9
$DIMALTTD
 70
     2
  9
$DIMTXSTY
  7
Standard
  9
$DIMAUNIT
 70
     0
  9
$DIMADEC
 70
     0
  9
$DIMALTRND
 40
0.0
  9
$DIMAZIN
 70
     0
  9
$DIMDSEP
 70
    46
  9
$DIMATFIT
 70
     3
  9
$DIMFRAC
 70
     0
  9
$DIMLDRBLK
  1

  9
$DIMLUNIT
 70
     2
  9
$DIMLWD
 70
    -2
  9
$DIMLWE
 70
    -2
  9
$DIMTMOVE
 70
     0
  9
$LUNITS
 70
     2
  9
$LUPREC
 70
     4
  9
$SKETCHINC
 40
0.1
  9
$FILLETRAD
 40
0.0
  9
$AUNITS
 70
     0
  9
$AUPREC
 70
     0
  9
$MENU
  1
.
  9
$ELEVATION
 40
0.0
  9
$PELEVATION
 40
0.0
  9
$THICKNESS
 40
0.0
  9
$LIMCHECK
 70
     0
  9
$CHAMFERA
 40
0.0
  9
$CHAMFERB
 40
0.0
  9
$CHAMFERC
 40
0.0
  9
$CHAMFERD
 40
0.0
  9
$SKPOLY
 70
     0
  9
$TDCREATE
 40
2455805.586842570
  9
$TDUCREATE
 40
2455805.503509236
  9
$TDUPDATE
 40
2455805.586842570
  9
$TDUUPDATE
 40
2455805.503509236
  9
$TDINDWG
 40
0.0000328935
  9
$TDUSRTIMER
 40
0.0000328935
  9
$USRTIMER
 70
     1
  9
$ANGBASE
 50
0.0
  9
$ANGDIR
 70
     0
  9
$PDMODE
 70
     0
  9
$PDSIZE
 40
0.0
  9
$PLINEWID
 40
0.0
  9
$SPLFRAME
 70
     0
  9
$SPLINETYPE
 70
     6
  9
$SPLINESEGS
 70
     8
  9
$HANDSEED
  5
418
  9
$SURFTAB1
 70
     6
  9
$SURFTAB2
 70
     6
  9
$SURFTYPE
 70
     6
  9
$SURFU
 70
     6
  9
$SURFV
 70
     6
  9
$UCSBASE
  2

  9
$UCSNAME
  2

  9
$UCSORG
 10
0.0
 20
0.0
 30
0.0
  9
$UCSXDIR
 10
1.0
 20
0.0
 30
0.0
  9
$UCSYDIR
 10
0.0
 20
1.0
 30
0.0
  9
$UCSORTHOREF
  2

  9
$UCSORTHOVIEW
 70
     0
  9
$UCSORGTOP
 10
0.0
 20
0.0
 30
0.0
  9
$UCSORGBOTTOM
 10
0.0
 20
0.0
 30
0.0
  9
$UCSORGLEFT
 10
0.0
 20
0.0
 30
0.0
  9
$UCSORGRIGHT
 10
0.0
 20
0.0
 30
0.0
  9
$UCSORGFRONT
 10
0.0
 20
0.0
 30
0.0
  9
$UCSORGBACK
 10
0.0
 20
0.0
 30
0.0
  9
$PUCSBASE
  2

  9
$PUCSNAME
  2

  9
$PUCSORG
 10
0.0
 20
0.0
 30
0.0
  9
$PUCSXDIR
 10
1.0
 20
0.0
 30
0.0
  9
$PUCSYDIR
 10
0.0
 20
1.0
 30
0.0
  9
$PUCSORTHOREF
  2

  9
$PUCSORTHOVIEW
 70
     0
  9
$PUCSORGTOP
 10
0.0
 20
0.0
 30
0.0
  9
$PUCSORGBOTTOM
 10
0.0
 20
0.0
 30
0.0
  9
$PUCSORGLEFT
 10
0.0
 20
0.0
 30
0.0
  9
$PUCSORGRIGHT
 10
0.0
 20
0.0
 30
0.0
  9
$PUCSORGFRONT
 10
0.0
 20
0.0
 30
0.0
  9
$PUCSORGBACK
 10
0.0
 20
0.0
 30
0.0
  9
$USERI1
 70
     0
  9
$USERI2
 70
     0
  9
$USERI3
 70
     0
  9
$USERI4
 70
     0
  9
$USERI5
 70
     0
  9
$USERR1
 40
0.0
  9
$USERR2
 40
0.0
  9
$USERR3
 40
0.0
  9
$USERR4
 40
0.0
  9
$USERR5
 40
0.0
  9
$WORLDVIEW
 70
     1
  9
$SHADEDGE
 70
     3
  9
$SHADEDIF
 70
    70
  9
$TILEMODE
 70
     1
  9
$MAXACTVP
 70
    64
  9
$PINSBASE
 10
0.0
 20
0.0
 30
0.0
  9
$PLIMCHECK
 70
     0
  9
$PEXTMIN
 10
0.0
 20
0.0
 30
0.0
  9
$PEXTMAX
 10
420.0
 20
297.0
 30
0.0
  9
$PLIMMIN
 10
0.0
 20
0.0
  9
$PLIMMAX
 10
420.0
 20
297.0
  9
$UNITMODE
 70
     0
  9
$VISRETAIN
 70
     1
  9
$PLINEGEN
 70
     0
  9
$PSLTSCALE
 70
     1
  9
$TREEDEPTH
 70
  3020
  9
$CMLSTYLE
  2
Standard
  9
$CMLJUST
 70
     0
  9
$CMLSCALE
 40
1.0
  9
$PROXYGRAPHICS
 70
     1
  9
$MEASUREMENT
 70
     1
  9
$CELWEIGHT
370
    -1
  9
$ENDCAPS
280
     0
  9
$JOINSTYLE
280
     0
  9
$LWDISPLAY
290
     0
  9
$INSUNITS
 70
     4
  9
$HYPERLINKBASE
  1

  9
$STYLESHEET
  1

  9
$XEDIT
290
     1
  9
$CEPSNTYPE
380
     0
  9
$PSTYLEMODE
290
     1
  9
$FINGERPRINTGUID
  2
{30DB77BF-B262-45FA-8969-4D4F55F7F109}
  9
$VERSIONGUID
  2
{9D432A2C-FB32-48D0-B767-8B4B5151D70D}
  9
$EXTNAMES
290
     1
  9
$PSVPSCALE
 40
0.0
  9
$OLESTARTUP
290
     0
  0
ENDSEC
  0
SECTION
  2
CLASSES
  0
CLASS
  1
ACDBDICTIONARYWDFLT
  2
AcDbDictionaryWithDefault
  3
ObjectDBX Classes
 90
        0
280
     0
281
     0
  0
CLASS
  1
MATERIAL
  2
AcDbMaterial
  3
ObjectDBX Classes
 90
     1153
280
     0
281
     0
  0
CLASS
  1
VISUALSTYLE
  2
AcDbVisualStyle
  3
ObjectDBX Classes
 90
     4095
280
     0
281
     0
  0
CLASS
  1
SCALE
  2
AcDbScale
  3
ObjectDBX Classes
 90
     1153
280
     0
281
     0
  0
CLASS
  1
TABLESTYLE
  2
AcDbTableStyle
  3
ObjectDBX Classes
 90
     4095
280
     0
281
     0
  0
CLASS
  1
MLEADERSTYLE
  2
AcDbMLeaderStyle
  3
ACDB_MLEADERSTYLE_CLASS
 90
     4095
280
     0
281
     0
  0
CLASS
  1
DICTIONARYVAR
  2
AcDbDictionaryVar
  3
ObjectDBX Classes
 90
        0
280
     0
281
     0
  0
CLASS
  1
CELLSTYLEMAP
  2
AcDbCellStyleMap
  3
ObjectDBX Classes
 90
     1152
280
     0
281
     0
  0
CLASS
  1
ACDBPLACEHOLDER
  2
AcDbPlaceHolder
  3
ObjectDBX Classes
 90
        0
280
     0
281
     0
  0
CLASS
  1
LAYOUT
  2
AcDbLayout
  3
ObjectDBX Classes
 90
        0
280
     0
281
     0
  0
ENDSEC
  0
SECTION
  2
TABLES
  0
TABLE
  2
VPORT
  5
8
330
0
100
AcDbSymbolTable
 70
     1
  0
VPORT
  5
57
330
8
100
AcDbSymbolTableRecord
100
AcDbViewportTableRecord
  2
*Active
 70
     0
 10
0.0
 20
0.0
 11
1.0
 21
1.0
 12
210.0
 22
148.5
 13
0.0
 23
0.0
 14
1.0
 24
1.0
 15
0.0
 25
0.0
 16
0.0
 26
0.0
 36
1.0
 17
0.0
 27
0.0
 37
0.0
 40
297.0
 41
1.414141414141414
 42
50.0
 43
0.0
 44
0.0
 50
0.0
 51
0.0
 71
     0
 72
   100
 73
     1
 74
     1
 75
     0
 76
     0
 77
     0
 78
     0
281
     0
 65
     1
110
0.0
120
0.0
130
0.0
111
1.0
121
0.0
131
0.0
112
0.0
122
1.0
132
0.0
 79
     0
146
0.0
  0
ENDTAB
  0
TABLE
  2
LTYPE
  5
5
330
0
100
AcDbSymbolTable
 70
     1
  0
LTYPE
  5
5B
330
5
100
AcDbSymbolTableRecord
100
AcDbLinetypeTableRecord
  2
ByBlock
 70
     0
  3

 72
    65
 73
     0
 40
0.0
  0
LTYPE
  5
5C
330
5
100
AcDbSymbolTableRecord
100
AcDbLinetypeTableRecord
  2
ByLayer
 70
     0
  3

 72
    65
 73
     0
 40
0.0
  0
LTYPE
  5
5D
330
5
100
AcDbSymbolTableRecord
100
AcDbLinetypeTableRecord
  2
Continuous
 70
     0
  3
Solid line
 72
    65
 73
     0
 40
0.0
  0
ENDTAB
  0
TABLE
  2
LAYER
  5
2
330
0
100
AcDbSymbolTable
 70
    33
  0
LAYER
  5
54
330
2
100
AcDbSymbolTableRecord
100
AcDbLayerTableRecord
  2
0
 70
     0
 62
     7
  6
Continuous
370
    -3
390
F
  0
LAYER
  5
88
330
2
100
AcDbSymbolTableRecord
100
AcDbLayerTableRecord
  2
Sichtbare Kanten(DIN)
 70
     0
 62
     7
  6
Continuous
370
    50
390
F
  0
ENDTAB
  0
TABLE
  2
STYLE
  5
3
330
0
100
AcDbSymbolTable
 70
     9
  0
STYLE
  5
55
330
3
100
AcDbSymbolTableRecord
100
AcDbTextStyleTableRecord
  2
Standard
 70
     0
 40
0.0
 41
1.0
 50
0.0
 71
     0
 42
0.2
  3
arial.ttf
  4

1001
ACAD
1000
Arial
1071
      256
  0
STYLE
  5
5A
330
3
100
AcDbSymbolTableRecord
100
AcDbTextStyleTableRecord
  2
Annotative
 70
     0
 40
0.0
 41
1.0
 50
0.0
 71
     0
 42
0.2
  3
txt
  4

1001
AcadAnnotative
1000
AnnotativeData
1002
{
1070
     1
1070
     1
1002
}
  0
STYLE
  5
94
330
3
100
AcDbSymbolTableRecord
100
AcDbTextStyleTableRecord
  2
Aktuell-BSI
 70
     0
 40
0.0
 41
1.0
 50
0.0
 71
     0
 42
0.2
  3
arial.ttf
  4

1001
ACAD
1000
Arial
1071
      256
  0
STYLE
  5
95
330
3
100
AcDbSymbolTableRecord
100
AcDbTextStyleTableRecord
  2
Aktuell-DIN
 70
     0
 40
0.0
 41
0.899999976158142
 50
0.0
 71
     0
 42
0.2
  3
arial.ttf
  4

1001
ACAD
1000
Arial
1071
      256
  0
STYLE
  5
96
330
3
100
AcDbSymbolTableRecord
100
AcDbTextStyleTableRecord
  2
STANDARD-DIN
 70
     0
 40
0.0
 41
1.0
 50
0.0
 71
     0
 42
0.2
  3
arial.ttf
  4

1001
ACAD
1000
Arial
1071
      256
  0
STYLE
  5
97
330
3
100
AcDbSymbolTableRecord
100
AcDbTextStyleTableRecord
  2
STANDARD-DINNach Layer
 70
     0
 40
0.0
 41
1.0
 50
0.0
 71
     0
 42
0.2
  3
arial.ttf
  4

1001
ACAD
1000
Arial
1071
      256
  0
STYLE
  5
98
330
3
100
AcDbSymbolTableRecord
100
AcDbTextStyleTableRecord
  2
STANDARDGroßer Text
 70
     0
 40
0.0
 41
1.0
 50
0.0
 71
     0
 42
0.2
  3
arial.ttf
  4

1001
ACAD
1000
Arial
1071
      256
  0
STYLE
  5
99
330
3
100
AcDbSymbolTableRecord
100
AcDbTextStyleTableRecord
  2
STANDARDNach Layer
 70
     0
 40
0.0
 41
1.0
 50
0.0
 71
     0
 42
0.2
  3
arial.ttf
  4

1001
ACAD
1000
Arial
1071
      256
  0
STYLE
  5
9A
330
3
100
AcDbSymbolTableRecord
100
AcDbTextStyleTableRecord
  2
StüLiDaten
 70
     0
 40
0.0
 41
1.0
 50
0.0
 71
     0
 42
0.2
  3
arial.ttf
  4

1001
ACAD
1000
Arial
1071
      256
  0
ENDTAB
  0
TABLE
  2
VIEW
  5
6
330
0
100
AcDbSymbolTable
 70
     0
  0
ENDTAB
  0
TABLE
  2
UCS
  5
7
330
0
100
AcDbSymbolTable
 70
     0
  0
ENDTAB
  0
TABLE
  2
APPID
  5
9
330
0
100
AcDbSymbolTable
 70
     3
  0
APPID
  5
56
330
9
100
AcDbSymbolTableRecord
100
AcDbRegAppTableRecord
  2
ACAD
 70
     0
  0
APPID
  5
5E
330
9
100
AcDbSymbolTableRecord
100
AcDbRegAppTableRecord
  2
AcadAnnotative
 70
     0
  0
APPID
  5
411
330
9
100
AcDbSymbolTableRecord
100
AcDbRegAppTableRecord
  2
ACAD_MLEADERVER
 70
     0
  0
ENDTAB
  0
TABLE
  2
DIMSTYLE
  5
A
330
0
100
AcDbSymbolTable
 70
    10
100
AcDbDimStyleTable
 71
     0
  0
DIMSTYLE
105
58
330
A
100
AcDbSymbolTableRecord
100
AcDbDimStyleTableRecord
  2
Standard
 70
     0
340
55
  0
DIMSTYLE
105
59
330
A
100
AcDbSymbolTableRecord
100
AcDbDimStyleTableRecord
  2
Annotative
 70
     0
340
55
1001
AcadAnnotative
1000
AnnotativeData
1002
{
1070
     1
1070
     1
1002
}
  0
DIMSTYLE
105
9B
330
A
100
AcDbSymbolTableRecord
100
AcDbDimStyleTableRecord
  2
DIN - Andere
 70
     0
 41
2.5
 42
0.0
 43
5.999999999999999
 44
3.174999999999999
 45
0.00000001
 46
10.0
 73
     0
 74
     0
 77
     1
 78
     8
 79
     2
140
3.5
143
0.03937
147
0.8
171
     3
172
     1
176
     7
177
     7
178
     7
271
     2
272
     2
274
     3
278
    44
284
     8
286
     8
340
94
371
    25
372
    25
  0
DIMSTYLE
105
9C
330
A
100
AcDbSymbolTableRecord
100
AcDbDimStyleTableRecord
  2
DIN - Andere$7
 70
     0
 41
2.5
 42
0.0
 43
5.999999999999999
 44
3.174999999999999
 45
0.00000001
 46
10.0
 73
     0
 74
     0
 77
     1
 78
     8
 79
     2
140
3.5
143
0.03937
147
0.8
171
     3
172
     1
176
     7
177
     7
178
     7
271
     2
272
     2
274
     3
278
    44
284
     8
286
     8
340
94
371
    25
372
    25
  0
DIMSTYLE
105
9D
330
A
100
AcDbSymbolTableRecord
100
AcDbDimStyleTableRecord
  2
DIN - AndereGroßer Text
 70
     0
 41
5.0
 42
0.0
 43
5.999999999999999
 44
3.174999999999999
 45
0.00000001
 46
10.0
 73
     0
 74
     0
 77
     1
 78
     8
 79
     2
140
3.75
143
0.03937
146
0.9333333373069763
147
0.8
171
     3
172
     1
176
     7
177
     7
178
     7
271
     2
272
     2
274
     3
278
    44
284
     8
286
     8
340
98
371
    25
372
    25
  0
DIMSTYLE
105
9E
330
A
100
AcDbSymbolTableRecord
100
AcDbDimStyleTableRecord
  2
DIN - AndereGroßer Text$7
 70
     0
 41
5.0
 42
0.0
 43
5.999999999999999
 44
3.174999999999999
 45
0.00000001
 46
10.0
 73
     0
 74
     0
 77
     1
 78
     8
 79
     2
140
3.75
143
0.03937
146
0.9333333373069763
147
0.8
171
     3
172
     1
176
     7
177
     7
178
     7
271
     2
272
     2
274
     3
278
    44
284
     8
286
     8
340
98
371
    25
372
    25
  0
DIMSTYLE
105
9F
330
A
100
AcDbSymbolTableRecord
100
AcDbDimStyleTableRecord
  2
Führungslinie-Ursprungsindikator(DIN)
 70
     0
 41
2.5
340
55
342
A0
  0
DIMSTYLE
105
B1
330
A
100
AcDbSymbolTableRecord
100
AcDbDimStyleTableRecord
  2
Führungslinie - Bezugsstelle(DIN)
 70
     0
 41
2.5
340
55
342
A0
  0
DIMSTYLE
105
B2
330
A
100
AcDbSymbolTableRecord
100
AcDbDimStyleTableRecord
  2
Führungslinie - Punkt(DIN)
 70
     0
 41
2.5
340
55
342
A0
  0
DIMSTYLE
105
B3
330
A
100
AcDbSymbolTableRecord
100
AcDbDimStyleTableRecord
  2
Führungslinie(DIN)
 70
     0
 41
2.5
340
55
342
A0
  0
ENDTAB
  0
TABLE
  2
BLOCK_RECORD
  5
1
330
0
100
AcDbSymbolTable
 70
     3
  0
BLOCK_RECORD
  5
6C
330
1
100
AcDbSymbolTableRecord
100
AcDbBlockTableRecord
  2
*Model_Space
340
6F
  0
BLOCK_RECORD
  5
68
330
1
100
AcDbSymbolTableRecord
100
AcDbBlockTableRecord
  2
*Paper_Space
340
6B
  0
BLOCK_RECORD
  5
70
330
1
100
AcDbSymbolTableRecord
100
AcDbBlockTableRecord
  2
*Paper_Space0
340
73
  0
BLOCK_RECORD
  5
A0
330
1
100
AcDbSymbolTableRecord
100
AcDbBlockTableRecord
  2
_Closed
340
0
  0
BLOCK_RECORD
  5
A7
330
1
100
AcDbSymbolTableRecord
100
AcDbBlockTableRecord
  2
DatumFilled45
340
0
  0
ENDTAB
  0
ENDSEC
  0
SECTION
  2
BLOCKS
  0
BLOCK
  5
6D
330
6C
100
AcDbEntity
  8
0
100
AcDbBlockBegin
  2
*Model_Space
 70
     0
 10
0.0
 20
0.0
 30
0.0
  3
*Model_Space
  1

  0
ENDBLK
  5
6E
330
6C
100
AcDbEntity
  8
0
100
AcDbBlockEnd
  0
BLOCK
  5
69
330
68
100
AcDbEntity
 67
     1
  8
0
100
AcDbBlockBegin
  2
*Paper_Space
 70
     0
 10
0.0
 20
0.0
 30
0.0
  3
*Paper_Space
  1

  0
ENDBLK
  5
6A
330
68
100
AcDbEntity
 67
     1
  8
0
100
AcDbBlockEnd
  0
BLOCK
  5
71
330
70
100
AcDbEntity
 67
     1
  8
0
100
AcDbBlockBegin
  2
*Paper_Space0
 70
     0
 10
0.0
 20
0.0
 30
0.0
  3
*Paper_Space0
  1

  0
ENDBLK
  5
72
330
70
100
AcDbEntity
 67
     1
  8
0
100
AcDbBlockEnd
  0
BLOCK
  5
A5
330
A0
100
AcDbEntity
  8
0
100
AcDbBlockBegin
  2
_Closed
 70
     0
 10
0.0
 20
0.0
 30
0.0
  3
_Closed
  1

  0
LINE
  5
A1
330
A0
100
AcDbEntity
  8
0
  6
ByBlock
 62
     0
370
    -2
100
AcDbLine
 10
-1.0
 20
0.1666666666666666
 30
0.0
 11
0.0
 21
0.0
 31
0.0
  0
LINE
  5
A2
330
A0
100
AcDbEntity
  8
0
  6
ByBlock
 62
     0
370
    -2
100
AcDbLine
 10
0.0
 20
0.0
 30
0.0
 11
-1.0
 21
-0.1666666666666666
 31
0.0
  0
LINE
  5
A3
330
A0
100
AcDbEntity
  8
0
  6
ByBlock
 62
     0
370
    -2
100
AcDbLine
 10
-1.0
 20
0.1666666666666666
 30
0.0
 11
-1.0
 21
-0.1666666666666666
 31
0.0
  0
LINE
  5
A4
330
A0
100
AcDbEntity
  8
0
  6
ByBlock
 62
     0
370
    -2
100
AcDbLine
 10
0.0
 20
0.0
 30
0.0
 11
-1.0
 21
0.0
 31
0.0
  0
ENDBLK
  5
A6
330
A0
100
AcDbEntity
  8
0
100
AcDbBlockEnd
  0
BLOCK
  5
A8
330
A7
100
AcDbEntity
  8
0
100
AcDbBlockBegin
  2
DatumFilled45
 70
     0
 10
0.0
 20
0.0
 30
0.0
  3
DatumFilled45
  1

  0
POLYLINE
  5
AA
330
A7
100
AcDbEntity
  8
0
 62
     0
100
AcDb2dPolyline
 66
     1
 10
0.0
 20
0.0
 30
0.0
 70
   128
  0
VERTEX
  5
AB
330
AA
100
AcDbEntity
  8
0
 62
     0
100
AcDbVertex
100
AcDb2dVertex
 10
0.0
 20
1.0
 30
0.0
  0
VERTEX
  5
AC
330
AA
100
AcDbEntity
  8
0
 62
     0
100
AcDbVertex
100
AcDb2dVertex
 10
0.0
 20
-1.0
 30
0.0
  0
VERTEX
  5
AE
330
AA
100
AcDbEntity
  8
0
 62
     0
100
AcDbVertex
100
AcDb2dVertex
 10
-1.0
 20
0.0
 30
0.0
  0
VERTEX
  5
AF
330
AA
100
AcDbEntity
  8
0
 62
     0
100
AcDbVertex
100
AcDb2dVertex
 10
0.0
 20
1.0
 30
0.0
  0
SEQEND
  5
AD
330
AA
100
AcDbEntity
  8
0
 62
     0
  0
SOLID
  5
B0
330
A7
100
AcDbEntity
  8
0
 62
     0
100
AcDbTrace
 10
0.0
 20
1.0
 30
0.0
 11
0.0
 21
-1.0
 31
0.0
 12
-1.0
 22
0.0
 32
0.0
 13
0.0
 23
1.0
 33
0.0
  0
ENDBLK
  5
A9
330
A7
100
AcDbEntity
  8
0
100
AcDbBlockEnd
  0
ENDSEC
  0
SECTION
  2
ENTITIES
  0
LINE
  5
B4
330
6C
100
AcDbEntity
  8
Sichtbare Kanten(DIN)
100
AcDbLine
 10
-243.8619836831996
 20
759.9646384089986
 30
0.0
 11
-243.8619836831996
 21
759.990917850627
 31
0.0
  0
LINE
  5
B5
330
6C
100
AcDbEntity
  8
Sichtbare Kanten(DIN)
100
AcDbLine
 10
-243.8619836831996
 20
774.93835896737
 30
0.0
 11
-243.8619836831996
 21
774.9646384089986
 31
0.0
  0
ARC
  5
B6
330
6C
100
AcDbEntity
  8
Sichtbare Kanten(DIN)
100
AcDbCircle
 10
-238.3619836831996
 20
774.9646384089985
 30
0.0
 40
5.499999999999999
100
AcDbArc
 50
0.0
 51
180.0
  0
LINE
  5
B7
330
6C
100
AcDbEntity
  8
Sichtbare Kanten(DIN)
100
AcDbLine
 10
-232.8619836831996
 20
774.9646384089986
 30
0.0
 11
-232.8619836831996
 21
774.93835896737
 31
0.0
  0
LINE
  5
B8
330
6C
100
AcDbEntity
  8
Sichtbare Kanten(DIN)
100
AcDbLine
 10
-232.8619836831996
 20
759.9909178506202
 30
0.0
 11
-232.8619836831996
 21
759.9646384089986
 31
0.0
  0
ARC
  5
B9
330
6C
100
AcDbEntity
  8
Sichtbare Kanten(DIN)
100
AcDbCircle
 10
-238.3619836831996
 20
759.9646384089988
 30
0.0
 40
5.500000000000002
100
AcDbArc
 50
180.0
 51
0.0
  0
LINE
  5
BA
330
6C
100
AcDbEntity
  8
Sichtbare Kanten(DIN)
100
AcDbLine
 10
-243.8619836831996
 20
805.9646384089987
 30
0.0
 11
-243.8619836831996
 21
805.990917850627
 31
0.0
  0
LINE
  5
BB
330
6C
100
AcDbEntity
  8
Sichtbare Kanten(DIN)
100
AcDbLine
 10
-243.8619836831996
 20
820.93835896737
 30
0.0
 11
-243.8619836831996
 21
820.9646384089987
 31
0.0
  0
ARC
  5
BC
330
6C
100
AcDbEntity
  8
Sichtbare Kanten(DIN)
100
AcDbCircle
 10
-238.3619836831996
 20
820.9646384089987
 30
0.0
 40
5.5
100
AcDbArc
 50
0.0
 51
180.0
  0
LINE
  5
BD
330
6C
100
AcDbEntity
  8
Sichtbare Kanten(DIN)
100
AcDbLine
 10
-232.8619836831996
 20
820.9646384089987
 30
0.0
 11
-232.8619836831996
 21
820.93835896737
 31
0.0
  0
LINE
  5
BE
330
6C
100
AcDbEntity
  8
Sichtbare Kanten(DIN)
100
AcDbLine
 10
-232.8619836831996
 20
805.9909178506202
 30
0.0
 11
-232.8619836831996
 21
805.9646384089987
 31
0.0
  0
ARC
  5
BF
330
6C
100
AcDbEntity
  8
Sichtbare Kanten(DIN)
100
AcDbCircle
 10
-238.3619836831996
 20
805.9646384089987
 30
0.0
 40
5.5
100
AcDbArc
 50
180.0
 51
0.0
  0
LINE
  5
C0
330
6C
100
AcDbEntity
  8
Sichtbare Kanten(DIN)
100
AcDbLine
 10
-243.8619836831996
 20
619.9646384089986
 30
0.0
 11
-243.8619836831996
 21
634.9646384089986
 31
0.0
  0
ARC
  5
C1
330
6C
100
AcDbEntity
  8
Sichtbare Kanten(DIN)
100
AcDbCircle
 10
-238.3619836831996
 20
634.9646384089985
 30
0.0
 40
5.499999999999999
100
AcDbArc
 50
0.0
 51
180.0
  0
LINE
  5
C2
330
6C
100
AcDbEntity
  8
Sichtbare Kanten(DIN)
100
AcDbLine
 10
-232.8619836831996
 20
634.9646384089986
 30
0.0
 11
-232.8619836831996
 21
619.9646384089986
 31
0.0
  0
ARC
  5
C3
330
6C
100
AcDbEntity
  8
Sichtbare Kanten(DIN)
100
AcDbCircle
 10
-238.3619836831996
 20
619.9646384089987
 30
0.0
 40
5.500000000000002
100
AcDbArc
 50
180.0
 51
0.0
  0
LINE
  5
C4
330
6C
100
AcDbEntity
  8
Sichtbare Kanten(DIN)
100
AcDbLine
 10
-243.8619836831996
 20
665.9646384089987
 30
0.0
 11
-243.8619836831996
 21
680.9646384089988
 31
0.0
  0
ARC
  5
C5
330
6C
100
AcDbEntity
  8
Sichtbare Kanten(DIN)
100
AcDbCircle
 10
-238.3619836831996
 20
680.9646384089988
 30
0.0
 40
5.5
100
AcDbArc
 50
0.0
 51
180.0
  0
LINE
  5
C6
330
6C
100
AcDbEntity
  8
Sichtbare Kanten(DIN)
100
AcDbLine
 10
-232.8619836831996
 20
680.9646384089988
 30
0.0
 11
-232.8619836831996
 21
665.9646384089987
 31
0.0
  0
ARC
  5
C7
330
6C
100
AcDbEntity
  8
Sichtbare Kanten(DIN)
100
AcDbCircle
 10
-238.3619836831996
 20
665.9646384089987
 30
0.0
 40
5.5
100
AcDbArc
 50
180.0
 51
0.0
  0
LINE
  5
C8
330
6C
100
AcDbEntity
  8
Sichtbare Kanten(DIN)
100
AcDbLine
 10
-243.8619836831996
 20
479.9646384089986
 30
0.0
 11
-243.8619836831996
 21
494.9646384089986
 31
0.0
  0
ARC
  5
C9
330
6C
100
AcDbEntity
  8
Sichtbare Kanten(DIN)
100
AcDbCircle
 10
-238.3619836831996
 20
494.9646384089985
 30
0.0
 40
5.499999999999999
100
AcDbArc
 50
0.0
 51
180.0
  0
LINE
  5
CA
330
6C
100
AcDbEntity
  8
Sichtbare Kanten(DIN)
100
AcDbLine
 10
-232.8619836831996
 20
494.9646384089986
 30
0.0
 11
-232.8619836831996
 21
479.9646384089986
 31
0.0
  0
ARC
  5
CB
330
6C
100
AcDbEntity
  8
Sichtbare Kanten(DIN)
100
AcDbCircle
 10
-238.3619836831996
 20
479.9646384089988
 30
0.0
 40
5.500000000000002
100
AcDbArc
 50
180.0
 51
0.0
  0
LINE
  5
CC
330
6C
100
AcDbEntity
  8
Sichtbare Kanten(DIN)
100
AcDbLine
 10
-243.8619836831996
 20
525.9646384089988
 30
0.0
 11
-243.8619836831996
 21
540.9646384089987
 31
0.0
  0
ARC
  5
CD
330
6C
100
AcDbEntity
  8
Sichtbare Kanten(DIN)
100
AcDbCircle
 10
-238.3619836831996
 20
540.9646384089987
 30
0.0
 40
5.5
100
AcDbArc
 50
0.0
 51
180.0
  0
LINE
  5
CE
330
6C
100
AcDbEntity
  8
Sichtbare Kanten(DIN)
100
AcDbLine
 10
-232.8619836831996
 20
540.9646384089987
 30
0.0
 11
-232.8619836831996
 21
525.9646384089988
 31
0.0
  0
ARC
  5
CF
330
6C
100
AcDbEntity
  8
Sichtbare Kanten(DIN)
100
AcDbCircle
 10
-238.3619836831996
 20
525.9646384089988
 30
0.0
 40
5.5
100
AcDbArc
 50
180.0
 51
0.0
  0
LINE
  5
D0
330
6C
100
AcDbEntity
  8
Sichtbare Kanten(DIN)
100
AcDbLine
 10
-243.8619836831996
 20
339.9646384089987
 30
0.0
 11
-243.8619836831996
 21
344.9909178506276
 31
0.0
  0
LINE
  5
D1
330
6C
100
AcDbEntity
  8
Sichtbare Kanten(DIN)
100
AcDbLine
 10
-232.8619836831996
 20
344.9909178506276
 30
0.0
 11
-232.8619836831996
 21
339.9646384089987
 31
0.0
  0
ARC
  5
D2
330
6C
100
AcDbEntity
  8
Sichtbare Kanten(DIN)
100
AcDbCircle
 10
-238.3619836831996
 20
339.9646384089988
 30
0.0
 40
5.500000000000002
100
AcDbArc
 50
180.0
 51
0.0
  0
LINE
  5
D3
330
6C
100
AcDbEntity
  8
Sichtbare Kanten(DIN)
100
AcDbLine
 10
-243.8619836831996
 20
385.9646384089987
 30
0.0
 11
-243.8619836831996
 21
390.9909178506275
 31
0.0
  0
LINE
  5
D4
330
6C
100
AcDbEntity
  8
Sichtbare Kanten(DIN)
100
AcDbLine
 10
-232.8619836831996
 20
390.9909178506275
 30
0.0
 11
-232.8619836831996
 21
385.9646384089987
 31
0.0
  0
ARC
  5
D5
330
6C
100
AcDbEntity
  8
Sichtbare Kanten(DIN)
100
AcDbCircle
 10
-238.3619836831996
 20
385.9646384089987
 30
0.0
 40
5.5
100
AcDbArc
 50
180.0
 51
0.0
  0
LINE
  5
D6
330
6C
100
AcDbEntity
  8
Sichtbare Kanten(DIN)
100
AcDbLine
 10
-243.8619836831996
 20
199.9646384089986
 30
0.0
 11
-243.8619836831996
 21
214.9646384089987
 31
0.0
  0
ARC
  5
D7
330
6C
100
AcDbEntity
  8
Sichtbare Kanten(DIN)
100
AcDbCircle
 10
-238.3619836831996
 20
214.9646384089985
 30
0.0
 40
5.499999999999999
100
AcDbArc
 50
0.0
 51
180.0
  0
LINE
  5
D8
330
6C
100
AcDbEntity
  8
Sichtbare Kanten(DIN)
100
AcDbLine
 10
-232.8619836831996
 20
214.9646384089987
 30
0.0
 11
-232.8619836831996
 21
199.9646384089986
 31
0.0
  0
ARC
  5
D9
330
6C
100
AcDbEntity
  8
Sichtbare Kanten(DIN)
100
AcDbCircle
 10
-238.3619836831996
 20
199.9646384089988
 30
0.0
 40
5.500000000000002
100
AcDbArc
 50
180.0
 51
0.0
  0
LINE
  5
DA
330
6C
100
AcDbEntity
  8
Sichtbare Kanten(DIN)
100
AcDbLine
 10
-243.8619836831996
 20
245.9646384089987
 30
0.0
 11
-243.8619836831996
 21
260.9646384089987
 31
0.0
  0
ARC
  5
DB
330
6C
100
AcDbEntity
  8
Sichtbare Kanten(DIN)
100
AcDbCircle
 10
-238.3619836831996
 20
260.9646384089987
 30
0.0
 40
5.5
100
AcDbArc
 50
0.0
 51
180.0
  0
LINE
  5
DC
330
6C
100
AcDbEntity
  8
Sichtbare Kanten(DIN)
100
AcDbLine
 10
-232.8619836831996
 20
260.9646384089987
 30
0.0
 11
-232.8619836831996
 21
245.9646384089987
 31
0.0
  0
ARC
  5
DD
330
6C
100
AcDbEntity
  8
Sichtbare Kanten(DIN)
100
AcDbCircle
 10
-238.3619836831996
 20
245.9646384089987
 30
0.0
 40
5.5
100
AcDbArc
 50
180.0
 51
0.0
  0
LINE
  5
DE
330
6C
100
AcDbEntity
  8
Sichtbare Kanten(DIN)
100
AcDbLine
 10
-243.8619836831996
 20
59.96463840899863
 30
0.0
 11
-243.8619836831996
 21
74.96463840899863
 31
0.0
  0
ARC
  5
DF
330
6C
100
AcDbEntity
  8
Sichtbare Kanten(DIN)
100
AcDbCircle
 10
-238.3619836831996
 20
74.96463840899863
 30
0.0
 40
5.499999999999999
100
AcDbArc
 50
0.0
 51
180.0
  0
LINE
  5
E0
330
6C
100
AcDbEntity
  8
Sichtbare Kanten(DIN)
100
AcDbLine
 10
-232.8619836831996
 20
74.96463840899863
 30
0.0
 11
-232.8619836831996
 21
59.96463840899863
 31
0.0
  0
ARC
  5
E1
330
6C
100
AcDbEntity
  8
Sichtbare Kanten(DIN)
100
AcDbCircle
 10
-238.3619836831996
 20
59.96463840899863
 30
0.0
 40
5.500000000000002
100
AcDbArc
 50
180.0
 51
0.0
  0
LINE
  5
E2
330
6C
100
AcDbEntity
  8
Sichtbare Kanten(DIN)
100
AcDbLine
 10
-243.8619836831996
 20
105.9646384089987
 30
0.0
 11
-243.8619836831996
 21
120.9646384089987
 31
0.0
  0
ARC
  5
E3
330
6C
100
AcDbEntity
  8
Sichtbare Kanten(DIN)
100
AcDbCircle
 10
-238.3619836831996
 20
120.9646384089987
 30
0.0
 40
5.5
100
AcDbArc
 50
0.0
 51
180.0
  0
LINE
  5
E4
330
6C
100
AcDbEntity
  8
Sichtbare Kanten(DIN)
100
AcDbLine
 10
-232.8619836831996
 20
120.9646384089987
 30
0.0
 11
-232.8619836831996
 21
105.9646384089987
 31
0.0
  0
ARC
  5
E5
330
6C
100
AcDbEntity
  8
Sichtbare Kanten(DIN)
100
AcDbCircle
 10
-238.3619836831996
 20
105.9646384089987
 30
0.0
 40
5.5
100
AcDbArc
 50
180.0
 51
0.0
  0
LINE
  5
E6
330
6C
100
AcDbEntity
  8
Sichtbare Kanten(DIN)
100
AcDbLine
 10
-243.8619836831996
 20
-80.03536159100136
 30
0.0
 11
-243.8619836831996
 21
-65.03536159100136
 31
0.0
  0
ARC
  5
E7
330
6C
100
AcDbEntity
  8
Sichtbare Kanten(DIN)
100
AcDbCircle
 10
-238.3619836831996
 20
-65.03536159100136
 30
0.0
 40
5.499999999999999
100
AcDbArc
 50
0.0
 51
180.0
  0
LINE
  5
E8
330
6C
100
AcDbEntity
  8
Sichtbare Kanten(DIN)
100
AcDbLine
 10
-232.8619836831996
 20
-65.03536159100136
 30
0.0
 11
-232.8619836831996
 21
-80.03536159100136
 31
0.0
  0
ARC
  5
E9
330
6C
100
AcDbEntity
  8
Sichtbare Kanten(DIN)
100
AcDbCircle
 10
-238.3619836831996
 20
-80.03536159100136
 30
0.0
 40
5.500000000000002
100
AcDbArc
 50
180.0
 51
0.0
  0
LINE
  5
EA
330
6C
100
AcDbEntity
  8
Sichtbare Kanten(DIN)
100
AcDbLine
 10
-243.8619836831996
 20
-34.03536159100128
 30
0.0
 11
-243.8619836831996
 21
-19.03536159100127
 31
0.0
  0
ARC
  5
EB
330
6C
100
AcDbEntity
  8
Sichtbare Kanten(DIN)
100
AcDbCircle
 10
-238.3619836831996
 20
-19.03536159100127
 30
0.0
 40
5.5
100
AcDbArc
 50
0.0
 51
180.0
  0
LINE
  5
EC
330
6C
100
AcDbEntity
  8
Sichtbare Kanten(DIN)
100
AcDbLine
 10
-232.8619836831996
 20
-19.03536159100127
 30
0.0
 11
-232.8619836831996
 21
-34.03536159100128
 31
0.0
  0
ARC
  5
ED
330
6C
100
AcDbEntity
  8
Sichtbare Kanten(DIN)
100
AcDbCircle
 10
-238.3619836831996
 20
-34.03536159100128
 30
0.0
 40
5.5
100
AcDbArc
 50
180.0
 51
0.0
  0
LINE
  5
EE
330
6C
100
AcDbEntity
  8
Sichtbare Kanten(DIN)
100
AcDbLine
 10
-243.8619836831996
 20
-220.0353615910013
 30
0.0
 11
-243.8619836831996
 21
-205.0353615910013
 31
0.0
  0
ARC
  5
EF
330
6C
100
AcDbEntity
  8
Sichtbare Kanten(DIN)
100
AcDbCircle
 10
-238.3619836831996
 20
-205.0353615910013
 30
0.0
 40
5.499999999999998
100
AcDbArc
 50
0.0
 51
180.0
  0
LINE
  5
F0
330
6C
100
AcDbEntity
  8
Sichtbare Kanten(DIN)
100
AcDbLine
 10
-232.8619836831996
 20
-205.0353615910013
 30
0.0
 11
-232.8619836831996
 21
-220.0353615910013
 31
0.0
  0
ARC
  5
F1
330
6C
100
AcDbEntity
  8
Sichtbare Kanten(DIN)
100
AcDbCircle
 10
-238.3619836831996
 20
-220.0353615910014
 30
0.0
 40
5.500000000000001
100
AcDbArc
 50
180.0
 51
0.0
  0
LINE
  5
F2
330
6C
100
AcDbEntity
  8
Sichtbare Kanten(DIN)
100
AcDbLine
 10
-243.8619836831996
 20
-174.0353615910013
 30
0.0
 11
-243.8619836831996
 21
-159.0353615910013
 31
0.0
  0
ARC
  5
F3
330
6C
100
AcDbEntity
  8
Sichtbare Kanten(DIN)
100
AcDbCircle
 10
-238.3619836831996
 20
-159.0353615910013
 30
0.0
 40
5.500000000000001
100
AcDbArc
 50
0.0
 51
180.0
  0
LINE
  5
F4
330
6C
100
AcDbEntity
  8
Sichtbare Kanten(DIN)
100
AcDbLine
 10
-232.8619836831996
 20
-159.0353615910013
 30
0.0
 11
-232.8619836831996
 21
-174.0353615910013
 31
0.0
  0
ARC
  5
F5
330
6C
100
AcDbEntity
  8
Sichtbare Kanten(DIN)
100
AcDbCircle
 10
-238.3619836831996
 20
-174.0353615910013
 30
0.0
 40
5.500000000000001
100
AcDbArc
 50
180.0
 51
0.0
  0
LINE
  5
F6
330
6C
100
AcDbEntity
  8
Sichtbare Kanten(DIN)
100
AcDbLine
 10
-243.8619836831996
 20
-314.0353615910013
 30
0.0
 11
-243.8619836831996
 21
-299.0353615910013
 31
0.0
  0
ARC
  5
F7
330
6C
100
AcDbEntity
  8
Sichtbare Kanten(DIN)
100
AcDbCircle
 10
-238.3619836831996
 20
-299.0353615910013
 30
0.0
 40
5.500000000000001
100
AcDbArc
 50
0.0
 51
180.0
  0
LINE
  5
F8
330
6C
100
AcDbEntity
  8
Sichtbare Kanten(DIN)
100
AcDbLine
 10
-232.8619836831996
 20
-299.0353615910013
 30
0.0
 11
-232.8619836831996
 21
-314.0353615910013
 31
0.0
  0
ARC
  5
F9
330
6C
100
AcDbEntity
  8
Sichtbare Kanten(DIN)
100
AcDbCircle
 10
-238.3619836831996
 20
-314.0353615910013
 30
0.0
 40
5.500000000000001
100
AcDbArc
 50
180.0
 51
0.0
  0
LINE
  5
FA
330
6C
100
AcDbEntity
  8
Sichtbare Kanten(DIN)
100
AcDbLine
 10
-243.8619836831996
 20
-360.0353615910013
 30
0.0
 11
-243.8619836831996
 21
-352.149843474341
 31
0.0
  0
LINE
  5
FB
330
6C
100
AcDbEntity
  8
Sichtbare Kanten(DIN)
100
AcDbLine
 10
-232.8619836831996
 20
-352.2018585221096
 30
0.0
 11
-232.8619836831996
 21
-360.0353615910013
 31
0.0
  0
ARC
  5
FC
330
6C
100
AcDbEntity
  8
Sichtbare Kanten(DIN)
100
AcDbCircle
 10
-238.3619836831996
 20
-360.0353615910013
 30
0.0
 40
5.500000000000001
100
AcDbArc
 50
180.0
 51
0.0
  0
ARC
  5
FD
330
6C
100
AcDbEntity
  8
Sichtbare Kanten(DIN)
100
AcDbCircle
 10
-238.3619836831997
 20
-439.0353615910012
 30
0.0
 40
5.499999999999953
100
AcDbArc
 50
0.0
 51
180.0
  0
LINE
  5
FE
330
6C
100
AcDbEntity
  8
Sichtbare Kanten(DIN)
100
AcDbLine
 10
-232.8619836831998
 20
-439.0353615910012
 30
0.0
 11
-232.8619836831998
 21
-454.0353615910013
 31
0.0
  0
ARC
  5
FF
330
6C
100
AcDbEntity
  8
Sichtbare Kanten(DIN)
100
AcDbCircle
 10
-238.3619836831998
 20
-454.0353615910013
 30
0.0
 40
5.5
100
AcDbArc
 50
180.0
 51
0.0
  0
LINE
  5
100
330
6C
100
AcDbEntity
  8
Sichtbare Kanten(DIN)
100
AcDbLine
 10
-243.8619836831998
 20
-454.0353615910013
 30
0.0
 11
-243.8619836831998
 21
-439.0353615910012
 31
0.0
  0
ARC
  5
101
330
6C
100
AcDbEntity
  8
Sichtbare Kanten(DIN)
100
AcDbCircle
 10
-238.3619836831996
 20
-408.0353615910012
 30
0.0
 40
5.500000000000001
100
AcDbArc
 50
180.0
 51
0.0
  0
LINE
  5
102
330
6C
100
AcDbEntity
  8
Sichtbare Kanten(DIN)
100
AcDbLine
 10
-243.8619836831997
 20
-408.0353615910012
 30
0.0
 11
-243.8619836831997
 21
-400.1498434743409
 31
0.0
  0
LINE
  5
103
330
6C
100
AcDbEntity
  8
Sichtbare Kanten(DIN)
100
AcDbLine
 10
-232.8619836831996
 20
-400.2018585221095
 30
0.0
 11
-232.8619836831996
 21
-408.0353615910012
 31
0.0
  0
LINE
  5
104
330
6C
100
AcDbEntity
  8
Sichtbare Kanten(DIN)
100
AcDbLine
 10
-263.3619836831996
 20
930.9646384089987
 30
0.0
 11
-262.8619836831997
 21
930.9646384089987
 31
0.0
  0
LINE
  5
105
330
6C
100
AcDbEntity
  8
Sichtbare Kanten(DIN)
100
AcDbLine
 10
-263.3619836831996
 20
930.9646384089987
 30
0.0
 11
-263.3619836831996
 21
-469.0353615910012
 31
0.0
  0
LINE
  5
106
330
6C
100
AcDbEntity
  8
Sichtbare Kanten(DIN)
100
AcDbLine
 10
-262.8619836831997
 20
-469.0353615910012
 30
0.0
 11
-263.3619836831996
 21
-469.0353615910012
 31
0.0
  0
LINE
  5
107
330
6C
100
AcDbEntity
  8
Sichtbare Kanten(DIN)
100
AcDbLine
 10
-213.8619836831997
 20
930.9646384089987
 30
0.0
 11
-213.3619836831996
 21
930.9646384089987
 31
0.0
  0
LINE
  5
108
330
6C
100
AcDbEntity
  8
Sichtbare Kanten(DIN)
100
AcDbLine
 10
-213.3619836831996
 20
-469.0353615910012
 30
0.0
 11
-213.3619836831996
 21
930.9646384089987
 31
0.0
  0
LINE
  5
109
330
6C
100
AcDbEntity
  8
Sichtbare Kanten(DIN)
100
AcDbLine
 10
-213.3619836831996
 20
-469.0353615910012
 30
0.0
 11
-213.8619836831997
 21
-469.0353615910012
 31
0.0
  0
LINE
  5
10A
330
6C
100
AcDbEntity
  8
Sichtbare Kanten(DIN)
100
AcDbLine
 10
-254.6119836831997
 20
930.9646384089987
 30
0.0
 11
-262.8619836831997
 21
930.9646384089987
 31
0.0
  0
LINE
  5
10B
330
6C
100
AcDbEntity
  8
Sichtbare Kanten(DIN)
100
AcDbLine
 10
-232.1119836831996
 20
930.9646384089987
 30
0.0
 11
-244.6119836831996
 21
930.9646384089987
 31
0.0
  0
LINE
  5
10C
330
6C
100
AcDbEntity
  8
Sichtbare Kanten(DIN)
100
AcDbLine
 10
-213.8619836831997
 20
930.9646384089987
 30
0.0
 11
-222.1119836831997
 21
930.9646384089987
 31
0.0
  0
LINE
  5
10D
330
6C
100
AcDbEntity
  8
Sichtbare Kanten(DIN)
100
AcDbLine
 10
-222.1119836831997
 20
-469.0353615910012
 30
0.0
 11
-213.8619836831997
 21
-469.0353615910012
 31
0.0
  0
LINE
  5
10E
330
6C
100
AcDbEntity
  8
Sichtbare Kanten(DIN)
100
AcDbLine
 10
-244.6119836831996
 20
-469.0353615910012
 30
0.0
 11
-232.1119836831996
 21
-469.0353615910012
 31
0.0
  0
LINE
  5
10F
330
6C
100
AcDbEntity
  8
Sichtbare Kanten(DIN)
100
AcDbLine
 10
-262.8619836831997
 20
-469.0353615910012
 30
0.0
 11
-254.6119836831997
 21
-469.0353615910012
 31
0.0
  0
LINE
  5
110
330
6C
100
AcDbEntity
  8
Sichtbare Kanten(DIN)
100
AcDbLine
 10
-254.6119836831997
 20
930.9646384089987
 30
0.0
 11
-247.1119836831997
 21
930.9646384089987
 31
0.0
  0
LINE
  5
111
330
6C
100
AcDbEntity
  8
Sichtbare Kanten(DIN)
100
AcDbLine
 10
-229.6119836831997
 20
930.9646384089987
 30
0.0
 11
-222.1119836831997
 21
930.9646384089987
 31
0.0
  0
LINE
  5
112
330
6C
100
AcDbEntity
  8
Sichtbare Kanten(DIN)
100
AcDbLine
 10
-229.6119836831997
 20
930.9646384089987
 30
0.0
 11
-229.6119836831997
 21
-469.0353615910012
 31
0.0
  0
LINE
  5
113
330
6C
100
AcDbEntity
  8
Sichtbare Kanten(DIN)
100
AcDbLine
 10
-247.1119836831997
 20
-469.0353615910012
 30
0.0
 11
-254.6119836831997
 21
-469.0353615910012
 31
0.0
  0
LINE
  5
114
330
6C
100
AcDbEntity
  8
Sichtbare Kanten(DIN)
100
AcDbLine
 10
-247.1119836831997
 20
-469.0353615910012
 30
0.0
 11
-247.1119836831997
 21
930.9646384089987
 31
0.0
  0
LINE
  5
115
330
6C
100
AcDbEntity
  8
Sichtbare Kanten(DIN)
100
AcDbLine
 10
-222.1119836831997
 20
-469.0353615910012
 30
0.0
 11
-229.6119836831997
 21
-469.0353615910012
 31
0.0
  0
LINE
  5
116
330
6C
100
AcDbEntity
  8
Sichtbare Kanten(DIN)
100
AcDbLine
 10
-244.6119836831996
 20
930.9646384089987
 30
0.0
 11
-247.1119836831997
 21
930.9646384089987
 31
0.0
  0
LINE
  5
117
330
6C
100
AcDbEntity
  8
Sichtbare Kanten(DIN)
100
AcDbLine
 10
-229.6119836831997
 20
930.9646384089987
 30
0.0
 11
-232.1119836831996
 21
930.9646384089987
 31
0.0
  0
LINE
  5
118
330
6C
100
AcDbEntity
  8
Sichtbare Kanten(DIN)
100
AcDbLine
 10
-247.1119836831997
 20
-469.0353615910012
 30
0.0
 11
-244.6119836831996
 21
-469.0353615910012
 31
0.0
  0
LINE
  5
119
330
6C
100
AcDbEntity
  8
Sichtbare Kanten(DIN)
100
AcDbLine
 10
-232.1119836831996
 20
-469.0353615910012
 30
0.0
 11
-229.6119836831997
 21
-469.0353615910012
 31
0.0
  0
LINE
  5
11A
330
6C
100
AcDbEntity
  8
Sichtbare Kanten(DIN)
100
AcDbLine
 10
-232.8619836831998
 20
859.9909178506274
 30
0.0
 11
-232.8619836831998
 21
854.9646384089987
 31
0.0
  0
ARC
  5
11B
330
6C
100
AcDbEntity
  8
Sichtbare Kanten(DIN)
100
AcDbCircle
 10
-238.3619836831998
 20
854.9646384089987
 30
0.0
 40
5.5
100
AcDbArc
 50
180.0
 51
0.0
  0
LINE
  5
11C
330
6C
100
AcDbEntity
  8
Sichtbare Kanten(DIN)
100
AcDbLine
 10
-243.8619836831998
 20
854.9646384089987
 30
0.0
 11
-243.8619836831998
 21
859.9909178506278
 31
0.0
  0
LINE
  5
11D
330
6C
100
AcDbEntity
  8
Sichtbare Kanten(DIN)
100
AcDbLine
 10
-232.8619836831996
 20
905.9909178506277
 30
0.0
 11
-232.8619836831996
 21
900.9646384089988
 31
0.0
  0
ARC
  5
11E
330
6C
100
AcDbEntity
  8
Sichtbare Kanten(DIN)
100
AcDbCircle
 10
-238.3619836831996
 20
900.9646384089988
 30
0.0
 40
5.5
100
AcDbArc
 50
180.0
 51
0.0
  0
LINE
  5
11F
330
6C
100
AcDbEntity
  8
Sichtbare Kanten(DIN)
100
AcDbLine
 10
-243.8619836831997
 20
900.9646384089988
 30
0.0
 11
-243.8619836831997
 21
905.9909178506277
 31
0.0
  0
LINE
  5
120
330
6C
100
AcDbEntity
  8
Sichtbare Kanten(DIN)
100
AcDbLine
 10
-248.3619836831997
 20
-559.0353615910011
 30
0.0
 11
-252.3619836831997
 21
-555.0353615910011
 31
0.0
  0
LINE
  5
121
330
6C
100
AcDbEntity
  8
Sichtbare Kanten(DIN)
100
AcDbLine
 10
-228.3619836831997
 20
-559.0353615910011
 30
0.0
 11
-224.3619836831997
 21
-555.0353615910011
 31
0.0
  0
LINE
  5
122
330
6C
100
AcDbEntity
  8
Sichtbare Kanten(DIN)
100
AcDbLine
 10
-225.3619836831997
 20
-554.0353615910011
 30
0.0
 11
-251.3619836831996
 21
-554.0353615910011
 31
0.0
  0
LINE
  5
123
330
6C
100
AcDbEntity
  8
Sichtbare Kanten(DIN)
100
AcDbLine
 10
-248.3619836831997
 20
-559.0353615910011
 30
0.0
 11
-228.3619836831997
 21
-559.0353615910011
 31
0.0
  0
LINE
  5
124
330
6C
100
AcDbEntity
  8
Sichtbare Kanten(DIN)
100
AcDbLine
 10
-253.3619836831996
 20
-554.0353615910011
 30
0.0
 11
-252.3619836831997
 21
-555.0353615910011
 31
0.0
  0
LINE
  5
125
330
6C
100
AcDbEntity
  8
Sichtbare Kanten(DIN)
100
AcDbLine
 10
-224.3619836831997
 20
-555.0353615910011
 30
0.0
 11
-223.3619836831997
 21
-554.0353615910011
 31
0.0
  0
LINE
  5
126
330
6C
100
AcDbEntity
  8
Sichtbare Kanten(DIN)
100
AcDbLine
 10
-223.3619836831997
 20
-554.0353615910011
 30
0.0
 11
-223.3619836831997
 21
-469.035361591001
 31
0.0
  0
LINE
  5
127
330
6C
100
AcDbEntity
  8
Sichtbare Kanten(DIN)
100
AcDbLine
 10
-225.3619836831997
 20
-469.035361591001
 30
0.0
 11
-225.3619836831997
 21
-554.0353615910011
 31
0.0
  0
LINE
  5
128
330
6C
100
AcDbEntity
  8
Sichtbare Kanten(DIN)
100
AcDbLine
 10
-225.3619836831997
 20
-554.0353615910011
 30
0.0
 11
-224.3619836831997
 21
-555.0353615910011
 31
0.0
  0
LINE
  5
129
330
6C
100
AcDbEntity
  8
Sichtbare Kanten(DIN)
100
AcDbLine
 10
-252.3619836831997
 20
-555.0353615910011
 30
0.0
 11
-251.3619836831996
 21
-554.0353615910011
 31
0.0
  0
LINE
  5
12A
330
6C
100
AcDbEntity
  8
Sichtbare Kanten(DIN)
100
AcDbLine
 10
-251.3619836831996
 20
-554.0353615910011
 30
0.0
 11
-251.3619836831996
 21
-469.035361591001
 31
0.0
  0
LINE
  5
12B
330
6C
100
AcDbEntity
  8
Sichtbare Kanten(DIN)
100
AcDbLine
 10
-253.3619836831996
 20
-469.035361591001
 30
0.0
 11
-253.3619836831996
 21
-554.0353615910011
 31
0.0
  0
LINE
  5
12C
330
6C
100
AcDbEntity
  8
Sichtbare Kanten(DIN)
100
AcDbLine
 10
-233.23850830022
 20
-437.0353615910012
 30
0.0
 11
-243.4854590661795
 21
-437.0353615910012
 31
0.0
  0
LINE
  5
12D
330
6C
100
AcDbEntity
  8
Sichtbare Kanten(DIN)
100
AcDbLine
 10
-242.9717559118461
 20
-317.0353615910016
 30
0.0
 11
-233.7522114545532
 21
-317.0353615910016
 31
0.0
  0
LINE
  5
12E
330
6C
100
AcDbEntity
  8
Sichtbare Kanten(DIN)
100
AcDbLine
 10
-188.3619836831997
 20
-359.5353615910014
 30
0.0
 11
-213.3619836831996
 21
-359.5353615910014
 31
0.0
  0
LINE
  5
12F
330
6C
100
AcDbEntity
  8
Sichtbare Kanten(DIN)
100
AcDbLine
 10
-213.3619836831996
 20
-379.5353615910014
 30
0.0
 11
-188.3619836831997
 21
-379.5353615910014
 31
0.0
  0
LINE
  5
130
330
6C
100
AcDbEntity
  8
Sichtbare Kanten(DIN)
100
AcDbLine
 10
-188.3619836831997
 20
-379.5353615910014
 30
0.0
 11
-188.3619836831997
 21
-359.5353615910014
 31
0.0
  0
LINE
  5
131
330
6C
100
AcDbEntity
  8
Sichtbare Kanten(DIN)
100
AcDbLine
 10
-213.3619836831996
 20
-428.0448825492399
 30
0.0
 11
-205.9866617263243
 21
-428.6210136965565
 31
0.0
  0
LINE
  5
132
330
6C
100
AcDbEntity
  8
Sichtbare Kanten(DIN)
100
AcDbLine
 10
-205.9866617263244
 20
-428.6210136965565
 30
0.0
 11
-206.7654498850881
 21
-438.5906420248228
 31
0.0
  0
LINE
  5
133
330
6C
100
AcDbEntity
  8
Sichtbare Kanten(DIN)
100
AcDbLine
 10
-206.7654498850882
 20
-438.5906420248228
 30
0.0
 11
-213.3619836831996
 21
-438.0753467458315
 31
0.0
  0
LINE
  5
134
330
6C
100
AcDbEntity
  8
Sichtbare Kanten(DIN)
100
AcDbLine
 10
-193.6520251668129
 20
-116.6340640641323
 30
0.0
 11
-210.3619836831996
 21
-330.545991093889
 31
0.0
  0
LINE
  5
135
330
6C
100
AcDbEntity
  8
Sichtbare Kanten(DIN)
100
AcDbLine
 10
-210.5339267303219
 20
-332.747113766529
 30
0.0
 11
-212.6265193037662
 21
-359.5353615910014
 31
0.0
  0
LINE
  5
136
330
6C
100
AcDbEntity
  8
Sichtbare Kanten(DIN)
100
AcDbLine
 10
-191.1564833705003
 20
-469.9013456953966
 30
0.0
 11
-163.7431401820141
 21
-118.9704285404237
 31
0.0
  0
LINE
  5
137
330
6C
100
AcDbEntity
  8
Sichtbare Kanten(DIN)
100
AcDbLine
 10
-163.7431401820141
 20
-118.9704285404237
 30
0.0
 11
-193.6520251668129
 21
-116.6340640641323
 31
0.0
  0
LINE
  5
138
330
6C
100
AcDbEntity
  8
Sichtbare Kanten(DIN)
100
AcDbLine
 10
-213.3619836831996
 20
-443.9326680487381
 30
0.0
 11
-191.1564833705003
 21
-469.9013456953966
 31
0.0
  0
SPLINE
  5
139
330
6C
100
AcDbEntity
  8
Sichtbare Kanten(DIN)
100
AcDbSpline
210
0.0
220
0.0
230
1.0
 70
    24
 71
     3
 72
    18
 73
    14
 74
     0
 42
0.0000000001
 43
0.0000000001
 40
0.694032369884652
 40
0.694032369884652
 40
0.694032369884652
 40
0.694032369884652
 40
0.9579353162595021
 40
0.9579353162595021
 40
1.032385171573991
 40
1.032385171573991
 40
1.063346452444441
 40
1.063346452444441
 40
1.080185052097429
 40
1.080185052097429
 40
1.093575068407353
 40
1.093575068407353
 40
1.100396261859996
 40
1.100396261859996
 40
1.100396261859996
 40
1.100396261859996
 10
-210.3619836831997
 20
-326.9919648833257
 30
0.0
 10
-210.3619836831997
 20
-326.4576299665141
 30
0.0
 10
-210.3619836831997
 20
-326.0178417297209
 30
0.0
 10
-210.3619836831997
 20
-325.6609815295369
 30
0.0
 10
-210.3619836831997
 20
-325.5935735662771
 30
0.0
 10
-210.3619836831997
 20
-325.5211366679132
 30
0.0
 10
-210.3619836831997
 20
-325.49859517826
 30
0.0
 10
-210.3619836831997
 20
-325.4702023761053
 30
0.0
 10
-210.3619836831997
 20
-325.4609670559803
 30
0.0
 10
-210.3619836831997
 20
-325.4483453478503
 30
0.0
 10
-210.3619836831997
 20
-325.4443358824206
 30
0.0
 10
-210.3619836831997
 20
-325.441254529494
 30
0.0
 10
-210.3619836831997
 20
-325.4407630921936
 30
0.0
 10
-210.3619836831997
 20
-325.4407631482006
 30
0.0
  0
SPLINE
  5
13A
330
6C
100
AcDbEntity
  8
Sichtbare Kanten(DIN)
100
AcDbSpline
210
0.0
220
0.0
230
1.0
 70
    24
 71
     3
 72
    22
 73
    18
 74
     0
 42
0.0000000001
 43
0.0000000001
 40
3.172330070176766
 40
3.172330070176766
 40
3.172330070176766
 40
3.172330070176766
 40
3.416180854287576
 40
3.416180854287576
 40
3.665428471905166
 40
3.665428471905166
 40
3.863197271509318
 40
3.863197271509318
 40
3.952423294695847
 40
3.952423294695847
 40
3.987024128703136
 40
3.987024128703136
 40
4.002714610366175
 40
4.002714610366175
 40
4.012771805935186
 40
4.012771805935186
 40
4.016924438748305
 40
4.016924438748305
 40
4.016924438748305
 40
4.016924438748305
 10
-210.3619836831997
 20
-332.6691824748255
 30
0.0
 10
-210.3619836831997
 20
-332.1893179811985
 30
0.0
 10
-210.3619836831997
 20
-331.5949471295928
 30
0.0
 10
-210.3619836831997
 20
-330.21005957542
 30
0.0
 10
-210.3619836831997
 20
-329.4799874170351
 30
0.0
 10
-210.3619836831997
 20
-328.2634002780531
 30
0.0
 10
-210.3619836831997
 20
-327.8048154778529
 30
0.0
 10
-210.3619836831997
 20
-327.3420802272086
 30
0.0
 10
-210.3619836831997
 20
-327.2222493237643
 30
0.0
 10
-210.3619836831997
 20
-327.1029151352907
 30
0.0
 10
-210.3619836831997
 20
-327.0666782058823
 30
0.0
 10
-210.3619836831997
 20
-327.0259408088888
 30
0.0
 10
-210.3619836831997
 20
-327.0137822124318
 30
0.0
 10
-210.3619836831997
 20
-326.9994307568215
 30
0.0
 10
-210.3619836831997
 20
-326.9951813592972
 30
0.0
 10
-210.3619836831997
 20
-326.9923765835913
 30
0.0
 10
-210.3619836831997
 20
-326.9919651786636
 30
0.0
 10
-210.3619836831997
 20
-326.991965187462
 30
0.0
  0
SPLINE
  5
13B
330
6C
100
AcDbEntity
  8
Sichtbare Kanten(DIN)
100
AcDbSpline
210
0.0
220
0.0
230
1.0
 70
     8
 71
     3
 72
    14
 73
    10
 74
     0
 42
0.0000000001
 43
0.0000000001
 40
30.51394668492197
 40
30.51394668492197
 40
30.51394668492197
 40
30.51394668492197
 40
30.6832881169639
 40
30.6832881169639
 40
30.869007846608
 40
30.869007846608
 40
30.9478344586374
 40
30.9478344586374
 40
30.95810471613189
 40
30.95810471613189
 40
30.95810471613189
 40
30.95810471613189
 10
-213.3619836831997
 20
-330.4367247969884
 30
0.0
 10
-213.3133589603345
 20
-330.8967394454271
 30
0.0
 10
-213.2644287819515
 20
-331.313849771806
 30
0.0
 10
-213.1648207686044
 20
-332.0367559640597
 30
0.0
 10
-213.1109418197933
 20
-332.3428243671156
 30
0.0
 10
-213.0511834546823
 20
-332.5908823858516
 30
0.0
 10
-213.0346511926453
 20
-332.6423655428458
 30
0.0
 10
-213.0298501274396
 20
-332.65524494305
 30
0.0
 10
-213.0295365797064
 20
-332.6560285898724
 30
0.0
 10
-213.029536579706
 20
-332.6560285898734
 30
0.0
  0
SPLINE
  5
13C
330
6C
100
AcDbEntity
  8
Sichtbare Kanten(DIN)
100
AcDbSpline
210
0.0
220
0.0
230
1.0
 70
     8
 71
     3
 72
    36
 73
    32
 74
     0
 42
0.0000000001
 43
0.0000000001
 40
32.6261279030123
 40
32.6261279030123
 40
32.6261279030123
 40
32.6261279030123
 40
32.73553627123318
 40
32.73553627123318
 40
32.94874415881421
 40
32.94874415881421
 40
33.01084156437877
 40
33.01084156437877
 40
33.05909823038498
 40
33.05909823038498
 40
33.10451279716834
 40
33.10451279716834
 40
33.14322819498385
 40
33.14322819498385
 40
33.18196607855393
 40
33.18196607855393
 40
33.22083687528451
 40
33.22083687528451
 40
33.260909909128
 40
33.260909909128
 40
33.31080239158693
 40
33.31080239158693
 40
33.41006745610787
 40
33.41006745610787
 40
33.67092731192808
 40
33.67092731192808
 40
33.90877381514791
 40
33.90877381514791
 40
34.11056343355375
 40
34.11056343355375
 40
34.15921133665003
 40
34.15921133665003
 40
34.15921133665003
 40
34.15921133665003
 10
-213.3619836831997
 20
-322.3563714377317
 30
0.0
 10
-213.3298251564986
 20
-322.1097516270674
 30
0.0
 10
-213.2973023465356
 20
-321.8849342428639
 30
0.0
 10
-213.1997920456345
 20
-321.2966322341859
 30
0.0
 10
-213.1479889175618
 20
-321.0163936285761
 30
0.0
 10
-212.9982793763032
 20
-320.6499209781589
 30
0.0
 10
-212.9570264650494
 20
-320.562078543358
 30
0.0
 10
-212.8341094444346
 20
-320.3870846048488
 30
0.0
 10
-212.7600243699757
 20
-320.3021537506286
 30
0.0
 10
-212.5685491892826
 20
-320.1583237790085
 30
0.0
 10
-212.451716761555
 20
-320.0984459454312
 30
0.0
 10
-212.2185128361423
 20
-320.0378507960063
 30
0.0
 10
-212.1024717851092
 20
-320.0288275381875
 30
0.0
 10
-211.8790445802674
 20
-320.0521652961116
 30
0.0
 10
-211.7692738148629
 20
-320.0848117397503
 30
0.0
 10
-211.5771155402293
 20
-320.1785695914654
 30
0.0
 10
-211.4930370054671
 20
-320.2403891973205
 30
0.0
 10
-211.3576033458383
 20
-320.3694948672657
 30
0.0
 10
-211.3056284608414
 20
-320.4371533496273
 30
0.0
 10
-211.2152616376879
 20
-320.576475805706
 30
0.0
 10
-211.1812902681027
 20
-320.6468667182002
 30
0.0
 10
-211.0968101458139
 20
-320.8469020401764
 30
0.0
 10
-211.0611851883271
 20
-320.971533156525
 30
0.0
 10
-210.9362915385797
 20
-321.4802738402923
 30
0.0
 10
-210.8620215819193
 20
-321.9701842832486
 30
0.0
 10
-210.7168626048202
 20
-323.1492206897033
 30
0.0
 10
-210.6472158486807
 20
-323.8269022506868
 30
0.0
 10
-210.5207215362487
 20
-325.1707831788241
 30
0.0
 10
-210.4619495873793
 20
-325.839274436837
 30
0.0
 10
-210.3899619041505
 20
-326.6686971792
 30
0.0
 10
-210.3759673389959
 20
-326.8304121578438
 30
0.0
 10
-210.3619836831997
 20
-326.9919652067124
 30
0.0
  0
SPLINE
  5
13D
330
6C
100
AcDbEntity
  8
Sichtbare Kanten(DIN)
100
AcDbSpline
210
0.0
220
0.0
230
1.0
 70
     8
 71
     3
 72
    36
 73
    32
 74
     0
 42
0.0000000001
 43
0.0000000001
 40
0.0311778343815685
 40
0.0311778343815685
 40
0.0311778343815685
 40
0.0311778343815685
 40
0.0401548158034646
 40
0.0401548158034646
 40
0.0787947262756951
 40
0.0787947262756951
 40
0.1180130653054364
 40
0.1180130653054364
 40
0.161317334733136
 40
0.161317334733136
 40
0.2285686758487491
 40
0.2285686758487491
 40
0.4170150494699755
 40
0.4170150494699755
 40
0.561951051050411
 40
0.561951051050411
 40
0.7798736267025435
 40
0.7798736267025435
 40
0.982191677787849
 40
0.982191677787849
 40
1.179951228891353
 40
1.179951228891353
 40
1.375142431695965
 40
1.375142431695965
 40
1.567362985280456
 40
1.567362985280456
 40
1.753349882094083
 40
1.753349882094083
 40
1.832849026324889
 40
1.832849026324889
 40
1.847154360810322
 40
1.847154360810322
 40
1.847154360810322
 40
1.847154360810322
 10
-210.6328198869409
 20
-334.0130909191152
 30
0.0
 10
-210.6581559202869
 20
-334.0075529284094
 30
0.0
 10
-210.6831154216411
 20
-334.0010071506626
 30
0.0
 10
-210.8126542146986
 20
-333.9611232249239
 30
0.0
 10
-210.9099680414672
 20
-333.9101768072993
 30
0.0
 10
-211.0722001235266
 20
-333.7921366861077
 30
0.0
 10
-211.1381580335444
 20
-333.7245214806509
 30
0.0
 10
-211.2451987264031
 20
-333.5900530074916
 30
0.0
 10
-211.2849841592104
 20
-333.5230591676555
 30
0.0
 10
-211.366133598435
 20
-333.3653890658154
 30
0.0
 10
-211.398126486323
 20
-333.2790794105536
 30
0.0
 10
-211.5065065751899
 20
-332.9441324081858
 30
0.0
 10
-211.5601660100537
 20
-332.6683069196815
 30
0.0
 10
-211.6603270832503
 20
-332.0442674607408
 30
0.0
 10
-211.7028907337348
 20
-331.7299146901515
 30
0.0
 10
-211.808338218736
 20
-330.8533956253847
 30
0.0
 10
-211.872000293036
 20
-330.2328454045731
 30
0.0
 10
-211.992923346091
 20
-328.9533297857065
 30
0.0
 10
-212.0518529214111
 20
-328.2844838252237
 30
0.0
 10
-212.1668545241762
 20
-326.9603464484276
 30
0.0
 10
-212.2244533937287
 20
-326.2884486962545
 30
0.0
 10
-212.337384042724
 20
-325.0218945809124
 30
0.0
 10
-212.3942192580986
 20
-324.410287482976
 30
0.0
 10
-212.5052215170195
 20
-323.3267315384776
 30
0.0
 10
-212.560990039576
 20
-322.8384860429076
 30
0.0
 10
-212.6672198439735
 20
-322.0596682818212
 30
0.0
 10
-212.7211110428848
 20
-321.7484599188594
 30
0.0
 10
-212.7821543619222
 20
-321.4898532297094
 30
0.0
 10
-212.7992232249491
 20
-321.4347762909779
 30
0.0
 10
-212.8059493047337
 20
-321.4162170907542
 30
0.0
 10
-212.8065561326126
 20
-321.4146945958657
 30
0.0
 10
-212.8065561326133
 20
-321.4146945958639
 30
0.0
  0
SPLINE
  5
13E
330
6C
100
AcDbEntity
  8
Sichtbare Kanten(DIN)
100
AcDbSpline
210
0.0
220
0.0
230
1.0
 70
     8
 71
     3
 72
    20
 73
    16
 74
     0
 42
0.0000000001
 43
0.0000000001
 40
3.071641922673371
 40
3.071641922673371
 40
3.071641922673371
 40
3.071641922673371
 40
3.225187930323827
 40
3.225187930323827
 40
3.422725376246891
 40
3.422725376246891
 40
3.624142567292734
 40
3.624142567292734
 40
3.837299977098604
 40
3.837299977098604
 40
3.899668578135412
 40
3.899668578135412
 40
3.948246985801558
 40
3.948246985801558
 40
3.975057881932721
 40
3.975057881932721
 40
3.975057881932721
 40
3.975057881932721
 10
-212.0886354344008
 20
-327.8604688880755
 30
0.0
 10
-212.1329565396935
 20
-328.3685878158046
 30
0.0
 10
-212.1775304628851
 20
-328.8716893746826
 30
0.0
 10
-212.2785239097812
 20
-329.9578914211767
 30
0.0
 10
-212.3360745426621
 20
-330.5373152781871
 30
0.0
 10
-212.4515698484283
 20
-331.5618598292548
 30
0.0
 10
-212.5105973145362
 20
-332.0152723464369
 30
0.0
 10
-212.6358738734022
 20
-332.7719592069096
 30
0.0
 10
-212.6878118468308
 20
-333.0526511881958
 30
0.0
 10
-212.8370297115348
 20
-333.419161697791
 30
0.0
 10
-212.878250213013
 20
-333.5072514172418
 30
0.0
 10
-213.0014619101363
 20
-333.683074489426
 30
0.0
 10
-213.0759788894043
 20
-333.7686351349256
 30
0.0
 10
-213.2302532016086
 20
-333.8843140684383
 30
0.0
 10
-213.2934788896867
 20
-333.9220002121423
 30
0.0
 10
-213.3619836831997
 20
-333.9526776337248
 30
0.0
  0
SPLINE
  5
13F
330
6C
100
AcDbEntity
  8
Sichtbare Kanten(DIN)
100
AcDbSpline
210
0.0
220
0.0
230
1.0
 70
     8
 71
     3
 72
     8
 73
     4
 74
     0
 42
0.0000000001
 43
0.0000000001
 40
1.065608604165532
 40
1.065608604165532
 40
1.065608604165532
 40
1.065608604165532
 40
1.143992797515923
 40
1.143992797515923
 40
1.143992797515923
 40
1.143992797515923
 10
-210.4298104335236
 20
-326.2102589515787
 30
0.0
 10
-210.4071586541066
 20
-325.9505263922097
 30
0.0
 10
-210.3845196585714
 20
-325.6929749197113
 30
0.0
 10
-210.3619836831997
 20
-325.4407621378206
 30
0.0
  0
CIRCLE
  5
140
330
6C
100
AcDbEntity
  8
Sichtbare Kanten(DIN)
100
AcDbCircle
 10
-198.3619836831997
 20
-369.5353615910014
 30
0.0
 40
3.233187499999996
  0
CIRCLE
  5
141
330
6C
100
AcDbEntity
  8
Sichtbare Kanten(DIN)
100
AcDbCircle
 10
-198.3619836831997
 20
-369.5353615910014
 30
0.0
 40
4.000082346706586
  0
CIRCLE
  5
142
330
6C
100
AcDbEntity
  8
Sichtbare Kanten(DIN)
100
AcDbCircle
 10
-198.3619836831997
 20
-369.5353615910014
 30
0.0
 40
5.79999999999999
  0
SPLINE
  5
143
330
6C
100
AcDbEntity
  8
Sichtbare Kanten(DIN)
100
AcDbSpline
210
0.0
220
0.0
230
1.0
 70
    28
 71
     2
 72
     6
 73
     3
 74
     0
 42
0.0000000001
 43
0.0000000001
 40
0.0
 40
0.0
 40
0.0
 40
0.7594834897506475
 40
0.7594834897506475
 40
0.7594834897506475
 10
-205.8675371826648
 20
-369.5353615910014
 30
0.0
 41
1.0
 10
-203.9911488077986
 20
-366.2853615910015
 30
0.0
 41
1.154700538379252
 10
-202.1147604329323
 20
-363.0353615910014
 30
0.0
 41
1.0
  0
SPLINE
  5
144
330
6C
100
AcDbEntity
  8
Sichtbare Kanten(DIN)
100
AcDbSpline
210
0.0
220
0.0
230
1.0
 70
    28
 71
     2
 72
     6
 73
     3
 74
     0
 42
0.0000000001
 43
0.0000000001
 40
0.0
 40
0.0
 40
0.0
 40
0.7594834897506477
 40
0.7594834897506477
 40
0.7594834897506477
 10
-202.1147604329323
 20
-376.0353615910014
 30
0.0
 41
1.0
 10
-203.9911488077986
 20
-372.7853615910015
 30
0.0
 41
1.154700538379255
 10
-205.8675371826648
 20
-369.5353615910014
 30
0.0
 41
1.0
  0
SPLINE
  5
145
330
6C
100
AcDbEntity
  8
Sichtbare Kanten(DIN)
100
AcDbSpline
210
0.0
220
0.0
230
1.0
 70
    28
 71
     2
 72
     6
 73
     3
 74
     0
 42
0.0000000001
 43
0.0000000001
 40
0.0
 40
0.0
 40
0.0
 40
0.7594834897506489
 40
0.7594834897506489
 40
0.7594834897506489
 10
-194.6092069334671
 20
-376.0353615910014
 30
0.0
 41
1.0
 10
-198.3619836831997
 20
-376.0353615910014
 30
0.0
 41
1.154700538379251
 10
-202.1147604329323
 20
-376.0353615910014
 30
0.0
 41
1.0
  0
SPLINE
  5
146
330
6C
100
AcDbEntity
  8
Sichtbare Kanten(DIN)
100
AcDbSpline
210
0.0
220
0.0
230
1.0
 70
    28
 71
     2
 72
     6
 73
     3
 74
     0
 42
0.0000000001
 43
0.0000000001
 40
0.0
 40
0.0
 40
0.0
 40
0.7594834897506475
 40
0.7594834897506475
 40
0.7594834897506475
 10
-190.8564301837346
 20
-369.5353615910014
 30
0.0
 41
1.0
 10
-192.7328185586008
 20
-372.7853615910015
 30
0.0
 41
1.154700538379247
 10
-194.6092069334671
 20
-376.0353615910014
 30
0.0
 41
1.0
  0
SPLINE
  5
147
330
6C
100
AcDbEntity
  8
Sichtbare Kanten(DIN)
100
AcDbSpline
210
0.0
220
0.0
230
1.0
 70
    28
 71
     2
 72
     6
 73
     3
 74
     0
 42
0.0000000001
 43
0.0000000001
 40
0.0
 40
0.0
 40
0.0
 40
0.7594834897506475
 40
0.7594834897506475
 40
0.7594834897506475
 10
-194.6092069334671
 20
-363.0353615910014
 30
0.0
 41
1.0
 10
-192.7328185586008
 20
-366.2853615910015
 30
0.0
 41
1.154700538379252
 10
-190.8564301837346
 20
-369.5353615910014
 30
0.0
 41
1.0
  0
SPLINE
  5
148
330
6C
100
AcDbEntity
  8
Sichtbare Kanten(DIN)
100
AcDbSpline
210
0.0
220
0.0
230
1.0
 70
    28
 71
     2
 72
     6
 73
     3
 74
     0
 42
0.0000000001
 43
0.0000000001
 40
0.0
 40
0.0
 40
0.0
 40
0.7594834897506479
 40
0.7594834897506479
 40
0.7594834897506479
 10
-202.1147604329323
 20
-363.0353615910014
 30
0.0
 41
1.0
 10
-198.3619836831997
 20
-363.0353615910014
 30
0.0
 41
1.154700538379253
 10
-194.6092069334671
 20
-363.0353615910014
 30
0.0
 41
1.0
  0
CIRCLE
  5
149
330
6C
100
AcDbEntity
  8
Sichtbare Kanten(DIN)
100
AcDbCircle
 10
-198.3619836831997
 20
-369.5353615910014
 30
0.0
 40
7.999999999999988
  0
LINE
  5
14A
330
6C
100
AcDbEntity
  8
Sichtbare Kanten(DIN)
100
AcDbLine
 10
-176.3619836831997
 20
880.4690991236828
 30
0.0
 11
-213.3619836831997
 21
880.4690991236828
 31
0.0
  0
LINE
  5
14B
330
6C
100
AcDbEntity
  8
Sichtbare Kanten(DIN)
100
AcDbLine
 10
-263.3619836831996
 20
880.4690991236828
 30
0.0
 11
-300.3619836831997
 21
880.4690991236828
 31
0.0
  0
LINE
  5
14C
330
6C
100
AcDbEntity
  8
Sichtbare Kanten(DIN)
100
AcDbLine
 10
-176.3619836831997
 20
902.4690991236827
 30
0.0
 11
-213.3619836831996
 21
902.4690991236827
 31
0.0
  0
LINE
  5
14D
330
6C
100
AcDbEntity
  8
Sichtbare Kanten(DIN)
100
AcDbLine
 10
-263.3619836831996
 20
902.4690991236827
 30
0.0
 11
-300.3619836831997
 21
902.4690991236827
 31
0.0
  0
LINE
  5
14E
330
6C
100
AcDbEntity
  8
Sichtbare Kanten(DIN)
100
AcDbLine
 10
-176.3619836831996
 20
365.4690991236828
 30
0.0
 11
-213.3619836831995
 21
365.4690991236828
 31
0.0
  0
LINE
  5
14F
330
6C
100
AcDbEntity
  8
Sichtbare Kanten(DIN)
100
AcDbLine
 10
-263.3619836831993
 20
365.4690991236828
 30
0.0
 11
-300.3619836831993
 21
365.4690991236828
 31
0.0
  0
LINE
  5
150
330
6C
100
AcDbEntity
  8
Sichtbare Kanten(DIN)
100
AcDbLine
 10
-176.3619836831996
 20
387.4690991236827
 30
0.0
 11
-213.3619836831995
 21
387.4690991236827
 31
0.0
  0
LINE
  5
151
330
6C
100
AcDbEntity
  8
Sichtbare Kanten(DIN)
100
AcDbLine
 10
-263.3619836831993
 20
387.4690991236827
 30
0.0
 11
-300.3619836831993
 21
387.4690991236827
 31
0.0
  0
LINE
  5
152
330
6C
100
AcDbEntity
  8
Sichtbare Kanten(DIN)
100
AcDbLine
 10
-300.3619836831997
 20
902.9690991236828
 30
0.0
 11
-300.3619836831997
 21
879.9690991236827
 31
0.0
  0
ARC
  5
153
330
6C
100
AcDbEntity
  8
Sichtbare Kanten(DIN)
100
AcDbCircle
 10
-301.8619836831997
 20
902.9690991236828
 30
0.0
 40
1.5
100
AcDbArc
 50
0.0
 51
90.0
  0
ARC
  5
154
330
6C
100
AcDbEntity
  8
Sichtbare Kanten(DIN)
100
AcDbCircle
 10
-301.8619836831997
 20
879.9690991236827
 30
0.0
 40
1.5
100
AcDbArc
 50
270.0
 51
0.0
  0
LINE
  5
155
330
6C
100
AcDbEntity
  8
Sichtbare Kanten(DIN)
100
AcDbLine
 10
-415.3619836831997
 20
880.4690991236828
 30
0.0
 11
-415.3619836831997
 21
902.4690991236827
 31
0.0
  0
ARC
  5
156
330
6C
100
AcDbEntity
  8
Sichtbare Kanten(DIN)
100
AcDbCircle
 10
-413.3619836831996
 20
880.4690991236828
 30
0.0
 40
2.0
100
AcDbArc
 50
180.0
 51
270.0
  0
ARC
  5
157
330
6C
100
AcDbEntity
  8
Sichtbare Kanten(DIN)
100
AcDbCircle
 10
-413.3619836831996
 20
902.4690991236827
 30
0.0
 40
2.0
100
AcDbArc
 50
90.0
 51
180.0
  0
LINE
  5
158
330
6C
100
AcDbEntity
  8
Sichtbare Kanten(DIN)
100
AcDbLine
 10
-301.8619836831997
 20
878.4690991236825
 30
0.0
 11
-413.3619836831996
 21
878.4690991236825
 31
0.0
  0
LINE
  5
159
330
6C
100
AcDbEntity
  8
Sichtbare Kanten(DIN)
100
AcDbLine
 10
-301.8619836831997
 20
904.4690991236826
 30
0.0
 11
-413.3619836831996
 21
904.4690991236826
 31
0.0
  0
LINE
  5
15A
330
6C
100
AcDbEntity
  8
Sichtbare Kanten(DIN)
100
AcDbLine
 10
-176.3619836831997
 20
879.9690991236827
 30
0.0
 11
-176.3619836831997
 21
902.9690991236828
 31
0.0
  0
ARC
  5
15B
330
6C
100
AcDbEntity
  8
Sichtbare Kanten(DIN)
100
AcDbCircle
 10
-174.8619836831997
 20
879.9690991236825
 30
0.0
 40
1.5
100
AcDbArc
 50
180.0
 51
270.0
  0
ARC
  5
15C
330
6C
100
AcDbEntity
  8
Sichtbare Kanten(DIN)
100
AcDbCircle
 10
-174.8619836831997
 20
902.9690991236826
 30
0.0
 40
1.5
100
AcDbArc
 50
90.0
 51
180.0
  0
LINE
  5
15D
330
6C
100
AcDbEntity
  8
Sichtbare Kanten(DIN)
100
AcDbLine
 10
-61.3619836831997
 20
902.4690991236827
 30
0.0
 11
-61.3619836831997
 21
880.4690991236828
 31
0.0
  0
ARC
  5
15E
330
6C
100
AcDbEntity
  8
Sichtbare Kanten(DIN)
100
AcDbCircle
 10
-63.36198368319969
 20
902.4690991236825
 30
0.0
 40
1.999999999999999
100
AcDbArc
 50
0.0
 51
90.0
  0
ARC
  5
15F
330
6C
100
AcDbEntity
  8
Sichtbare Kanten(DIN)
100
AcDbCircle
 10
-63.36198368319969
 20
880.4690991236828
 30
0.0
 40
1.999999999999999
100
AcDbArc
 50
270.0
 51
0.0
  0
LINE
  5
160
330
6C
100
AcDbEntity
  8
Sichtbare Kanten(DIN)
100
AcDbLine
 10
-174.8619836831997
 20
904.4690991236828
 30
0.0
 11
-63.36198368319966
 21
904.4690991236828
 31
0.0
  0
LINE
  5
161
330
6C
100
AcDbEntity
  8
Sichtbare Kanten(DIN)
100
AcDbLine
 10
-174.8619836831997
 20
878.4690991236825
 30
0.0
 11
-63.36198368319966
 21
878.4690991236825
 31
0.0
  0
LINE
  5
162
330
6C
100
AcDbEntity
  8
Sichtbare Kanten(DIN)
100
AcDbLine
 10
-300.3619836831996
 20
387.9690991236827
 30
0.0
 11
-300.3619836831996
 21
364.9690991236827
 31
0.0
  0
ARC
  5
163
330
6C
100
AcDbEntity
  8
Sichtbare Kanten(DIN)
100
AcDbCircle
 10
-301.8619836831996
 20
387.9690991236825
 30
0.0
 40
1.499999999999998
100
AcDbArc
 50
0.0
 51
90.0
  0
ARC
  5
164
330
6C
100
AcDbEntity
  8
Sichtbare Kanten(DIN)
100
AcDbCircle
 10
-301.8619836831996
 20
364.9690991236824
 30
0.0
 40
1.499999999999998
100
AcDbArc
 50
270.0
 51
0.0
  0
LINE
  5
165
330
6C
100
AcDbEntity
  8
Sichtbare Kanten(DIN)
100
AcDbLine
 10
-415.3619836831994
 20
365.4690991236828
 30
0.0
 11
-415.3619836831994
 21
387.4690991236827
 31
0.0
  0
ARC
  5
166
330
6C
100
AcDbEntity
  8
Sichtbare Kanten(DIN)
100
AcDbCircle
 10
-413.3619836831994
 20
365.4690991236825
 30
0.0
 40
1.999999999999997
100
AcDbArc
 50
180.0
 51
270.0
  0
ARC
  5
167
330
6C
100
AcDbEntity
  8
Sichtbare Kanten(DIN)
100
AcDbCircle
 10
-413.3619836831994
 20
387.4690991236824
 30
0.0
 40
1.999999999999997
100
AcDbArc
 50
90.0
 51
180.0
  0
LINE
  5
168
330
6C
100
AcDbEntity
  8
Sichtbare Kanten(DIN)
100
AcDbLine
 10
-301.8619836831996
 20
363.4690991236823
 30
0.0
 11
-413.3619836831994
 21
363.4690991236823
 31
0.0
  0
LINE
  5
169
330
6C
100
AcDbEntity
  8
Sichtbare Kanten(DIN)
100
AcDbLine
 10
-301.8619836831996
 20
389.4690991236826
 30
0.0
 11
-413.3619836831994
 21
389.4690991236826
 31
0.0
  0
LINE
  5
16A
330
6C
100
AcDbEntity
  8
Sichtbare Kanten(DIN)
100
AcDbLine
 10
-176.3619836831998
 20
364.9690991236827
 30
0.0
 11
-176.3619836831998
 21
387.9690991236827
 31
0.0
  0
ARC
  5
16B
330
6C
100
AcDbEntity
  8
Sichtbare Kanten(DIN)
100
AcDbCircle
 10
-174.8619836831998
 20
364.9690991236827
 30
0.0
 40
1.499999999999997
100
AcDbArc
 50
180.0
 51
270.0
  0
ARC
  5
16C
330
6C
100
AcDbEntity
  8
Sichtbare Kanten(DIN)
100
AcDbCircle
 10
-174.8619836831998
 20
387.9690991236827
 30
0.0
 40
1.499999999999997
100
AcDbArc
 50
90.0
 51
180.0
  0
LINE
  5
16D
330
6C
100
AcDbEntity
  8
Sichtbare Kanten(DIN)
100
AcDbLine
 10
-61.36198368319996
 20
387.4690991236827
 30
0.0
 11
-61.36198368319996
 21
365.4690991236827
 31
0.0
  0
ARC
  5
16E
330
6C
100
AcDbEntity
  8
Sichtbare Kanten(DIN)
100
AcDbCircle
 10
-63.36198368319997
 20
387.4690991236827
 30
0.0
 40
1.999999999999996
100
AcDbArc
 50
0.0
 51
90.0
  0
ARC
  5
16F
330
6C
100
AcDbEntity
  8
Sichtbare Kanten(DIN)
100
AcDbCircle
 10
-63.36198368319997
 20
365.4690991236828
 30
0.0
 40
1.999999999999996
100
AcDbArc
 50
270.0
 51
0.0
  0
LINE
  5
170
330
6C
100
AcDbEntity
  8
Sichtbare Kanten(DIN)
100
AcDbLine
 10
-174.8619836831998
 20
389.4690991236826
 30
0.0
 11
-63.36198368319997
 21
389.4690991236826
 31
0.0
  0
LINE
  5
171
330
6C
100
AcDbEntity
  8
Sichtbare Kanten(DIN)
100
AcDbLine
 10
-174.8619836831998
 20
363.4690991236828
 30
0.0
 11
-63.36198368319997
 21
363.4690991236828
 31
0.0
  0
ARC
  5
172
330
6C
100
AcDbEntity
  8
Sichtbare Kanten(DIN)
100
AcDbCircle
 10
-238.3619836831996
 20
871.4646384089988
 30
0.0
 40
18.00000000000007
100
AcDbArc
 50
252.3378184800256
 51
287.662181519974
  0
ARC
  5
173
330
6C
100
AcDbEntity
  8
Sichtbare Kanten(DIN)
100
AcDbCircle
 10
-238.3619836831996
 20
356.4646384089987
 30
0.0
 40
17.99999999999991
100
AcDbArc
 50
252.3378184800258
 51
287.6621815199741
  0
CIRCLE
  5
174
330
6C
100
AcDbEntity
  8
Sichtbare Kanten(DIN)
100
AcDbCircle
 10
-238.3619836832
 20
-345.5353615910015
 30
0.0
 40
7.800000000000006
  0
SPLINE
  5
175
330
6C
100
AcDbEntity
  8
Sichtbare Kanten(DIN)
100
AcDbSpline
210
0.0
220
0.0
230
1.0
 70
    28
 71
     2
 72
     6
 73
     3
 74
     0
 42
0.0000000001
 43
0.0000000001
 40
0.0
 40
0.0
 40
0.0
 40
0.9931707173662314
 40
0.9931707173662314
 40
0.9931707173662314
 10
-246.7843533257246
 20
-340.4958156850679
 30
0.0
 41
1.0
 10
-242.4965735260553
 20
-338.1087091263066
 30
0.0
 41
1.154700538379251
 10
-238.2087937263859
 20
-335.7216025675455
 30
0.0
 41
1.0
  0
SPLINE
  5
176
330
6C
100
AcDbEntity
  8
Sichtbare Kanten(DIN)
100
AcDbSpline
210
0.0
220
0.0
230
1.0
 70
    28
 71
     2
 72
     6
 73
     3
 74
     0
 42
0.0000000001
 43
0.0000000001
 40
0.0
 40
0.0
 40
0.0
 40
0.9931707173662328
 40
0.9931707173662328
 40
0.9931707173662328
 10
-246.9375432825386
 20
-350.3095747085239
 30
0.0
 41
1.0
 10
-246.8609483041316
 20
-345.4026951967959
 30
0.0
 41
1.154700538379253
 10
-246.7843533257246
 20
-340.4958156850679
 30
0.0
 41
1.0
  0
SPLINE
  5
177
330
6C
100
AcDbEntity
  8
Sichtbare Kanten(DIN)
100
AcDbSpline
210
0.0
220
0.0
230
1.0
 70
    28
 71
     2
 72
     6
 73
     3
 74
     0
 42
0.0000000001
 43
0.0000000001
 40
0.0
 40
0.0
 40
0.0
 40
0.9931707173662339
 40
0.9931707173662339
 40
0.9931707173662339
 10
-238.5151736400139
 20
-355.3491206144575
 30
0.0
 41
1.0
 10
-242.7263584612763
 20
-352.8293476614907
 30
0.0
 41
1.154700538379251
 10
-246.9375432825387
 20
-350.3095747085239
 30
0.0
 41
1.0
  0
SPLINE
  5
178
330
6C
100
AcDbEntity
  8
Sichtbare Kanten(DIN)
100
AcDbSpline
210
0.0
220
0.0
230
1.0
 70
    28
 71
     2
 72
     6
 73
     3
 74
     0
 42
0.0000000001
 43
0.0000000001
 40
0.0
 40
0.0
 40
0.0
 40
0.9931707173662317
 40
0.9931707173662317
 40
0.9931707173662317
 10
-229.9396140406753
 20
-350.574907496935
 30
0.0
 41
1.0
 10
-234.2273938403446
 20
-352.9620140556963
 30
0.0
 41
1.154700538379253
 10
-238.515173640014
 20
-355.3491206144575
 30
0.0
 41
1.0
  0
SPLINE
  5
179
330
6C
100
AcDbEntity
  8
Sichtbare Kanten(DIN)
100
AcDbSpline
210
0.0
220
0.0
230
1.0
 70
    28
 71
     2
 72
     6
 73
     3
 74
     0
 42
0.0000000001
 43
0.0000000001
 40
0.0
 40
0.0
 40
0.0
 40
0.9931707173662323
 40
0.9931707173662323
 40
0.9931707173662323
 10
-229.7864240838613
 20
-340.761148473479
 30
0.0
 41
1.0
 10
-229.8630190622683
 20
-345.6680279852071
 30
0.0
 41
1.154700538379251
 10
-229.9396140406753
 20
-350.574907496935
 30
0.0
 41
1.0
  0
SPLINE
  5
17A
330
6C
100
AcDbEntity
  8
Sichtbare Kanten(DIN)
100
AcDbSpline
210
0.0
220
0.0
230
1.0
 70
    28
 71
     2
 72
     6
 73
     3
 74
     0
 42
0.0000000001
 43
0.0000000001
 40
0.0
 40
0.0
 40
0.0
 40
0.9931707173662317
 40
0.9931707173662317
 40
0.9931707173662317
 10
-238.2087937263859
 20
-335.7216025675455
 30
0.0
 41
1.0
 10
-233.9976089051236
 20
-338.2413755205123
 30
0.0
 41
1.154700538379253
 10
-229.7864240838612
 20
-340.761148473479
 30
0.0
 41
1.0
  0
CIRCLE
  5
17B
330
6C
100
AcDbEntity
  8
Sichtbare Kanten(DIN)
100
AcDbCircle
 10
-238.3619836832
 20
-393.5353615910015
 30
0.0
 40
7.800000000000006
  0
SPLINE
  5
17C
330
6C
100
AcDbEntity
  8
Sichtbare Kanten(DIN)
100
AcDbSpline
210
0.0
220
0.0
230
1.0
 70
    28
 71
     2
 72
     6
 73
     3
 74
     0
 42
0.0000000001
 43
0.0000000001
 40
0.0
 40
0.0
 40
0.0
 40
0.9931707173662314
 40
0.9931707173662314
 40
0.9931707173662314
 10
-246.7843533257246
 20
-388.4958156850679
 30
0.0
 41
1.0
 10
-242.4965735260553
 20
-386.1087091263067
 30
0.0
 41
1.154700538379251
 10
-238.2087937263859
 20
-383.7216025675455
 30
0.0
 41
1.0
  0
SPLINE
  5
17D
330
6C
100
AcDbEntity
  8
Sichtbare Kanten(DIN)
100
AcDbSpline
210
0.0
220
0.0
230
1.0
 70
    28
 71
     2
 72
     6
 73
     3
 74
     0
 42
0.0000000001
 43
0.0000000001
 40
0.0
 40
0.0
 40
0.0
 40
0.9931707173662328
 40
0.9931707173662328
 40
0.9931707173662328
 10
-246.9375432825386
 20
-398.309574708524
 30
0.0
 41
1.0
 10
-246.8609483041316
 20
-393.4026951967959
 30
0.0
 41
1.154700538379253
 10
-246.7843533257246
 20
-388.4958156850679
 30
0.0
 41
1.0
  0
SPLINE
  5
17E
330
6C
100
AcDbEntity
  8
Sichtbare Kanten(DIN)
100
AcDbSpline
210
0.0
220
0.0
230
1.0
 70
    28
 71
     2
 72
     6
 73
     3
 74
     0
 42
0.0000000001
 43
0.0000000001
 40
0.0
 40
0.0
 40
0.0
 40
0.9931707173662339
 40
0.9931707173662339
 40
0.9931707173662339
 10
-238.5151736400139
 20
-403.3491206144575
 30
0.0
 41
1.0
 10
-242.7263584612763
 20
-400.8293476614907
 30
0.0
 41
1.154700538379251
 10
-246.9375432825387
 20
-398.309574708524
 30
0.0
 41
1.0
  0
SPLINE
  5
17F
330
6C
100
AcDbEntity
  8
Sichtbare Kanten(DIN)
100
AcDbSpline
210
0.0
220
0.0
230
1.0
 70
    28
 71
     2
 72
     6
 73
     3
 74
     0
 42
0.0000000001
 43
0.0000000001
 40
0.0
 40
0.0
 40
0.0
 40
0.9931707173662317
 40
0.9931707173662317
 40
0.9931707173662317
 10
-229.9396140406753
 20
-398.5749074969351
 30
0.0
 41
1.0
 10
-234.2273938403446
 20
-400.9620140556964
 30
0.0
 41
1.154700538379253
 10
-238.515173640014
 20
-403.3491206144575
 30
0.0
 41
1.0
  0
SPLINE
  5
180
330
6C
100
AcDbEntity
  8
Sichtbare Kanten(DIN)
100
AcDbSpline
210
0.0
220
0.0
230
1.0
 70
    28
 71
     2
 72
     6
 73
     3
 74
     0
 42
0.0000000001
 43
0.0000000001
 40
0.0
 40
0.0
 40
0.0
 40
0.9931707173662323
 40
0.9931707173662323
 40
0.9931707173662323
 10
-229.7864240838613
 20
-388.7611484734791
 30
0.0
 41
1.0
 10
-229.8630190622683
 20
-393.6680279852071
 30
0.0
 41
1.154700538379251
 10
-229.9396140406753
 20
-398.5749074969351
 30
0.0
 41
1.0
  0
SPLINE
  5
181
330
6C
100
AcDbEntity
  8
Sichtbare Kanten(DIN)
100
AcDbSpline
210
0.0
220
0.0
230
1.0
 70
    28
 71
     2
 72
     6
 73
     3
 74
     0
 42
0.0000000001
 43
0.0000000001
 40
0.0
 40
0.0
 40
0.0
 40
0.9931707173662317
 40
0.9931707173662317
 40
0.9931707173662317
 10
-238.2087937263859
 20
-383.7216025675455
 30
0.0
 41
1.0
 10
-233.9976089051236
 20
-386.2413755205123
 30
0.0
 41
1.154700538379253
 10
-229.7864240838612
 20
-388.7611484734791
 30
0.0
 41
1.0
  0
CIRCLE
  5
182
330
6C
100
AcDbEntity
  8
Sichtbare Kanten(DIN)
100
AcDbCircle
 10
-238.3619836831996
 20
352.4646384089988
 30
0.0
 40
4.99989881604791
  0
CIRCLE
  5
183
330
6C
100
AcDbEntity
  8
Sichtbare Kanten(DIN)
100
AcDbCircle
 10
-238.3619836831996
 20
352.4646384089988
 30
0.0
 40
7.8
  0
SPLINE
  5
184
330
6C
100
AcDbEntity
  8
Sichtbare Kanten(DIN)
100
AcDbSpline
210
0.0
220
0.0
230
1.0
 70
    28
 71
     2
 72
     6
 73
     3
 74
     0
 42
0.0000000001
 43
0.0000000001
 40
0.2014629334315162
 40
0.2014629334315162
 40
0.2014629334315162
 40
0.9931707173662314
 40
0.9931707173662314
 40
0.9931707173662314
 10
-247.1119836831997
 20
354.3091938427711
 30
0.0
 41
1.05003041164592
 10
-245.2801053459944
 20
357.4821001960954
 30
0.0
 41
1.123319806224795
 10
-243.2694609713115
 20
360.9646384089988
 30
0.0
 41
1.0
  0
SPLINE
  5
185
330
6C
100
AcDbEntity
  8
Sichtbare Kanten(DIN)
100
AcDbSpline
210
0.0
220
0.0
230
1.0
 70
    28
 71
     2
 72
     6
 73
     3
 74
     0
 42
0.0000000001
 43
0.0000000001
 40
0.0
 40
0.0
 40
0.0
 40
0.7917077839347173
 40
0.7917077839347173
 40
0.7917077839347173
 10
-243.2694609713114
 20
343.9646384089988
 30
0.0
 41
1.0
 10
-245.2801053459944
 20
347.4471766219022
 30
0.0
 41
1.123319806224797
 10
-247.1119836831997
 20
350.6200829752265
 30
0.0
 41
1.050030411645921
  0
SPLINE
  5
186
330
6C
100
AcDbEntity
  8
Sichtbare Kanten(DIN)
100
AcDbSpline
210
0.0
220
0.0
230
1.0
 70
    28
 71
     2
 72
     6
 73
     3
 74
     0
 42
0.0000000001
 43
0.0000000001
 40
0.0
 40
0.0
 40
0.0
 40
0.9931707173662339
 40
0.9931707173662339
 40
0.9931707173662339
 10
-233.4545063950878
 20
343.9646384089988
 30
0.0
 41
1.0
 10
-238.3619836831996
 20
343.9646384089988
 30
0.0
 41
1.154700538379251
 10
-243.2694609713115
 20
343.9646384089988
 30
0.0
 41
1.0
  0
SPLINE
  5
187
330
6C
100
AcDbEntity
  8
Sichtbare Kanten(DIN)
100
AcDbSpline
210
0.0
220
0.0
230
1.0
 70
    28
 71
     2
 72
     6
 73
     3
 74
     0
 42
0.0000000001
 43
0.0000000001
 40
0.2014629334315147
 40
0.2014629334315147
 40
0.2014629334315147
 40
0.9931707173662317
 40
0.9931707173662317
 40
0.9931707173662317
 10
-229.6119836831997
 20
350.6200829752265
 30
0.0
 41
1.05003041164592
 10
-231.4438620204049
 20
347.4471766219022
 30
0.0
 41
1.123319806224797
 10
-233.4545063950878
 20
343.9646384089988
 30
0.0
 41
1.0
  0
SPLINE
  5
188
330
6C
100
AcDbEntity
  8
Sichtbare Kanten(DIN)
100
AcDbSpline
210
0.0
220
0.0
230
1.0
 70
    28
 71
     2
 72
     6
 73
     3
 74
     0
 42
0.0000000001
 43
0.0000000001
 40
0.0
 40
0.0
 40
0.0
 40
0.7917077839347176
 40
0.7917077839347176
 40
0.7917077839347176
 10
-233.4545063950878
 20
360.9646384089988
 30
0.0
 41
1.0
 10
-231.4438620204049
 20
357.4821001960954
 30
0.0
 41
1.123319806224795
 10
-229.6119836831997
 20
354.3091938427711
 30
0.0
 41
1.05003041164592
  0
SPLINE
  5
189
330
6C
100
AcDbEntity
  8
Sichtbare Kanten(DIN)
100
AcDbSpline
210
0.0
220
0.0
230
1.0
 70
    28
 71
     2
 72
     6
 73
     3
 74
     0
 42
0.0000000001
 43
0.0000000001
 40
0.0
 40
0.0
 40
0.0
 40
0.9931707173662317
 40
0.9931707173662317
 40
0.9931707173662317
 10
-243.2694609713115
 20
360.9646384089988
 30
0.0
 41
1.0
 10
-238.3619836831997
 20
360.9646384089988
 30
0.0
 41
1.154700538379253
 10
-233.4545063950878
 20
360.9646384089988
 30
0.0
 41
1.0
  0
CIRCLE
  5
18A
330
6C
100
AcDbEntity
  8
Sichtbare Kanten(DIN)
100
AcDbCircle
 10
-238.3619836831996
 20
398.4646384089987
 30
0.0
 40
4.99989881604791
  0
CIRCLE
  5
18B
330
6C
100
AcDbEntity
  8
Sichtbare Kanten(DIN)
100
AcDbCircle
 10
-238.3619836831996
 20
398.4646384089987
 30
0.0
 40
7.8
  0
SPLINE
  5
18C
330
6C
100
AcDbEntity
  8
Sichtbare Kanten(DIN)
100
AcDbSpline
210
0.0
220
0.0
230
1.0
 70
    28
 71
     2
 72
     6
 73
     3
 74
     0
 42
0.0000000001
 43
0.0000000001
 40
0.2014629334315162
 40
0.2014629334315162
 40
0.2014629334315162
 40
0.9931707173662314
 40
0.9931707173662314
 40
0.9931707173662314
 10
-247.1119836831997
 20
400.309193842771
 30
0.0
 41
1.05003041164592
 10
-245.2801053459944
 20
403.4821001960953
 30
0.0
 41
1.123319806224795
 10
-243.2694609713115
 20
406.9646384089987
 30
0.0
 41
1.0
  0
SPLINE
  5
18D
330
6C
100
AcDbEntity
  8
Sichtbare Kanten(DIN)
100
AcDbSpline
210
0.0
220
0.0
230
1.0
 70
    28
 71
     2
 72
     6
 73
     3
 74
     0
 42
0.0000000001
 43
0.0000000001
 40
0.0
 40
0.0
 40
0.0
 40
0.7917077839347173
 40
0.7917077839347173
 40
0.7917077839347173
 10
-243.2694609713114
 20
389.9646384089987
 30
0.0
 41
1.0
 10
-245.2801053459944
 20
393.4471766219021
 30
0.0
 41
1.123319806224797
 10
-247.1119836831997
 20
396.6200829752264
 30
0.0
 41
1.050030411645921
  0
SPLINE
  5
18E
330
6C
100
AcDbEntity
  8
Sichtbare Kanten(DIN)
100
AcDbSpline
210
0.0
220
0.0
230
1.0
 70
    28
 71
     2
 72
     6
 73
     3
 74
     0
 42
0.0000000001
 43
0.0000000001
 40
0.0
 40
0.0
 40
0.0
 40
0.9931707173662339
 40
0.9931707173662339
 40
0.9931707173662339
 10
-233.4545063950878
 20
389.9646384089987
 30
0.0
 41
1.0
 10
-238.3619836831996
 20
389.9646384089987
 30
0.0
 41
1.154700538379251
 10
-243.2694609713115
 20
389.9646384089987
 30
0.0
 41
1.0
  0
SPLINE
  5
18F
330
6C
100
AcDbEntity
  8
Sichtbare Kanten(DIN)
100
AcDbSpline
210
0.0
220
0.0
230
1.0
 70
    28
 71
     2
 72
     6
 73
     3
 74
     0
 42
0.0000000001
 43
0.0000000001
 40
0.2014629334315147
 40
0.2014629334315147
 40
0.2014629334315147
 40
0.9931707173662317
 40
0.9931707173662317
 40
0.9931707173662317
 10
-229.6119836831997
 20
396.6200829752264
 30
0.0
 41
1.05003041164592
 10
-231.4438620204049
 20
393.4471766219021
 30
0.0
 41
1.123319806224797
 10
-233.4545063950878
 20
389.9646384089987
 30
0.0
 41
1.0
  0
SPLINE
  5
190
330
6C
100
AcDbEntity
  8
Sichtbare Kanten(DIN)
100
AcDbSpline
210
0.0
220
0.0
230
1.0
 70
    28
 71
     2
 72
     6
 73
     3
 74
     0
 42
0.0000000001
 43
0.0000000001
 40
0.0
 40
0.0
 40
0.0
 40
0.7917077839347176
 40
0.7917077839347176
 40
0.7917077839347176
 10
-233.4545063950878
 20
406.9646384089987
 30
0.0
 41
1.0
 10
-231.4438620204049
 20
403.4821001960953
 30
0.0
 41
1.123319806224795
 10
-229.6119836831997
 20
400.309193842771
 30
0.0
 41
1.05003041164592
  0
SPLINE
  5
191
330
6C
100
AcDbEntity
  8
Sichtbare Kanten(DIN)
100
AcDbSpline
210
0.0
220
0.0
230
1.0
 70
    28
 71
     2
 72
     6
 73
     3
 74
     0
 42
0.0000000001
 43
0.0000000001
 40
0.0
 40
0.0
 40
0.0
 40
0.9931707173662317
 40
0.9931707173662317
 40
0.9931707173662317
 10
-243.2694609713115
 20
406.9646384089987
 30
0.0
 41
1.0
 10
-238.3619836831997
 20
406.9646384089987
 30
0.0
 41
1.154700538379253
 10
-233.4545063950878
 20
406.9646384089987
 30
0.0
 41
1.0
  0
CIRCLE
  5
192
330
6C
100
AcDbEntity
  8
Sichtbare Kanten(DIN)
100
AcDbCircle
 10
-238.3619836831996
 20
867.4646384089987
 30
0.0
 40
4.99989881604791
  0
CIRCLE
  5
193
330
6C
100
AcDbEntity
  8
Sichtbare Kanten(DIN)
100
AcDbCircle
 10
-238.3619836831996
 20
867.4646384089987
 30
0.0
 40
7.8
  0
SPLINE
  5
194
330
6C
100
AcDbEntity
  8
Sichtbare Kanten(DIN)
100
AcDbSpline
210
0.0
220
0.0
230
1.0
 70
    28
 71
     2
 72
     6
 73
     3
 74
     0
 42
0.0000000001
 43
0.0000000001
 40
0.2014629334315162
 40
0.2014629334315162
 40
0.2014629334315162
 40
0.9931707173662314
 40
0.9931707173662314
 40
0.9931707173662314
 10
-247.1119836831997
 20
869.3091938427711
 30
0.0
 41
1.05003041164592
 10
-245.2801053459944
 20
872.4821001960952
 30
0.0
 41
1.123319806224795
 10
-243.2694609713115
 20
875.9646384089988
 30
0.0
 41
1.0
  0
SPLINE
  5
195
330
6C
100
AcDbEntity
  8
Sichtbare Kanten(DIN)
100
AcDbSpline
210
0.0
220
0.0
230
1.0
 70
    28
 71
     2
 72
     6
 73
     3
 74
     0
 42
0.0000000001
 43
0.0000000001
 40
0.0
 40
0.0
 40
0.0
 40
0.7917077839347173
 40
0.7917077839347173
 40
0.7917077839347173
 10
-243.2694609713114
 20
858.9646384089988
 30
0.0
 41
1.0
 10
-245.2801053459944
 20
862.4471766219022
 30
0.0
 41
1.123319806224797
 10
-247.1119836831997
 20
865.6200829752265
 30
0.0
 41
1.050030411645921
  0
SPLINE
  5
196
330
6C
100
AcDbEntity
  8
Sichtbare Kanten(DIN)
100
AcDbSpline
210
0.0
220
0.0
230
1.0
 70
    28
 71
     2
 72
     6
 73
     3
 74
     0
 42
0.0000000001
 43
0.0000000001
 40
0.0
 40
0.0
 40
0.0
 40
0.9931707173662339
 40
0.9931707173662339
 40
0.9931707173662339
 10
-233.4545063950878
 20
858.9646384089988
 30
0.0
 41
1.0
 10
-238.3619836831996
 20
858.9646384089988
 30
0.0
 41
1.154700538379251
 10
-243.2694609713115
 20
858.9646384089988
 30
0.0
 41
1.0
  0
SPLINE
  5
197
330
6C
100
AcDbEntity
  8
Sichtbare Kanten(DIN)
100
AcDbSpline
210
0.0
220
0.0
230
1.0
 70
    28
 71
     2
 72
     6
 73
     3
 74
     0
 42
0.0000000001
 43
0.0000000001
 40
0.2014629334315147
 40
0.2014629334315147
 40
0.2014629334315147
 40
0.9931707173662317
 40
0.9931707173662317
 40
0.9931707173662317
 10
-229.6119836831997
 20
865.6200829752265
 30
0.0
 41
1.05003041164592
 10
-231.4438620204049
 20
862.4471766219022
 30
0.0
 41
1.123319806224797
 10
-233.4545063950878
 20
858.9646384089988
 30
0.0
 41
1.0
  0
SPLINE
  5
198
330
6C
100
AcDbEntity
  8
Sichtbare Kanten(DIN)
100
AcDbSpline
210
0.0
220
0.0
230
1.0
 70
    28
 71
     2
 72
     6
 73
     3
 74
     0
 42
0.0000000001
 43
0.0000000001
 40
0.0
 40
0.0
 40
0.0
 40
0.7917077839347176
 40
0.7917077839347176
 40
0.7917077839347176
 10
-233.4545063950878
 20
875.9646384089988
 30
0.0
 41
1.0
 10
-231.4438620204049
 20
872.4821001960952
 30
0.0
 41
1.123319806224795
 10
-229.6119836831997
 20
869.3091938427711
 30
0.0
 41
1.05003041164592
  0
SPLINE
  5
199
330
6C
100
AcDbEntity
  8
Sichtbare Kanten(DIN)
100
AcDbSpline
210
0.0
220
0.0
230
1.0
 70
    28
 71
     2
 72
     6
 73
     3
 74
     0
 42
0.0000000001
 43
0.0000000001
 40
0.0
 40
0.0
 40
0.0
 40
0.9931707173662317
 40
0.9931707173662317
 40
0.9931707173662317
 10
-243.2694609713115
 20
875.9646384089988
 30
0.0
 41
1.0
 10
-238.3619836831997
 20
875.9646384089988
 30
0.0
 41
1.154700538379253
 10
-233.4545063950878
 20
875.9646384089988
 30
0.0
 41
1.0
  0
CIRCLE
  5
19A
330
6C
100
AcDbEntity
  8
Sichtbare Kanten(DIN)
100
AcDbCircle
 10
-238.3619836831996
 20
913.4646384089988
 30
0.0
 40
4.99989881604791
  0
CIRCLE
  5
19B
330
6C
100
AcDbEntity
  8
Sichtbare Kanten(DIN)
100
AcDbCircle
 10
-238.3619836831996
 20
913.4646384089988
 30
0.0
 40
7.8
  0
SPLINE
  5
19C
330
6C
100
AcDbEntity
  8
Sichtbare Kanten(DIN)
100
AcDbSpline
210
0.0
220
0.0
230
1.0
 70
    28
 71
     2
 72
     6
 73
     3
 74
     0
 42
0.0000000001
 43
0.0000000001
 40
0.2014629334315162
 40
0.2014629334315162
 40
0.2014629334315162
 40
0.9931707173662314
 40
0.9931707173662314
 40
0.9931707173662314
 10
-247.1119836831997
 20
915.3091938427712
 30
0.0
 41
1.05003041164592
 10
-245.2801053459944
 20
918.4821001960953
 30
0.0
 41
1.123319806224795
 10
-243.2694609713115
 20
921.9646384089987
 30
0.0
 41
1.0
  0
SPLINE
  5
19D
330
6C
100
AcDbEntity
  8
Sichtbare Kanten(DIN)
100
AcDbSpline
210
0.0
220
0.0
230
1.0
 70
    28
 71
     2
 72
     6
 73
     3
 74
     0
 42
0.0000000001
 43
0.0000000001
 40
0.0
 40
0.0
 40
0.0
 40
0.7917077839347173
 40
0.7917077839347173
 40
0.7917077839347173
 10
-243.2694609713114
 20
904.9646384089987
 30
0.0
 41
1.0
 10
-245.2801053459944
 20
908.4471766219021
 30
0.0
 41
1.123319806224797
 10
-247.1119836831997
 20
911.6200829752266
 30
0.0
 41
1.050030411645921
  0
SPLINE
  5
19E
330
6C
100
AcDbEntity
  8
Sichtbare Kanten(DIN)
100
AcDbSpline
210
0.0
220
0.0
230
1.0
 70
    28
 71
     2
 72
     6
 73
     3
 74
     0
 42
0.0000000001
 43
0.0000000001
 40
0.0
 40
0.0
 40
0.0
 40
0.9931707173662339
 40
0.9931707173662339
 40
0.9931707173662339
 10
-233.4545063950878
 20
904.9646384089987
 30
0.0
 41
1.0
 10
-238.3619836831996
 20
904.9646384089987
 30
0.0
 41
1.154700538379251
 10
-243.2694609713115
 20
904.9646384089987
 30
0.0
 41
1.0
  0
SPLINE
  5
19F
330
6C
100
AcDbEntity
  8
Sichtbare Kanten(DIN)
100
AcDbSpline
210
0.0
220
0.0
230
1.0
 70
    28
 71
     2
 72
     6
 73
     3
 74
     0
 42
0.0000000001
 43
0.0000000001
 40
0.2014629334315147
 40
0.2014629334315147
 40
0.2014629334315147
 40
0.9931707173662317
 40
0.9931707173662317
 40
0.9931707173662317
 10
-229.6119836831997
 20
911.6200829752266
 30
0.0
 41
1.05003041164592
 10
-231.4438620204049
 20
908.4471766219021
 30
0.0
 41
1.123319806224797
 10
-233.4545063950878
 20
904.9646384089987
 30
0.0
 41
1.0
  0
SPLINE
  5
1A0
330
6C
100
AcDbEntity
  8
Sichtbare Kanten(DIN)
100
AcDbSpline
210
0.0
220
0.0
230
1.0
 70
    28
 71
     2
 72
     6
 73
     3
 74
     0
 42
0.0000000001
 43
0.0000000001
 40
0.0
 40
0.0
 40
0.0
 40
0.7917077839347176
 40
0.7917077839347176
 40
0.7917077839347176
 10
-233.4545063950878
 20
921.9646384089987
 30
0.0
 41
1.0
 10
-231.4438620204049
 20
918.4821001960953
 30
0.0
 41
1.123319806224795
 10
-229.6119836831997
 20
915.309193842771
 30
0.0
 41
1.05003041164592
  0
SPLINE
  5
1A1
330
6C
100
AcDbEntity
  8
Sichtbare Kanten(DIN)
100
AcDbSpline
210
0.0
220
0.0
230
1.0
 70
    28
 71
     2
 72
     6
 73
     3
 74
     0
 42
0.0000000001
 43
0.0000000001
 40
0.0
 40
0.0
 40
0.0
 40
0.9931707173662317
 40
0.9931707173662317
 40
0.9931707173662317
 10
-243.2694609713115
 20
921.9646384089987
 30
0.0
 41
1.0
 10
-238.3619836831997
 20
921.9646384089987
 30
0.0
 41
1.154700538379253
 10
-233.4545063950878
 20
921.9646384089987
 30
0.0
 41
1.0
  0
CIRCLE
  5
1A2
330
6C
100
AcDbEntity
  8
Sichtbare Kanten(DIN)
100
AcDbCircle
 10
-238.3619836831996
 20
-345.5353615910022
 30
0.0
 40
5.000000000000005
  0
CIRCLE
  5
1A3
330
6C
100
AcDbEntity
  8
Sichtbare Kanten(DIN)
100
AcDbCircle
 10
-238.3619836831996
 20
-345.5353615910022
 30
0.0
 40
4.079825000000006
  0
CIRCLE
  5
1A4
330
6C
100
AcDbEntity
  8
Sichtbare Kanten(DIN)
100
AcDbCircle
 10
-238.3619836831996
 20
-393.5353615910022
 30
0.0
 40
5.000000000000005
  0
CIRCLE
  5
1A5
330
6C
100
AcDbEntity
  8
Sichtbare Kanten(DIN)
100
AcDbCircle
 10
-238.3619836831996
 20
-393.5353615910022
 30
0.0
 40
4.079825000000006
  0
CIRCLE
  5
1A6
330
6C
100
AcDbEntity
  8
Sichtbare Kanten(DIN)
100
AcDbCircle
 10
-238.3619836831996
 20
352.4646384089988
 30
0.0
 40
4.079824999999999
  0
CIRCLE
  5
1A7
330
6C
100
AcDbEntity
  8
Sichtbare Kanten(DIN)
100
AcDbCircle
 10
-238.3619836831996
 20
398.4646384089987
 30
0.0
 40
4.079824999999999
  0
CIRCLE
  5
1A8
330
6C
100
AcDbEntity
  8
Sichtbare Kanten(DIN)
100
AcDbCircle
 10
-238.3619836831996
 20
867.4646384089987
 30
0.0
 40
4.079824999999999
  0
CIRCLE
  5
1A9
330
6C
100
AcDbEntity
  8
Sichtbare Kanten(DIN)
100
AcDbCircle
 10
-238.3619836831996
 20
913.4646384089988
 30
0.0
 40
4.079824999999999
  0
ARC
  5
1AA
330
6C
100
AcDbEntity
  8
Sichtbare Kanten(DIN)
100
AcDbCircle
 10
-234.1119836831996
 20
598.9646384089987
 30
0.0
 40
1.999999999999999
100
AcDbArc
 50
0.0
 51
90.0
  0
ARC
  5
1AB
330
6C
100
AcDbEntity
  8
Sichtbare Kanten(DIN)
100
AcDbCircle
 10
-242.1119836831997
 20
598.9646384089987
 30
0.0
 40
1.999999999999996
100
AcDbArc
 50
90.0
 51
180.0
  0
ARC
  5
1AC
330
6C
100
AcDbEntity
  8
Sichtbare Kanten(DIN)
100
AcDbCircle
 10
-242.1119836831997
 20
565.9646384089987
 30
0.0
 40
1.999999999999999
100
AcDbArc
 50
180.0
 51
270.0
  0
ARC
  5
1AD
330
6C
100
AcDbEntity
  8
Sichtbare Kanten(DIN)
100
AcDbCircle
 10
-234.1119836831996
 20
565.9646384089987
 30
0.0
 40
1.999999999999995
100
AcDbArc
 50
270.0
 51
0.0
  0
LINE
  5
1AE
330
6C
100
AcDbEntity
  8
Sichtbare Kanten(DIN)
100
AcDbLine
 10
-242.1119836831997
 20
600.9646384089988
 30
0.0
 11
-234.1119836831996
 21
600.9646384089988
 31
0.0
  0
LINE
  5
1AF
330
6C
100
AcDbEntity
  8
Sichtbare Kanten(DIN)
100
AcDbLine
 10
-244.1119836831997
 20
565.9646384089987
 30
0.0
 11
-244.1119836831997
 21
598.9646384089987
 31
0.0
  0
LINE
  5
1B0
330
6C
100
AcDbEntity
  8
Sichtbare Kanten(DIN)
100
AcDbLine
 10
-234.1119836831997
 20
563.9646384089988
 30
0.0
 11
-242.1119836831997
 21
563.9646384089988
 31
0.0
  0
LINE
  5
1B1
330
6C
100
AcDbEntity
  8
Sichtbare Kanten(DIN)
100
AcDbLine
 10
-232.1119836831996
 20
598.9646384089987
 30
0.0
 11
-232.1119836831996
 21
565.9646384089987
 31
0.0
  0
LINE
  5
1B2
330
6C
100
AcDbEntity
  8
Sichtbare Kanten(DIN)
100
AcDbLine
 10
-270.8619836831996
 20
732.9636288268646
 30
0.0
 11
-270.8619836831996
 21
719.9656479911325
 31
0.0
  0
LINE
  5
1B3
330
6C
100
AcDbEntity
  8
Sichtbare Kanten(DIN)
100
AcDbLine
 10
-268.3619892154477
 20
723.2152442439143
 30
0.0
 11
-268.3619892154477
 21
719.9656479911325
 31
0.0
  0
LINE
  5
1B4
330
6C
100
AcDbEntity
  8
Sichtbare Kanten(DIN)
100
AcDbLine
 10
-268.3619892154477
 20
729.7131237626807
 30
0.0
 11
-268.3619892154477
 21
723.2152442439143
 31
0.0
  0
LINE
  5
1B5
330
6C
100
AcDbEntity
  8
Sichtbare Kanten(DIN)
100
AcDbLine
 10
-268.3619892154477
 20
732.9636288268646
 30
0.0
 11
-268.3619892154477
 21
729.7131237626807
 31
0.0
  0
SPLINE
  5
1B6
330
6C
100
AcDbEntity
  8
Sichtbare Kanten(DIN)
100
AcDbSpline
210
0.0
220
0.0
230
1.0
 70
    28
 71
     2
 72
     6
 73
     3
 74
     0
 42
0.0000000001
 43
0.0000000001
 40
-1.124627947690298
 40
-1.124627947690298
 40
-1.124627947690298
 40
-1.077262803111848
 40
-1.077262803111848
 40
-1.077262803111848
 10
-263.3619836831996
 20
719.9646384089986
 30
0.0
 41
1.749526049693424
 10
-263.4009225690955
 20
719.9646384089986
 30
0.0
 41
1.741056965308061
 10
-263.4431176170727
 20
719.9646384089986
 30
0.0
 41
1.731971758524152
  0
LINE
  5
1B7
330
6C
100
AcDbEntity
  8
Sichtbare Kanten(DIN)
100
AcDbLine
 10
-263.4431176170697
 20
719.9646384089986
 30
0.0
 11
-267.7808497493296
 21
719.9646384089986
 31
0.0
  0
SPLINE
  5
1B8
330
6C
100
AcDbEntity
  8
Sichtbare Kanten(DIN)
100
AcDbSpline
210
0.0
220
0.0
230
1.0
 70
    28
 71
     2
 72
     6
 73
     3
 74
     0
 42
0.0000000001
 43
0.0000000001
 40
1.77566059583807
 40
1.77566059583807
 40
1.77566059583807
 40
2.474086895284691
 40
2.474086895284691
 40
2.474086895284691
 10
-268.3614063329303
 20
719.9646384089986
 30
0.0
 41
1.865915906183151
 10
-268.3614063329303
 20
719.9646384089986
 30
0.0
 41
1.865915906183152
 10
-267.7808497493264
 20
719.9646384089986
 30
0.0
 41
1.731949171540978
  0
SPLINE
  5
1B9
330
6C
100
AcDbEntity
  8
Sichtbare Kanten(DIN)
100
AcDbSpline
210
0.0
220
0.0
230
1.0
 70
    12
 71
     2
 72
     6
 73
     3
 74
     0
 42
0.0000000001
 43
0.0000000001
 40
-2.474107258536928
 40
-2.474107258536928
 40
-2.474107258536928
 40
-1.775653410536109
 40
-1.775653410536109
 40
-1.775653410536109
 10
-267.7808497493266
 20
719.9646384089897
 30
0.0
 41
1.731958727282716
 10
-268.3614243848721
 20
721.7063623156223
 30
0.0
 41
1.865930688897227
 10
-268.3614063323257
 20
723.2147394653871
 30
0.0
 41
1.865926200913706
  0
SPLINE
  5
1BA
330
6C
100
AcDbEntity
  8
Sichtbare Kanten(DIN)
100
AcDbSpline
210
0.0
220
0.0
230
1.0
 70
    12
 71
     2
 72
     6
 73
     3
 74
     0
 42
0.0000000001
 43
0.0000000001
 40
-1.775653410536109
 40
-1.775653410536109
 40
-1.775653410536109
 40
-1.077246356570589
 40
-1.077246356570589
 40
-1.077246356570589
 10
-268.3614063323257
 20
723.2147394653871
 30
0.0
 41
1.865926200913706
 10
-268.3613882809019
 20
724.7230228142857
 30
0.0
 41
1.865921713230865
 10
-267.7808497493266
 20
726.4646384090077
 30
0.0
 41
1.731958727282693
  0
SPLINE
  5
1BB
330
6C
100
AcDbEntity
  8
Sichtbare Kanten(DIN)
100
AcDbSpline
210
0.0
220
0.0
230
1.0
 70
    12
 71
     2
 72
     6
 73
     3
 74
     0
 42
0.0000000001
 43
0.0000000001
 40
-2.474107415682652
 40
-2.474107415682652
 40
-2.474107415682652
 40
-1.775910738780336
 40
-1.775910738780336
 40
-1.775910738780336
 10
-267.7808497493263
 20
726.4646384089899
 30
0.0
 41
1.731958801025472
 10
-268.3612259353303
 20
728.2057669669983
 30
0.0
 41
1.865881433647487
 10
-268.3614062725417
 20
729.7136285537511
 30
0.0
 41
1.865926265497913
  0
SPLINE
  5
1BC
330
6C
100
AcDbEntity
  8
Sichtbare Kanten(DIN)
100
AcDbSpline
210
0.0
220
0.0
230
1.0
 70
    12
 71
     2
 72
     6
 73
     3
 74
     0
 42
0.0000000001
 43
0.0000000001
 40
-1.775910738780336
 40
-1.775910738780336
 40
-1.775910738780336
 40
-1.077246449640557
 40
-1.077246449640557
 40
-1.077246449640557
 10
-268.3614062725417
 20
729.7136285537511
 30
0.0
 41
1.865926265497913
 10
-268.3615867218584
 20
731.222427491415
 30
0.0
 41
1.865971127374151
 10
-267.7808497493264
 20
732.9646384090076
 30
0.0
 41
1.731958801025495
  0
SPLINE
  5
1BD
330
6C
100
AcDbEntity
  8
Sichtbare Kanten(DIN)
100
AcDbSpline
210
0.0
220
0.0
230
1.0
 70
    28
 71
     2
 72
     6
 73
     3
 74
     0
 42
0.0000000001
 43
0.0000000001
 40
-2.474107415682773
 40
-2.474107415682773
 40
-2.474107415682773
 40
-1.775676932661595
 40
-1.775676932661595
 40
-1.775676932661595
 10
-267.7808497493264
 20
732.9646384089985
 30
0.0
 41
1.731958801025519
 10
-268.3614063329303
 20
732.9646384089985
 30
0.0
 41
1.865926280510914
 10
-268.3614063329303
 20
732.9646384089985
 30
0.0
 41
1.865926280510914
  0
SPLINE
  5
1BE
330
6C
100
AcDbEntity
  8
Sichtbare Kanten(DIN)
100
AcDbSpline
210
0.0
220
0.0
230
1.0
 70
    12
 71
     2
 72
     6
 73
     3
 74
     0
 42
0.0000000001
 43
0.0000000001
 40
1.077228047977996
 40
1.077228047977996
 40
1.077228047977996
 40
1.124592381209598
 40
1.124592381209598
 40
1.124592381209598
 10
-263.4431176170724
 20
719.9646384089897
 30
0.0
 41
1.731944220687911
 10
-263.4009225690954
 20
720.0912235529203
 30
0.0
 41
1.741029283019699
 10
-263.3619836831996
 20
720.2154386159211
 30
0.0
 41
1.749498232749107
  0
SPLINE
  5
1BF
330
6C
100
AcDbEntity
  8
Sichtbare Kanten(DIN)
100
AcDbSpline
210
0.0
220
0.0
230
1.0
 70
    12
 71
     2
 72
     6
 73
     3
 74
     0
 42
0.0000000001
 43
0.0000000001
 40
1.077228043332424
 40
1.077228043332424
 40
1.077228043332424
 40
1.124592376455819
 40
1.124592376455819
 40
1.124592376455819
 10
-263.4431176170728
 20
726.4646384089896
 30
0.0
 41
1.731944217006958
 10
-263.4009225690955
 20
726.591223552921
 30
0.0
 41
1.741029279319483
 10
-263.3619836831996
 20
726.7154386159224
 30
0.0
 41
1.749498229030931
  0
SPLINE
  5
1C0
330
6C
100
AcDbEntity
  8
Sichtbare Kanten(DIN)
100
AcDbSpline
210
0.0
220
0.0
230
1.0
 70
    12
 71
     2
 72
     6
 73
     3
 74
     0
 42
0.0000000001
 43
0.0000000001
 40
2.426712011796795
 40
2.426712011796795
 40
2.426712011796795
 40
2.474076345028458
 40
2.474076345028458
 40
2.474076345028458
 10
-263.3619836831996
 20
726.2138382020761
 30
0.0
 41
1.749498232749108
 10
-263.4009225690954
 20
726.3380532650769
 30
0.0
 41
1.74102928301969
 10
-263.4431176170725
 20
726.4646384090077
 30
0.0
 41
1.73194422068789
  0
LINE
  5
1C1
330
6C
100
AcDbEntity
  8
Sichtbare Kanten(DIN)
100
AcDbLine
 10
-263.4431176170697
 20
726.4646384089985
 30
0.0
 11
-267.7808497493296
 21
726.4646384089985
 31
0.0
  0
SPLINE
  5
1C2
330
6C
100
AcDbEntity
  8
Sichtbare Kanten(DIN)
100
AcDbSpline
210
0.0
220
0.0
230
1.0
 70
    12
 71
     2
 72
     6
 73
     3
 74
     0
 42
0.0000000001
 43
0.0000000001
 40
-1.124592376455816
 40
-1.124592376455816
 40
-1.124592376455816
 40
-1.077228043332483
 40
-1.077228043332483
 40
-1.077228043332483
 10
-263.3619836831996
 20
732.7138382020754
 30
0.0
 41
1.74949822903093
 10
-263.4009225690955
 20
732.8380532650766
 30
0.0
 41
1.741029279319493
 10
-263.4431176170727
 20
732.9646384090079
 30
0.0
 41
1.731944217006981
  0
LINE
  5
1C3
330
6C
100
AcDbEntity
  8
Sichtbare Kanten(DIN)
100
AcDbLine
 10
-263.4431176170697
 20
732.9646384089985
 30
0.0
 11
-267.7808497493296
 21
732.9646384089985
 31
0.0
  0
SPLINE
  5
1C4
330
6C
100
AcDbEntity
  8
Sichtbare Kanten(DIN)
100
AcDbSpline
210
0.0
220
0.0
230
1.0
 70
    28
 71
     2
 72
     6
 73
     3
 74
     0
 42
0.0000000001
 43
0.0000000001
 40
-2.474076345107797
 40
-2.474076345107797
 40
-2.474076345107797
 40
-2.426712011874932
 40
-2.426712011874932
 40
-2.426712011874932
 10
-263.4431176170727
 20
732.9646384089985
 30
0.0
 41
1.731944220725056
 10
-263.4009225690955
 20
732.9646384089985
 30
0.0
 41
1.741029283057072
 10
-263.3619836831996
 20
732.9646384089984
 30
0.0
 41
1.74949823278669
  0
LINE
  5
1C5
330
6C
100
AcDbEntity
  8
Sichtbare Kanten(DIN)
100
AcDbLine
 10
-268.3619892154477
 20
719.9656479911325
 30
0.0
 11
-270.8619836831996
 21
719.9656479911325
 31
0.0
  0
LINE
  5
1C6
330
6C
100
AcDbEntity
  8
Sichtbare Kanten(DIN)
100
AcDbLine
 10
-268.3619892154477
 20
732.9636288268646
 30
0.0
 11
-270.8619836831996
 21
732.9636288268646
 31
0.0
  0
LINE
  5
1C7
330
6C
100
AcDbEntity
  8
Sichtbare Kanten(DIN)
100
AcDbLine
 10
-273.0969836831997
 20
730.4646384089985
 30
0.0
 11
-273.0969836831997
 21
722.4646384089985
 31
0.0
  0
LINE
  5
1C8
330
6C
100
AcDbEntity
  8
Sichtbare Kanten(DIN)
100
AcDbLine
 10
-208.0619836831997
 20
719.9651384089985
 30
0.0
 11
-208.0619836831997
 21
723.2148884100541
 31
0.0
  0
LINE
  5
1C9
330
6C
100
AcDbEntity
  8
Sichtbare Kanten(DIN)
100
AcDbLine
 10
-208.0619836831997
 20
732.9641384089986
 30
0.0
 11
-208.0619836831997
 21
729.7143884089985
 31
0.0
  0
LINE
  5
1CA
330
6C
100
AcDbEntity
  8
Sichtbare Kanten(DIN)
100
AcDbLine
 10
-208.0619836831997
 20
729.7143884089985
 30
0.0
 11
-208.0619836831997
 21
723.2148884100541
 31
0.0
  0
SPLINE
  5
1CB
330
6C
100
AcDbEntity
  8
Sichtbare Kanten(DIN)
100
AcDbSpline
210
0.0
220
0.0
230
1.0
 70
    28
 71
     2
 72
     6
 73
     3
 74
     0
 42
0.0000000001
 43
0.0000000001
 40
-2.421473249123656
 40
-2.421473249123656
 40
-2.421473249123656
 40
-1.733764437109856
 40
-1.733764437109856
 40
-1.733764437109856
 10
-208.642828941937
 20
732.9646384089984
 30
0.0
 41
1.707281335835153
 10
-208.0622723585425
 20
732.9646384089985
 30
0.0
 41
1.839340006693853
 10
-208.0622723583341
 20
732.9646384089984
 30
0.0
 41
1.839340006744932
  0
SPLINE
  5
1CC
330
6C
100
AcDbEntity
  8
Sichtbare Kanten(DIN)
100
AcDbSpline
210
0.0
220
0.0
230
1.0
 70
    12
 71
     2
 72
     6
 73
     3
 74
     0
 42
0.0000000001
 43
0.0000000001
 40
-1.73376443684381
 40
-1.73376443684381
 40
-1.73376443684381
 40
-1.046055624564007
 40
-1.046055624564007
 40
-1.046055624564007
 10
-208.062272358335
 20
729.7146384089991
 30
0.0
 41
1.839340006744617
 10
-208.062272358335
 20
731.2229686582
 30
0.0
 41
1.839340006744624
 10
-208.642828941938
 20
732.9646384090064
 30
0.0
 41
1.707281335834885
  0
SPLINE
  5
1CD
330
6C
100
AcDbEntity
  8
Sichtbare Kanten(DIN)
100
AcDbSpline
210
0.0
220
0.0
230
1.0
 70
    12
 71
     2
 72
     6
 73
     3
 74
     0
 42
0.0000000001
 43
0.0000000001
 40
-2.421473249123666
 40
-2.421473249123666
 40
-2.421473249123666
 40
-1.73376443684381
 40
-1.73376443684381
 40
-1.73376443684381
 10
-208.6428289419382
 20
726.4646384089917
 30
0.0
 41
1.707281335834835
 10
-208.062272358335
 20
728.2063081597985
 30
0.0
 41
1.839340006744609
 10
-208.062272358335
 20
729.7146384089992
 30
0.0
 41
1.839340006744616
  0
SPLINE
  5
1CE
330
6C
100
AcDbEntity
  8
Sichtbare Kanten(DIN)
100
AcDbSpline
210
0.0
220
0.0
230
1.0
 70
    12
 71
     2
 72
     6
 73
     3
 74
     0
 42
0.0000000001
 43
0.0000000001
 40
-1.733764436577879
 40
-1.733764436577879
 40
-1.733764436577879
 40
-1.046055624563814
 40
-1.046055624563814
 40
-1.046055624563814
 10
-208.0622723583338
 20
723.2146384101655
 30
0.0
 41
1.839340006745021
 10
-208.0622723585423
 20
724.722968658825
 30
0.0
 41
1.839340006693941
 10
-208.6428289419373
 20
726.4646384090066
 30
0.0
 41
1.707281335835126
  0
SPLINE
  5
1CF
330
6C
100
AcDbEntity
  8
Sichtbare Kanten(DIN)
100
AcDbSpline
210
0.0
220
0.0
230
1.0
 70
    28
 71
     2
 72
     6
 73
     3
 74
     0
 42
0.0000000001
 43
0.0000000001
 40
-1.733764437110132
 40
-1.733764437110132
 40
-1.733764437110132
 40
-1.046055624564065
 40
-1.046055624564065
 40
-1.046055624564065
 10
-208.0622723583341
 20
719.9646384089986
 30
0.0
 41
1.839340006744932
 10
-208.0622723581254
 20
719.9646384089986
 30
0.0
 41
1.839340006796064
 10
-208.6428289419371
 20
719.9646384089986
 30
0.0
 41
1.707281335835153
  0
SPLINE
  5
1D0
330
6C
100
AcDbEntity
  8
Sichtbare Kanten(DIN)
100
AcDbSpline
210
0.0
220
0.0
230
1.0
 70
    12
 71
     2
 72
     6
 73
     3
 74
     0
 42
0.0000000001
 43
0.0000000001
 40
-2.421473249123825
 40
-2.421473249123825
 40
-2.421473249123825
 40
-1.733764436577879
 40
-1.733764436577879
 40
-1.733764436577879
 10
-208.6428289419371
 20
719.9646384089914
 30
0.0
 41
1.707281335835176
 10
-208.0622723581254
 20
721.7063081604235
 30
0.0
 41
1.839340006796101
 10
-208.0622723583338
 20
723.2146384101655
 30
0.0
 41
1.83934000674502
  0
LINE
  5
1D1
330
6C
100
AcDbEntity
  8
Sichtbare Kanten(DIN)
100
AcDbLine
 10
-208.642828941935
 20
732.9646384089985
 30
0.0
 11
-213.3619836831996
 21
732.9646384089985
 31
0.0
  0
LINE
  5
1D2
330
6C
100
AcDbEntity
  8
Sichtbare Kanten(DIN)
100
AcDbLine
 10
-208.642828941935
 20
726.4646384089985
 30
0.0
 11
-213.3619836831996
 21
726.4646384089985
 31
0.0
  0
LINE
  5
1D3
330
6C
100
AcDbEntity
  8
Sichtbare Kanten(DIN)
100
AcDbLine
 10
-208.642828941935
 20
719.9646384089986
 30
0.0
 11
-213.3619836831996
 21
719.9646384089986
 31
0.0
  0
LINE
  5
1D4
330
6C
100
AcDbEntity
  8
Sichtbare Kanten(DIN)
100
AcDbLine
 10
-273.8619836831997
 20
723.2296384089986
 30
0.0
 11
-273.8619836831997
 21
729.6996384089984
 31
0.0
  0
LINE
  5
1D5
330
6C
100
AcDbEntity
  8
Sichtbare Kanten(DIN)
100
AcDbLine
 10
-273.0969836831997
 20
730.4646384089985
 30
0.0
 11
-270.8619836831996
 21
730.4646384089985
 31
0.0
  0
LINE
  5
1D6
330
6C
100
AcDbEntity
  8
Sichtbare Kanten(DIN)
100
AcDbLine
 10
-273.0969836831997
 20
722.4646384089985
 30
0.0
 11
-270.8619836831996
 21
722.4646384089985
 31
0.0
  0
LINE
  5
1D7
330
6C
100
AcDbEntity
  8
Sichtbare Kanten(DIN)
100
AcDbLine
 10
-273.8619836831997
 20
729.6996384089984
 30
0.0
 11
-273.0969836831997
 21
730.4646384089985
 31
0.0
  0
LINE
  5
1D8
330
6C
100
AcDbEntity
  8
Sichtbare Kanten(DIN)
100
AcDbLine
 10
-273.8619836831997
 20
723.2296384089986
 30
0.0
 11
-273.0969836831997
 21
722.4646384089985
 31
0.0
  0
ARC
  5
1D9
330
6C
100
AcDbEntity
  8
Sichtbare Kanten(DIN)
100
AcDbCircle
 10
-238.3619836831996
 20
813.4646384089986
 30
0.0
 40
8.499499999999999
100
AcDbArc
 50
30.00000000598243
 51
89.99999999404122
  0
ARC
  5
1DA
330
6C
100
AcDbEntity
  8
Sichtbare Kanten(DIN)
100
AcDbCircle
 10
-238.3619836831996
 20
813.4646384089986
 30
0.0
 40
8.499499999999999
100
AcDbArc
 50
89.99999999404145
 51
150.0000000000009
  0
ARC
  5
1DB
330
6C
100
AcDbEntity
  8
Sichtbare Kanten(DIN)
100
AcDbCircle
 10
-238.3619836831996
 20
813.4646384089986
 30
0.0
 40
8.49950000000004
100
AcDbArc
 50
150.0000000000009
 51
210.0000000059468
  0
ARC
  5
1DC
330
6C
100
AcDbEntity
  8
Sichtbare Kanten(DIN)
100
AcDbCircle
 10
-238.3619836831997
 20
813.4646384089986
 30
0.0
 40
8.499499999999928
100
AcDbArc
 50
210.0000000059474
 51
269.9999999944419
  0
ARC
  5
1DD
330
6C
100
AcDbEntity
  8
Sichtbare Kanten(DIN)
100
AcDbCircle
 10
-238.3619836831996
 20
813.4646384089984
 30
0.0
 40
8.499499999999896
100
AcDbArc
 50
269.9999999944409
 51
330.0000000000093
  0
ARC
  5
1DE
330
6C
100
AcDbEntity
  8
Sichtbare Kanten(DIN)
100
AcDbCircle
 10
-238.3619836831996
 20
813.4646384089986
 30
0.0
 40
8.499500000000006
100
AcDbArc
 50
330.0000000000087
 51
30.00000000598351
  0
SPLINE
  5
1DF
330
6C
100
AcDbEntity
  8
Sichtbare Kanten(DIN)
100
AcDbSpline
210
0.0
220
0.0
230
1.0
 70
    28
 71
     2
 72
     6
 73
     3
 74
     0
 42
0.0000000001
 43
0.0000000001
 40
-2.944487656504096
 40
-2.944487656504096
 40
-2.944487656504096
 40
-2.090230614749411
 40
-2.090230614749411
 40
-2.090230614749411
 10
-233.4545063950835
 20
804.9646384089987
 30
0.0
 41
1.627996173941586
 10
-236.0844155480389
 20
804.9646384089987
 30
0.0
 41
1.753922116261934
 10
-238.361983684143
 20
804.9646384089987
 30
0.0
 41
1.753922116235857
  0
SPLINE
  5
1E0
330
6C
100
AcDbEntity
  8
Sichtbare Kanten(DIN)
100
AcDbSpline
210
0.0
220
0.0
230
1.0
 70
    28
 71
     2
 72
     6
 73
     3
 74
     0
 42
0.0000000001
 43
0.0000000001
 40
-2.090230614926401
 40
-2.090230614926401
 40
-2.090230614926401
 40
-1.235973573348675
 40
-1.235973573348675
 40
-1.235973573348675
 10
-231.000767751028
 20
809.214638408998
 30
0.0
 41
1.753922116235314
 10
-232.1395518188615
 20
807.2422065446607
 30
0.0
 41
1.75392211623536
 10
-233.4545063950866
 20
804.9646384089935
 30
0.0
 41
1.627996173941216
  0
SPLINE
  5
1E1
330
6C
100
AcDbEntity
  8
Sichtbare Kanten(DIN)
100
AcDbSpline
210
0.0
220
0.0
230
1.0
 70
    28
 71
     2
 72
     6
 73
     3
 74
     0
 42
0.0000000001
 43
0.0000000001
 40
-2.597918579320453
 40
-2.597918579320453
 40
-2.597918579320453
 40
-2.090230614926401
 40
-2.090230614926401
 40
-2.090230614926401
 10
-229.6119836831997
 20
811.6200829752186
 30
0.0
 41
1.709445492681769
 10
-230.3239843741945
 20
810.3868616033917
 30
0.0
 41
1.753922116235286
 10
-231.000767751028
 20
809.214638408998
 30
0.0
 41
1.753922116235313
  0
SPLINE
  5
1E2
330
6C
100
AcDbEntity
  8
Sichtbare Kanten(DIN)
100
AcDbSpline
210
0.0
220
0.0
230
1.0
 70
    28
 71
     2
 72
     6
 73
     3
 74
     0
 42
0.0000000001
 43
0.0000000001
 40
-2.090230615103894
 40
-2.090230615103894
 40
-2.090230615103894
 40
-1.582542650530753
 40
-1.582542650530753
 40
-1.582542650530753
 10
-231.0007677515053
 20
817.714638409819
 30
0.0
 41
1.75392211623582
 10
-230.3239843744393
 20
816.5424152150226
 30
0.0
 41
1.753922116251378
 10
-229.6119836831997
 20
815.3091938427715
 30
0.0
 41
1.709445492682048
  0
SPLINE
  5
1E3
330
6C
100
AcDbEntity
  8
Sichtbare Kanten(DIN)
100
AcDbSpline
210
0.0
220
0.0
230
1.0
 70
    28
 71
     2
 72
     6
 73
     3
 74
     0
 42
0.0000000001
 43
0.0000000001
 40
-2.597918579321856
 40
-2.597918579321856
 40
-2.597918579321856
 40
-2.090230614926361
 40
-2.090230614926361
 40
-2.090230614926361
 10
-247.1119836831997
 20
815.3091938427715
 30
0.0
 41
1.709445492682049
 10
-246.3999829922029
 20
816.5424152146021
 30
0.0
 41
1.753922116235818
 10
-245.7231996153677
 20
817.7146384089985
 30
0.0
 41
1.753922116235823
  0
SPLINE
  5
1E4
330
6C
100
AcDbEntity
  8
Sichtbare Kanten(DIN)
100
AcDbSpline
210
0.0
220
0.0
230
1.0
 70
    28
 71
     2
 72
     6
 73
     3
 74
     0
 42
0.0000000001
 43
0.0000000001
 40
-2.090230615102836
 40
-2.090230615102836
 40
-2.090230615102836
 40
-1.582542650530755
 40
-1.582542650530755
 40
-1.582542650530755
 10
-245.7231996148969
 20
809.214638408183
 30
0.0
 41
1.753922116235819
 10
-246.3999829919615
 20
810.3868616029769
 30
0.0
 41
1.753922116251285
 10
-247.1119836831997
 20
811.6200829752255
 30
0.0
 41
1.709445492682047
  0
SPLINE
  5
1E5
330
6C
100
AcDbEntity
  8
Sichtbare Kanten(DIN)
100
AcDbSpline
210
0.0
220
0.0
230
1.0
 70
    28
 71
     2
 72
     6
 73
     3
 74
     0
 42
0.0000000001
 43
0.0000000001
 40
-2.944487656504097
 40
-2.944487656504097
 40
-2.944487656504097
 40
-2.090230614749414
 40
-2.090230614749414
 40
-2.090230614749414
 10
-243.2694609713158
 20
821.9646384089987
 30
0.0
 41
1.627996173941586
 10
-240.6395518183604
 20
821.9646384089987
 30
0.0
 41
1.753922116261934
 10
-238.3619836822564
 20
821.9646384089987
 30
0.0
 41
1.753922116235857
  0
SPLINE
  5
1E6
330
6C
100
AcDbEntity
  8
Sichtbare Kanten(DIN)
100
AcDbSpline
210
0.0
220
0.0
230
1.0
 70
    28
 71
     2
 72
     6
 73
     3
 74
     0
 42
0.0000000001
 43
0.0000000001
 40
-2.090230614926361
 40
-2.090230614926361
 40
-2.090230614926361
 40
-1.235973573348595
 40
-1.235973573348595
 40
-1.235973573348595
 10
-245.7231996153677
 20
817.7146384089985
 30
0.0
 41
1.753922116235824
 10
-244.5844155475344
 20
819.6870702733354
 30
0.0
 41
1.753922116235832
 10
-243.2694609713095
 20
821.9646384090024
 30
0.0
 41
1.62799617394158
  0
SPLINE
  5
1E7
330
6C
100
AcDbEntity
  8
Sichtbare Kanten(DIN)
100
AcDbSpline
210
0.0
220
0.0
230
1.0
 70
    28
 71
     2
 72
     6
 73
     3
 74
     0
 42
0.0000000001
 43
0.0000000001
 40
-2.090230614749414
 40
-2.090230614749414
 40
-2.090230614749414
 40
-1.235973573348528
 40
-1.235973573348528
 40
-1.235973573348528
 10
-238.3619836822564
 20
821.9646384089987
 30
0.0
 41
1.753922116235857
 10
-236.0844155470279
 20
821.9646384089985
 30
0.0
 41
1.75392211620978
 10
-233.4545063950835
 20
821.9646384089987
 30
0.0
 41
1.627996173941586
  0
SPLINE
  5
1E8
330
6C
100
AcDbEntity
  8
Sichtbare Kanten(DIN)
100
AcDbSpline
210
0.0
220
0.0
230
1.0
 70
    28
 71
     2
 72
     6
 73
     3
 74
     0
 42
0.0000000001
 43
0.0000000001
 40
-2.944487656504001
 40
-2.944487656504001
 40
-2.944487656504001
 40
-2.090230615103894
 40
-2.090230615103894
 40
-2.090230615103894
 10
-233.4545063950898
 20
821.9646384090022
 30
0.0
 41
1.627996173941578
 10
-232.1395518191187
 20
819.6870702737751
 30
0.0
 41
1.753922116209641
 10
-231.0007677515053
 20
817.714638409819
 30
0.0
 41
1.75392211623582
  0
SPLINE
  5
1E9
330
6C
100
AcDbEntity
  8
Sichtbare Kanten(DIN)
100
AcDbSpline
210
0.0
220
0.0
230
1.0
 70
    28
 71
     2
 72
     6
 73
     3
 74
     0
 42
0.0000000001
 43
0.0000000001
 40
1.235973573348596
 40
1.235973573348596
 40
1.235973573348596
 40
2.090230614749761
 40
2.090230614749761
 40
2.090230614749761
 10
-243.2694609713096
 20
804.964638408995
 30
0.0
 41
1.627996173941577
 10
-244.5844155472822
 20
807.2422065442246
 30
0.0
 41
1.753922116209796
 10
-245.7231996148969
 20
809.2146384081832
 30
0.0
 41
1.753922116235819
  0
SPLINE
  5
1EA
330
6C
100
AcDbEntity
  8
Sichtbare Kanten(DIN)
100
AcDbSpline
210
0.0
220
0.0
230
1.0
 70
    28
 71
     2
 72
     6
 73
     3
 74
     0
 42
0.0000000001
 43
0.0000000001
 40
-2.090230614749411
 40
-2.090230614749411
 40
-2.090230614749411
 40
-1.235973573348529
 40
-1.235973573348529
 40
-1.235973573348529
 10
-238.3619836841429
 20
804.9646384089983
 30
0.0
 41
1.753922116235857
 10
-240.6395518193715
 20
804.9646384089987
 30
0.0
 41
1.75392211620978
 10
-243.2694609713158
 20
804.9646384089985
 30
0.0
 41
1.627996173941586
  0
ARC
  5
1EB
330
6C
100
AcDbEntity
  8
Sichtbare Kanten(DIN)
100
AcDbCircle
 10
-238.3619836831997
 20
767.4646384089985
 30
0.0
 40
8.499500000000052
100
AcDbArc
 50
30.00000000598325
 51
89.99999999404145
  0
ARC
  5
1EC
330
6C
100
AcDbEntity
  8
Sichtbare Kanten(DIN)
100
AcDbCircle
 10
-238.3619836831996
 20
767.4646384089986
 30
0.0
 40
8.499500000000008
100
AcDbArc
 50
89.99999999404145
 51
150.0000000000009
  0
ARC
  5
1ED
330
6C
100
AcDbEntity
  8
Sichtbare Kanten(DIN)
100
AcDbCircle
 10
-238.3619836831996
 20
767.4646384089986
 30
0.0
 40
8.499500000000001
100
AcDbArc
 50
150.0000000000007
 51
210.0000000059472
  0
ARC
  5
1EE
330
6C
100
AcDbEntity
  8
Sichtbare Kanten(DIN)
100
AcDbCircle
 10
-238.3619836831996
 20
767.4646384089986
 30
0.0
 40
8.499500000000001
100
AcDbArc
 50
210.0000000059472
 51
269.9999999944412
  0
ARC
  5
1EF
330
6C
100
AcDbEntity
  8
Sichtbare Kanten(DIN)
100
AcDbCircle
 10
-238.3619836831996
 20
767.4646384089986
 30
0.0
 40
8.499500000000008
100
AcDbArc
 50
269.9999999944412
 51
330.0000000000086
  0
ARC
  5
1F0
330
6C
100
AcDbEntity
  8
Sichtbare Kanten(DIN)
100
AcDbCircle
 10
-238.3619836831996
 20
767.4646384089986
 30
0.0
 40
8.499499999999978
100
AcDbArc
 50
330.0000000000087
 51
30.00000000598359
  0
SPLINE
  5
1F1
330
6C
100
AcDbEntity
  8
Sichtbare Kanten(DIN)
100
AcDbSpline
210
0.0
220
0.0
230
1.0
 70
    28
 71
     2
 72
     6
 73
     3
 74
     0
 42
0.0000000001
 43
0.0000000001
 40
-2.944487656504096
 40
-2.944487656504096
 40
-2.944487656504096
 40
-2.090230614749411
 40
-2.090230614749411
 40
-2.090230614749411
 10
-233.4545063950835
 20
758.9646384089985
 30
0.0
 41
1.627996173941586
 10
-236.0844155480389
 20
758.9646384089985
 30
0.0
 41
1.753922116261934
 10
-238.361983684143
 20
758.9646384089985
 30
0.0
 41
1.753922116235857
  0
SPLINE
  5
1F2
330
6C
100
AcDbEntity
  8
Sichtbare Kanten(DIN)
100
AcDbSpline
210
0.0
220
0.0
230
1.0
 70
    28
 71
     2
 72
     6
 73
     3
 74
     0
 42
0.0000000001
 43
0.0000000001
 40
-2.090230614926401
 40
-2.090230614926401
 40
-2.090230614926401
 40
-1.235973573348675
 40
-1.235973573348675
 40
-1.235973573348675
 10
-231.000767751028
 20
763.214638408998
 30
0.0
 41
1.753922116235314
 10
-232.1395518188615
 20
761.2422065446605
 30
0.0
 41
1.75392211623536
 10
-233.4545063950866
 20
758.9646384089937
 30
0.0
 41
1.627996173941216
  0
SPLINE
  5
1F3
330
6C
100
AcDbEntity
  8
Sichtbare Kanten(DIN)
100
AcDbSpline
210
0.0
220
0.0
230
1.0
 70
    28
 71
     2
 72
     6
 73
     3
 74
     0
 42
0.0000000001
 43
0.0000000001
 40
-2.597918579320453
 40
-2.597918579320453
 40
-2.597918579320453
 40
-2.090230614926401
 40
-2.090230614926401
 40
-2.090230614926401
 10
-229.6119836831997
 20
765.6200829752187
 30
0.0
 41
1.709445492681769
 10
-230.3239843741945
 20
764.3868616033917
 30
0.0
 41
1.753922116235286
 10
-231.000767751028
 20
763.214638408998
 30
0.0
 41
1.753922116235313
  0
SPLINE
  5
1F4
330
6C
100
AcDbEntity
  8
Sichtbare Kanten(DIN)
100
AcDbSpline
210
0.0
220
0.0
230
1.0
 70
    28
 71
     2
 72
     6
 73
     3
 74
     0
 42
0.0000000001
 43
0.0000000001
 40
-2.090230615103894
 40
-2.090230615103894
 40
-2.090230615103894
 40
-1.582542650530753
 40
-1.582542650530753
 40
-1.582542650530753
 10
-231.0007677515053
 20
771.714638409819
 30
0.0
 41
1.75392211623582
 10
-230.3239843744393
 20
770.5424152150226
 30
0.0
 41
1.753922116251378
 10
-229.6119836831997
 20
769.3091938427714
 30
0.0
 41
1.709445492682048
  0
SPLINE
  5
1F5
330
6C
100
AcDbEntity
  8
Sichtbare Kanten(DIN)
100
AcDbSpline
210
0.0
220
0.0
230
1.0
 70
    28
 71
     2
 72
     6
 73
     3
 74
     0
 42
0.0000000001
 43
0.0000000001
 40
-2.597918579321856
 40
-2.597918579321856
 40
-2.597918579321856
 40
-2.090230614926361
 40
-2.090230614926361
 40
-2.090230614926361
 10
-247.1119836831997
 20
769.3091938427715
 30
0.0
 41
1.709445492682049
 10
-246.3999829922029
 20
770.542415214602
 30
0.0
 41
1.753922116235818
 10
-245.7231996153677
 20
771.7146384089986
 30
0.0
 41
1.753922116235823
  0
SPLINE
  5
1F6
330
6C
100
AcDbEntity
  8
Sichtbare Kanten(DIN)
100
AcDbSpline
210
0.0
220
0.0
230
1.0
 70
    28
 71
     2
 72
     6
 73
     3
 74
     0
 42
0.0000000001
 43
0.0000000001
 40
-2.090230615102836
 40
-2.090230615102836
 40
-2.090230615102836
 40
-1.582542650530755
 40
-1.582542650530755
 40
-1.582542650530755
 10
-245.7231996148969
 20
763.214638408183
 30
0.0
 41
1.753922116235819
 10
-246.3999829919615
 20
764.386861602977
 30
0.0
 41
1.753922116251285
 10
-247.1119836831997
 20
765.6200829752257
 30
0.0
 41
1.709445492682047
  0
SPLINE
  5
1F7
330
6C
100
AcDbEntity
  8
Sichtbare Kanten(DIN)
100
AcDbSpline
210
0.0
220
0.0
230
1.0
 70
    28
 71
     2
 72
     6
 73
     3
 74
     0
 42
0.0000000001
 43
0.0000000001
 40
-2.944487656504097
 40
-2.944487656504097
 40
-2.944487656504097
 40
-2.090230614749414
 40
-2.090230614749414
 40
-2.090230614749414
 10
-243.2694609713158
 20
775.9646384089984
 30
0.0
 41
1.627996173941586
 10
-240.6395518183604
 20
775.9646384089986
 30
0.0
 41
1.753922116261934
 10
-238.3619836822564
 20
775.9646384089985
 30
0.0
 41
1.753922116235857
  0
SPLINE
  5
1F8
330
6C
100
AcDbEntity
  8
Sichtbare Kanten(DIN)
100
AcDbSpline
210
0.0
220
0.0
230
1.0
 70
    28
 71
     2
 72
     6
 73
     3
 74
     0
 42
0.0000000001
 43
0.0000000001
 40
-2.090230614926361
 40
-2.090230614926361
 40
-2.090230614926361
 40
-1.235973573348595
 40
-1.235973573348595
 40
-1.235973573348595
 10
-245.7231996153677
 20
771.7146384089986
 30
0.0
 41
1.753922116235824
 10
-244.5844155475344
 20
773.6870702733356
 30
0.0
 41
1.753922116235832
 10
-243.2694609713095
 20
775.9646384090022
 30
0.0
 41
1.62799617394158
  0
SPLINE
  5
1F9
330
6C
100
AcDbEntity
  8
Sichtbare Kanten(DIN)
100
AcDbSpline
210
0.0
220
0.0
230
1.0
 70
    28
 71
     2
 72
     6
 73
     3
 74
     0
 42
0.0000000001
 43
0.0000000001
 40
-2.090230614749414
 40
-2.090230614749414
 40
-2.090230614749414
 40
-1.235973573348528
 40
-1.235973573348528
 40
-1.235973573348528
 10
-238.3619836822564
 20
775.9646384089985
 30
0.0
 41
1.753922116235857
 10
-236.0844155470279
 20
775.9646384089985
 30
0.0
 41
1.75392211620978
 10
-233.4545063950835
 20
775.9646384089984
 30
0.0
 41
1.627996173941586
  0
SPLINE
  5
1FA
330
6C
100
AcDbEntity
  8
Sichtbare Kanten(DIN)
100
AcDbSpline
210
0.0
220
0.0
230
1.0
 70
    28
 71
     2
 72
     6
 73
     3
 74
     0
 42
0.0000000001
 43
0.0000000001
 40
-2.944487656504001
 40
-2.944487656504001
 40
-2.944487656504001
 40
-2.090230615103894
 40
-2.090230615103894
 40
-2.090230615103894
 10
-233.4545063950898
 20
775.9646384090022
 30
0.0
 41
1.627996173941578
 10
-232.1395518191187
 20
773.6870702737751
 30
0.0
 41
1.753922116209641
 10
-231.0007677515053
 20
771.714638409819
 30
0.0
 41
1.75392211623582
  0
SPLINE
  5
1FB
330
6C
100
AcDbEntity
  8
Sichtbare Kanten(DIN)
100
AcDbSpline
210
0.0
220
0.0
230
1.0
 70
    28
 71
     2
 72
     6
 73
     3
 74
     0
 42
0.0000000001
 43
0.0000000001
 40
1.235973573348596
 40
1.235973573348596
 40
1.235973573348596
 40
2.090230614749761
 40
2.090230614749761
 40
2.090230614749761
 10
-243.2694609713096
 20
758.964638408995
 30
0.0
 41
1.627996173941577
 10
-244.5844155472822
 20
761.2422065442245
 30
0.0
 41
1.753922116209796
 10
-245.7231996148969
 20
763.214638408183
 30
0.0
 41
1.753922116235819
  0
SPLINE
  5
1FC
330
6C
100
AcDbEntity
  8
Sichtbare Kanten(DIN)
100
AcDbSpline
210
0.0
220
0.0
230
1.0
 70
    28
 71
     2
 72
     6
 73
     3
 74
     0
 42
0.0000000001
 43
0.0000000001
 40
-2.090230614749411
 40
-2.090230614749411
 40
-2.090230614749411
 40
-1.235973573348529
 40
-1.235973573348529
 40
-1.235973573348529
 10
-238.3619836841429
 20
758.9646384089985
 30
0.0
 41
1.753922116235857
 10
-240.6395518193715
 20
758.9646384089985
 30
0.0
 41
1.75392211620978
 10
-243.2694609713158
 20
758.9646384089985
 30
0.0
 41
1.627996173941586
  0
LINE
  5
1FD
330
6C
100
AcDbEntity
  8
Sichtbare Kanten(DIN)
100
AcDbLine
 10
463.0691274242352
 20
930.9646384089987
 30
0.0
 11
463.5691274242353
 21
930.9646384089987
 31
0.0
  0
LINE
  5
1FE
330
6C
100
AcDbEntity
  8
Sichtbare Kanten(DIN)
100
AcDbLine
 10
463.5691274242353
 20
-469.0353615910012
 30
0.0
 11
463.0691274242352
 21
-469.0353615910012
 31
0.0
  0
LINE
  5
1FF
330
6C
100
AcDbEntity
  8
Sichtbare Kanten(DIN)
100
AcDbLine
 10
463.5691274242353
 20
-469.0353615910012
 30
0.0
 11
463.5691274242353
 21
930.9646384089987
 31
0.0
  0
LINE
  5
200
330
6C
100
AcDbEntity
  8
Sichtbare Kanten(DIN)
100
AcDbLine
 10
458.5691274242353
 20
930.9646384089987
 30
0.0
 11
459.0691274242352
 21
930.9646384089987
 31
0.0
  0
LINE
  5
201
330
6C
100
AcDbEntity
  8
Sichtbare Kanten(DIN)
100
AcDbLine
 10
458.5691274242353
 20
930.9646384089987
 30
0.0
 11
458.5691274242353
 21
-469.0353615910012
 31
0.0
  0
LINE
  5
202
330
6C
100
AcDbEntity
  8
Sichtbare Kanten(DIN)
100
AcDbLine
 10
459.0691274242352
 20
-469.0353615910012
 30
0.0
 11
458.5691274242353
 21
-469.0353615910012
 31
0.0
  0
LINE
  5
203
330
6C
100
AcDbEntity
  8
Sichtbare Kanten(DIN)
100
AcDbLine
 10
463.0691274242352
 20
930.9646384089987
 30
0.0
 11
459.0691274242352
 21
930.9646384089987
 31
0.0
  0
LINE
  5
204
330
6C
100
AcDbEntity
  8
Sichtbare Kanten(DIN)
100
AcDbLine
 10
459.0691274242352
 20
-469.0353615910012
 30
0.0
 11
463.0691274242352
 21
-469.0353615910012
 31
0.0
  0
LINE
  5
205
330
6C
100
AcDbEntity
  8
Sichtbare Kanten(DIN)
100
AcDbLine
 10
456.0691274242385
 20
930.9646384089987
 30
0.0
 11
441.0691274242385
 21
930.9646384089987
 31
0.0
  0
LINE
  5
206
330
6C
100
AcDbEntity
  8
Sichtbare Kanten(DIN)
100
AcDbLine
 10
441.0691274242385
 20
-469.0353615910012
 30
0.0
 11
456.0691274242385
 21
-469.0353615910012
 31
0.0
  0
LINE
  5
207
330
6C
100
AcDbEntity
  8
Sichtbare Kanten(DIN)
100
AcDbLine
 10
433.5691274242407
 20
930.9646384089987
 30
0.0
 11
441.0691274242385
 21
930.9646384089987
 31
0.0
  0
LINE
  5
208
330
6C
100
AcDbEntity
  8
Sichtbare Kanten(DIN)
100
AcDbLine
 10
433.5691274242407
 20
930.9646384089987
 30
0.0
 11
433.5691274242407
 21
927.3447302333934
 31
0.0
  0
LINE
  5
209
330
6C
100
AcDbEntity
  8
Sichtbare Kanten(DIN)
100
AcDbLine
 10
433.5691274242407
 20
854.5845465846038
 30
0.0
 11
433.5691274242407
 21
830.4646384089986
 31
0.0
  0
LINE
  5
20A
330
6C
100
AcDbEntity
  8
Sichtbare Kanten(DIN)
100
AcDbLine
 10
433.5691274242407
 20
702.4646384089987
 30
0.0
 11
433.5691274242407
 21
412.3447302333934
 31
0.0
  0
LINE
  5
20B
330
6C
100
AcDbEntity
  8
Sichtbare Kanten(DIN)
100
AcDbLine
 10
433.5691274242407
 20
339.584546584604
 30
0.0
 11
433.5691274242407
 21
-317.0353615910012
 31
0.0
  0
LINE
  5
20C
330
6C
100
AcDbEntity
  8
Sichtbare Kanten(DIN)
100
AcDbLine
 10
433.5691274242407
 20
-437.0353615910011
 30
0.0
 11
433.5691274242407
 21
-469.0353615910012
 31
0.0
  0
LINE
  5
20D
330
6C
100
AcDbEntity
  8
Sichtbare Kanten(DIN)
100
AcDbLine
 10
441.0691274242385
 20
-469.0353615910012
 30
0.0
 11
433.5691274242407
 21
-469.0353615910012
 31
0.0
  0
LINE
  5
20E
330
6C
100
AcDbEntity
  8
Sichtbare Kanten(DIN)
100
AcDbLine
 10
458.5691274242377
 20
930.9646384089987
 30
0.0
 11
456.0691274242384
 21
930.9646384089987
 31
0.0
  0
LINE
  5
20F
330
6C
100
AcDbEntity
  8
Sichtbare Kanten(DIN)
100
AcDbLine
 10
456.0691274242384
 20
-469.0353615910012
 30
0.0
 11
458.5691274242377
 21
-469.0353615910012
 31
0.0
  0
LINE
  5
210
330
6C
100
AcDbEntity
  8
Sichtbare Kanten(DIN)
100
AcDbLine
 10
382.5691274242383
 20
-555.0353615910011
 30
0.0
 11
383.5691274242381
 21
-554.0353615910011
 31
0.0
  0
LINE
  5
211
330
6C
100
AcDbEntity
  8
Sichtbare Kanten(DIN)
100
AcDbLine
 10
383.5691274242381
 20
-554.0353615910011
 30
0.0
 11
383.5691274242381
 21
-317.0353615910014
 31
0.0
  0
LINE
  5
212
330
6C
100
AcDbEntity
  8
Sichtbare Kanten(DIN)
100
AcDbLine
 10
383.5691274242381
 20
-317.0353615910014
 30
0.0
 11
381.5691274242387
 21
-317.0353615910014
 31
0.0
  0
LINE
  5
213
330
6C
100
AcDbEntity
  8
Sichtbare Kanten(DIN)
100
AcDbLine
 10
381.5691274242387
 20
-317.0353615910014
 30
0.0
 11
381.5691274242387
 21
-554.0353615910011
 31
0.0
  0
LINE
  5
214
330
6C
100
AcDbEntity
  8
Sichtbare Kanten(DIN)
100
AcDbLine
 10
381.5691274242387
 20
-554.0353615910011
 30
0.0
 11
382.5691274242383
 21
-555.0353615910011
 31
0.0
  0
LINE
  5
215
330
6C
100
AcDbEntity
  8
Sichtbare Kanten(DIN)
100
AcDbLine
 10
409.5691274242381
 20
-554.0353615910011
 30
0.0
 11
410.5691274242383
 21
-555.0353615910011
 31
0.0
  0
LINE
  5
216
330
6C
100
AcDbEntity
  8
Sichtbare Kanten(DIN)
100
AcDbLine
 10
410.5691274242383
 20
-555.0353615910011
 30
0.0
 11
411.5691274242387
 21
-554.0353615910011
 31
0.0
  0
LINE
  5
217
330
6C
100
AcDbEntity
  8
Sichtbare Kanten(DIN)
100
AcDbLine
 10
411.5691274242387
 20
-554.0353615910011
 30
0.0
 11
411.5691274242387
 21
-437.0353615910011
 31
0.0
  0
LINE
  5
218
330
6C
100
AcDbEntity
  8
Sichtbare Kanten(DIN)
100
AcDbLine
 10
409.5691274242381
 20
-342.0353615910014
 30
0.0
 11
409.5691274242381
 21
-364.5353615910014
 31
0.0
  0
LINE
  5
219
330
6C
100
AcDbEntity
  8
Sichtbare Kanten(DIN)
100
AcDbLine
 10
409.5691274242381
 20
-389.5353615910013
 30
0.0
 11
409.5691274242381
 21
-412.0353615910013
 31
0.0
  0
LINE
  5
21A
330
6C
100
AcDbEntity
  8
Sichtbare Kanten(DIN)
100
AcDbLine
 10
409.5691274242381
 20
-437.0353615910012
 30
0.0
 11
409.5691274242381
 21
-554.0353615910011
 31
0.0
  0
LINE
  5
21B
330
6C
100
AcDbEntity
  8
Sichtbare Kanten(DIN)
100
AcDbLine
 10
386.5691274242396
 20
-559.0353615910011
 30
0.0
 11
382.5691274242383
 21
-555.0353615910011
 31
0.0
  0
LINE
  5
21C
330
6C
100
AcDbEntity
  8
Sichtbare Kanten(DIN)
100
AcDbLine
 10
386.5691274242396
 20
-559.0353615910011
 30
0.0
 11
406.5691274242396
 21
-559.0353615910011
 31
0.0
  0
LINE
  5
21D
330
6C
100
AcDbEntity
  8
Sichtbare Kanten(DIN)
100
AcDbLine
 10
406.5691274242396
 20
-559.0353615910011
 30
0.0
 11
410.5691274242383
 21
-555.0353615910011
 31
0.0
  0
LINE
  5
21E
330
6C
100
AcDbEntity
  8
Sichtbare Kanten(DIN)
100
AcDbLine
 10
409.5691274242381
 20
-554.0353615910011
 30
0.0
 11
383.5691274242381
 21
-554.0353615910011
 31
0.0
  0
LINE
  5
21F
330
6C
100
AcDbEntity
  8
Sichtbare Kanten(DIN)
100
AcDbLine
 10
383.5691274242381
 20
-317.0353615910014
 30
0.0
 11
407.827470037464
 21
-317.0353615910014
 31
0.0
  0
LINE
  5
220
330
6C
100
AcDbEntity
  8
Sichtbare Kanten(DIN)
100
AcDbLine
 10
442.5691274242374
 20
-437.0353615910012
 30
0.0
 11
411.5691274242374
 21
-437.0353615910012
 31
0.0
  0
LINE
  5
221
330
6C
100
AcDbEntity
  8
Sichtbare Kanten(DIN)
100
AcDbLine
 10
442.5691274242374
 20
-437.0353615910012
 30
0.0
 11
442.5691274242374
 21
-317.0353615910016
 31
0.0
  0
LINE
  5
222
330
6C
100
AcDbEntity
  8
Sichtbare Kanten(DIN)
100
AcDbLine
 10
442.5691274242374
 20
-317.0353615910016
 30
0.0
 11
411.5691274242374
 21
-317.0353615910016
 31
0.0
  0
LINE
  5
223
330
6C
100
AcDbEntity
  8
Sichtbare Kanten(DIN)
100
AcDbLine
 10
411.5691274242374
 20
-437.0353615910012
 30
0.0
 11
411.5691274242374
 21
-317.0353615910016
 31
0.0
  0
LINE
  5
224
330
6C
100
AcDbEntity
  8
Sichtbare Kanten(DIN)
100
AcDbLine
 10
400.5691274242558
 20
-116.6340640641323
 30
0.0
 11
400.5691274242511
 21
-317.0353615910014
 31
0.0
  0
LINE
  5
225
330
6C
100
AcDbEntity
  8
Sichtbare Kanten(DIN)
100
AcDbLine
 10
400.5691274242558
 20
-116.6340640641323
 30
0.0
 11
392.5691274242558
 21
-116.6340640641323
 31
0.0
  0
LINE
  5
226
330
6C
100
AcDbEntity
  8
Sichtbare Kanten(DIN)
100
AcDbLine
 10
392.5691274242558
 20
-116.6340640641323
 30
0.0
 11
392.5691274242512
 21
-317.0353615910014
 31
0.0
  0
SPLINE
  5
227
330
6C
100
AcDbEntity
  8
Sichtbare Kanten(DIN)
100
AcDbSpline
210
0.0
220
0.0
230
1.0
 70
    12
 71
     2
 72
     6
 73
     3
 74
     0
 42
0.0000000001
 43
0.0000000001
 40
0.3807113172039047
 40
0.3807113172039047
 40
0.3807113172039047
 40
0.7614226344078095
 40
0.7614226344078095
 40
0.7614226344078095
 10
380.4190274242527
 20
-372.7853615910015
 30
0.0
 41
1.0
 10
380.419027424253
 20
-374.2936918401991
 30
0.0
 41
1.037954849302045
 10
380.999584007854
 20
-376.0353615910014
 30
0.0
 41
1.0
  0
LINE
  5
228
330
6C
100
AcDbEntity
  8
Sichtbare Kanten(DIN)
100
AcDbLine
 10
380.4190274242528
 20
-372.7853615910015
 30
0.0
 11
380.4190274242544
 21
-376.0353615910014
 31
0.0
  0
SPLINE
  5
229
330
6C
100
AcDbEntity
  8
Sichtbare Kanten(DIN)
100
AcDbSpline
210
0.0
220
0.0
230
1.0
 70
    28
 71
     2
 72
     6
 73
     3
 74
     0
 42
0.0000000001
 43
0.0000000001
 40
0.0
 40
0.0
 40
0.0
 40
0.3807113172039049
 40
0.3807113172039049
 40
0.3807113172039049
 10
380.999584007854
 20
-376.0353615910014
 30
0.0
 41
1.0
 10
380.4190274242539
 20
-376.0353615910014
 30
0.0
 41
1.037954849302044
 10
380.4190274242543
 20
-376.0353615910014
 30
0.0
 41
1.0
  0
SPLINE
  5
22A
330
6C
100
AcDbEntity
  8
Sichtbare Kanten(DIN)
100
AcDbSpline
210
0.0
220
0.0
230
1.0
 70
    12
 71
     2
 72
     6
 73
     3
 74
     0
 42
0.0000000001
 43
0.0000000001
 40
0.3807113172039052
 40
0.3807113172039052
 40
0.3807113172039052
 40
0.7614226344078104
 40
0.7614226344078104
 40
0.7614226344078104
 10
380.4190274242527
 20
-366.2853615910015
 30
0.0
 41
1.0
 10
380.4190274242524
 20
-367.7936918401991
 30
0.0
 41
1.037954849302019
 10
380.9995840078529
 20
-369.5353615910014
 30
0.0
 41
1.0
  0
LINE
  5
22B
330
6C
100
AcDbEntity
  8
Sichtbare Kanten(DIN)
100
AcDbLine
 10
380.4190274242527
 20
-366.2853615910015
 30
0.0
 11
380.4190274242528
 21
-372.7853615910015
 31
0.0
  0
SPLINE
  5
22C
330
6C
100
AcDbEntity
  8
Sichtbare Kanten(DIN)
100
AcDbSpline
210
0.0
220
0.0
230
1.0
 70
    12
 71
     2
 72
     6
 73
     3
 74
     0
 42
0.0000000001
 43
0.0000000001
 40
0.0
 40
0.0
 40
0.0
 40
0.3807113172039047
 40
0.3807113172039047
 40
0.3807113172039047
 10
380.9995840078529
 20
-369.5353615910014
 30
0.0
 41
1.0
 10
380.4190274242524
 20
-371.2770313418038
 30
0.0
 41
1.037954849302035
 10
380.4190274242527
 20
-372.7853615910015
 30
0.0
 41
1.0
  0
SPLINE
  5
22D
330
6C
100
AcDbEntity
  8
Sichtbare Kanten(DIN)
100
AcDbSpline
210
0.0
220
0.0
230
1.0
 70
    28
 71
     2
 72
     6
 73
     3
 74
     0
 42
0.0000000001
 43
0.0000000001
 40
0.3807113172039045
 40
0.3807113172039045
 40
0.3807113172039045
 40
0.761422634407809
 40
0.761422634407809
 40
0.761422634407809
 10
380.4190274242543
 20
-363.0353615910014
 30
0.0
 41
1.0
 10
380.4190274242539
 20
-363.0353615910014
 30
0.0
 41
1.037954849302044
 10
380.999584007854
 20
-363.0353615910014
 30
0.0
 41
1.0
  0
LINE
  5
22E
330
6C
100
AcDbEntity
  8
Sichtbare Kanten(DIN)
100
AcDbLine
 10
380.4190274242544
 20
-363.0353615910014
 30
0.0
 11
380.4190274242528
 21
-366.2853615910015
 31
0.0
  0
SPLINE
  5
22F
330
6C
100
AcDbEntity
  8
Sichtbare Kanten(DIN)
100
AcDbSpline
210
0.0
220
0.0
230
1.0
 70
    12
 71
     2
 72
     6
 73
     3
 74
     0
 42
0.0000000001
 43
0.0000000001
 40
0.0
 40
0.0
 40
0.0
 40
0.3807113172039052
 40
0.3807113172039052
 40
0.3807113172039052
 10
380.999584007854
 20
-363.0353615910014
 30
0.0
 41
1.0
 10
380.419027424253
 20
-364.7770313418038
 30
0.0
 41
1.037954849302053
 10
380.4190274242527
 20
-366.2853615910015
 30
0.0
 41
1.0
  0
LINE
  5
230
330
6C
100
AcDbEntity
  8
Sichtbare Kanten(DIN)
100
AcDbLine
 10
381.5691274242533
 20
-363.0353615910014
 30
0.0
 11
380.999584007854
 21
-363.0353615910014
 31
0.0
  0
LINE
  5
231
330
6C
100
AcDbEntity
  8
Sichtbare Kanten(DIN)
100
AcDbLine
 10
381.5691274242522
 20
-369.5353615910014
 30
0.0
 11
380.9995840078529
 21
-369.5353615910014
 31
0.0
  0
LINE
  5
232
330
6C
100
AcDbEntity
  8
Sichtbare Kanten(DIN)
100
AcDbLine
 10
381.5691274242533
 20
-376.0353615910014
 30
0.0
 11
380.999584007854
 21
-376.0353615910014
 31
0.0
  0
CIRCLE
  5
233
330
6C
100
AcDbEntity
  8
Sichtbare Kanten(DIN)
100
AcDbCircle
 10
417.5691274241906
 20
891.4690991236827
 30
0.0
 40
12.99999999999999
  0
CIRCLE
  5
234
330
6C
100
AcDbEntity
  8
Sichtbare Kanten(DIN)
100
AcDbCircle
 10
417.5691274241906
 20
376.4690991236827
 30
0.0
 40
12.99999999999998
  0
LINE
  5
235
330
6C
100
AcDbEntity
  8
Sichtbare Kanten(DIN)
100
AcDbLine
 10
428.5691274242425
 20
853.4646384089988
 30
0.0
 11
428.5691274242388
 21
858.5128045620098
 31
0.0
  0
LINE
  5
236
330
6C
100
AcDbEntity
  8
Sichtbare Kanten(DIN)
100
AcDbLine
 10
428.5691274242388
 20
923.4164722559874
 30
0.0
 11
428.5691274242388
 21
898.3973023539581
 31
0.0
  0
LINE
  5
237
330
6C
100
AcDbEntity
  8
Sichtbare Kanten(DIN)
100
AcDbLine
 10
428.5691274242388
 20
884.5408958934072
 30
0.0
 11
428.5691274242388
 21
858.5128045620102
 31
0.0
  0
LINE
  5
238
330
6C
100
AcDbEntity
  8
Sichtbare Kanten(DIN)
100
AcDbLine
 10
428.5691274242388
 20
923.4164722559874
 30
0.0
 11
428.5691274242425
 21
928.4646384089988
 31
0.0
  0
LINE
  5
239
330
6C
100
AcDbEntity
  8
Sichtbare Kanten(DIN)
100
AcDbLine
 10
433.5691274242407
 20
927.3447302333934
 30
0.0
 11
433.5691274242389
 21
923.4164722559874
 31
0.0
  0
LINE
  5
23A
330
6C
100
AcDbEntity
  8
Sichtbare Kanten(DIN)
100
AcDbLine
 10
433.5691274242389
 20
858.5128045620102
 30
0.0
 11
433.5691274242389
 21
923.4164722559874
 31
0.0
  0
LINE
  5
23B
330
6C
100
AcDbEntity
  8
Sichtbare Kanten(DIN)
100
AcDbLine
 10
433.5691274242389
 20
858.5128045620102
 30
0.0
 11
433.5691274242407
 21
854.5845465846038
 31
0.0
  0
LINE
  5
23C
330
6C
100
AcDbEntity
  8
Sichtbare Kanten(DIN)
100
AcDbLine
 10
428.5691274242388
 20
858.5128045620102
 30
0.0
 11
433.5691274242389
 21
858.5128045620102
 31
0.0
  0
LINE
  5
23D
330
6C
100
AcDbEntity
  8
Sichtbare Kanten(DIN)
100
AcDbLine
 10
433.5691274242389
 20
923.4164722559874
 30
0.0
 11
428.5691274242388
 21
923.4164722559874
 31
0.0
  0
LINE
  5
23E
330
6C
100
AcDbEntity
  8
Sichtbare Kanten(DIN)
100
AcDbLine
 10
433.5691274242425
 20
853.4646384089988
 30
0.0
 11
428.5691274242425
 21
853.4646384089988
 31
0.0
  0
LINE
  5
23F
330
6C
100
AcDbEntity
  8
Sichtbare Kanten(DIN)
100
AcDbLine
 10
433.5691274242425
 20
928.4646384089988
 30
0.0
 11
428.5691274242425
 21
928.4646384089988
 31
0.0
  0
LINE
  5
240
330
6C
100
AcDbEntity
  8
Sichtbare Kanten(DIN)
100
AcDbLine
 10
428.5691274242425
 20
338.4646384089987
 30
0.0
 11
428.5691274242388
 21
343.5128045620101
 31
0.0
  0
LINE
  5
241
330
6C
100
AcDbEntity
  8
Sichtbare Kanten(DIN)
100
AcDbLine
 10
428.5691274242388
 20
408.4164722559872
 30
0.0
 11
428.5691274242388
 21
383.3973023539582
 31
0.0
  0
LINE
  5
242
330
6C
100
AcDbEntity
  8
Sichtbare Kanten(DIN)
100
AcDbLine
 10
428.5691274242388
 20
369.5408958934073
 30
0.0
 11
428.5691274242388
 21
343.5128045620102
 31
0.0
  0
LINE
  5
243
330
6C
100
AcDbEntity
  8
Sichtbare Kanten(DIN)
100
AcDbLine
 10
428.5691274242388
 20
408.4164722559872
 30
0.0
 11
428.5691274242425
 21
413.4646384089986
 31
0.0
  0
LINE
  5
244
330
6C
100
AcDbEntity
  8
Sichtbare Kanten(DIN)
100
AcDbLine
 10
433.5691274242407
 20
412.3447302333934
 30
0.0
 11
433.5691274242389
 21
408.4164722559873
 31
0.0
  0
LINE
  5
245
330
6C
100
AcDbEntity
  8
Sichtbare Kanten(DIN)
100
AcDbLine
 10
433.5691274242389
 20
343.5128045620102
 30
0.0
 11
433.5691274242389
 21
408.4164722559872
 31
0.0
  0
LINE
  5
246
330
6C
100
AcDbEntity
  8
Sichtbare Kanten(DIN)
100
AcDbLine
 10
433.5691274242389
 20
343.5128045620102
 30
0.0
 11
433.5691274242407
 21
339.584546584604
 31
0.0
  0
LINE
  5
247
330
6C
100
AcDbEntity
  8
Sichtbare Kanten(DIN)
100
AcDbLine
 10
428.5691274242388
 20
343.5128045620102
 30
0.0
 11
433.5691274242389
 21
343.5128045620102
 31
0.0
  0
LINE
  5
248
330
6C
100
AcDbEntity
  8
Sichtbare Kanten(DIN)
100
AcDbLine
 10
433.5691274242389
 20
408.4164722559872
 30
0.0
 11
428.5691274242388
 21
408.4164722559872
 31
0.0
  0
LINE
  5
249
330
6C
100
AcDbEntity
  8
Sichtbare Kanten(DIN)
100
AcDbLine
 10
433.5691274242425
 20
338.4646384089988
 30
0.0
 11
428.5691274242425
 21
338.4646384089988
 31
0.0
  0
LINE
  5
24A
330
6C
100
AcDbEntity
  8
Sichtbare Kanten(DIN)
100
AcDbLine
 10
433.5691274242425
 20
413.4646384089986
 30
0.0
 11
428.5691274242425
 21
413.4646384089986
 31
0.0
  0
SPLINE
  5
24B
330
6C
100
AcDbEntity
  8
Sichtbare Kanten(DIN)
100
AcDbSpline
210
0.0
220
0.0
230
1.0
 70
    12
 71
     2
 72
     6
 73
     3
 74
     0
 42
0.0000000001
 43
0.0000000001
 40
0.0
 40
0.0
 40
0.0
 40
0.4978532609589527
 40
0.4978532609589527
 40
0.4978532609589527
 10
422.9282168027959
 20
360.9646384089987
 30
0.0
 41
1.0
 10
422.1690274242406
 20
358.6870702733342
 30
0.0
 41
1.037954849302049
 10
422.1690274242404
 20
356.7146384089988
 30
0.0
 41
1.0
  0
SPLINE
  5
24C
330
6C
100
AcDbEntity
  8
Sichtbare Kanten(DIN)
100
AcDbSpline
210
0.0
220
0.0
230
1.0
 70
    28
 71
     2
 72
     6
 73
     3
 74
     0
 42
0.0000000001
 43
0.0000000001
 40
0.4978532609589533
 40
0.4978532609589533
 40
0.4978532609589533
 40
0.9957065219179064
 40
0.9957065219179064
 40
0.9957065219179064
 10
422.1690274242424
 20
360.9646384089988
 30
0.0
 41
1.0
 10
422.1690274242418
 20
360.9646384089988
 30
0.0
 41
1.037954849302044
 10
422.9282168027959
 20
360.9646384089988
 30
0.0
 41
1.0
  0
LINE
  5
24D
330
6C
100
AcDbEntity
  8
Sichtbare Kanten(DIN)
100
AcDbLine
 10
422.1690274242425
 20
360.9646384089988
 30
0.0
 11
422.1690274242404
 21
356.7146384089988
 31
0.0
  0
SPLINE
  5
24E
330
6C
100
AcDbEntity
  8
Sichtbare Kanten(DIN)
100
AcDbSpline
210
0.0
220
0.0
230
1.0
 70
    12
 71
     2
 72
     6
 73
     3
 74
     0
 42
0.0000000001
 43
0.0000000001
 40
0.0
 40
0.0
 40
0.0
 40
0.4978532609589532
 40
0.4978532609589532
 40
0.4978532609589532
 10
422.9282168027944
 20
352.4646384089988
 30
0.0
 41
1.0
 10
422.16902742424
 20
350.1870702733342
 30
0.0
 41
1.037954849302039
 10
422.1690274242404
 20
348.2146384089988
 30
0.0
 41
1.0
  0
SPLINE
  5
24F
330
6C
100
AcDbEntity
  8
Sichtbare Kanten(DIN)
100
AcDbSpline
210
0.0
220
0.0
230
1.0
 70
    12
 71
     2
 72
     6
 73
     3
 74
     0
 42
0.0000000001
 43
0.0000000001
 40
0.4978532609589527
 40
0.4978532609589527
 40
0.4978532609589527
 40
0.9957065219179055
 40
0.9957065219179055
 40
0.9957065219179055
 10
422.1690274242404
 20
356.7146384089988
 30
0.0
 41
1.0
 10
422.16902742424
 20
354.7422065446633
 30
0.0
 41
1.037954849302046
 10
422.9282168027944
 20
352.4646384089988
 30
0.0
 41
1.0
  0
LINE
  5
250
330
6C
100
AcDbEntity
  8
Sichtbare Kanten(DIN)
100
AcDbLine
 10
422.1690274242404
 20
356.7146384089988
 30
0.0
 11
422.1690274242404
 21
348.2146384089987
 31
0.0
  0
SPLINE
  5
251
330
6C
100
AcDbEntity
  8
Sichtbare Kanten(DIN)
100
AcDbSpline
210
0.0
220
0.0
230
1.0
 70
    28
 71
     2
 72
     6
 73
     3
 74
     0
 42
0.0000000001
 43
0.0000000001
 40
0.0
 40
0.0
 40
0.0
 40
0.4978532609589536
 40
0.4978532609589536
 40
0.4978532609589536
 10
422.9282168027959
 20
343.9646384089988
 30
0.0
 41
1.0
 10
422.1690274242418
 20
343.9646384089988
 30
0.0
 41
1.037954849302041
 10
422.1690274242424
 20
343.9646384089988
 30
0.0
 41
1.0
  0
SPLINE
  5
252
330
6C
100
AcDbEntity
  8
Sichtbare Kanten(DIN)
100
AcDbSpline
210
0.0
220
0.0
230
1.0
 70
    12
 71
     2
 72
     6
 73
     3
 74
     0
 42
0.0000000001
 43
0.0000000001
 40
0.4978532609589532
 40
0.4978532609589532
 40
0.4978532609589532
 40
0.9957065219179064
 40
0.9957065219179064
 40
0.9957065219179064
 10
422.1690274242404
 20
348.2146384089988
 30
0.0
 41
1.0
 10
422.1690274242406
 20
346.2422065446634
 30
0.0
 41
1.037954849302059
 10
422.9282168027959
 20
343.9646384089988
 30
0.0
 41
1.0
  0
LINE
  5
253
330
6C
100
AcDbEntity
  8
Sichtbare Kanten(DIN)
100
AcDbLine
 10
422.1690274242404
 20
348.2146384089987
 30
0.0
 11
422.1690274242425
 21
343.9646384089988
 31
0.0
  0
LINE
  5
254
330
6C
100
AcDbEntity
  8
Sichtbare Kanten(DIN)
100
AcDbLine
 10
427.969027424241
 20
343.9646384089988
 30
0.0
 11
422.9282168027959
 21
343.9646384089988
 31
0.0
  0
LINE
  5
255
330
6C
100
AcDbEntity
  8
Sichtbare Kanten(DIN)
100
AcDbLine
 10
427.969027424241
 20
360.9646384089987
 30
0.0
 11
427.9690274242397
 21
352.4646384089988
 31
0.0
  0
LINE
  5
256
330
6C
100
AcDbEntity
  8
Sichtbare Kanten(DIN)
100
AcDbLine
 10
427.9690274242397
 20
352.4646384089988
 30
0.0
 11
427.969027424241
 21
343.9646384089988
 31
0.0
  0
LINE
  5
257
330
6C
100
AcDbEntity
  8
Sichtbare Kanten(DIN)
100
AcDbLine
 10
427.969027424241
 20
360.9646384089987
 30
0.0
 11
422.9282168027959
 21
360.9646384089987
 31
0.0
  0
LINE
  5
258
330
6C
100
AcDbEntity
  8
Sichtbare Kanten(DIN)
100
AcDbLine
 10
427.9690274242397
 20
352.4646384089988
 30
0.0
 11
422.9282168027944
 21
352.4646384089988
 31
0.0
  0
LINE
  5
259
330
6C
100
AcDbEntity
  8
Sichtbare Kanten(DIN)
100
AcDbLine
 10
427.9690274242425
 20
360.1646384089987
 30
0.0
 11
428.5691274242425
 21
360.1646384089987
 31
0.0
  0
LINE
  5
25A
330
6C
100
AcDbEntity
  8
Sichtbare Kanten(DIN)
100
AcDbLine
 10
427.9690274242425
 20
344.7646384089988
 30
0.0
 11
428.5691274242425
 21
344.7646384089988
 31
0.0
  0
SPLINE
  5
25B
330
6C
100
AcDbEntity
  8
Sichtbare Kanten(DIN)
100
AcDbSpline
210
0.0
220
0.0
230
1.0
 70
    12
 71
     2
 72
     6
 73
     3
 74
     0
 42
0.0000000001
 43
0.0000000001
 40
0.0
 40
0.0
 40
0.0
 40
0.4978532609589527
 40
0.4978532609589527
 40
0.4978532609589527
 10
422.9282168027959
 20
406.9646384089987
 30
0.0
 41
1.0
 10
422.1690274242406
 20
404.6870702733341
 30
0.0
 41
1.037954849302049
 10
422.1690274242404
 20
402.7146384089986
 30
0.0
 41
1.0
  0
SPLINE
  5
25C
330
6C
100
AcDbEntity
  8
Sichtbare Kanten(DIN)
100
AcDbSpline
210
0.0
220
0.0
230
1.0
 70
    28
 71
     2
 72
     6
 73
     3
 74
     0
 42
0.0000000001
 43
0.0000000001
 40
0.4978532609589533
 40
0.4978532609589533
 40
0.4978532609589533
 40
0.9957065219179064
 40
0.9957065219179064
 40
0.9957065219179064
 10
422.1690274242424
 20
406.9646384089987
 30
0.0
 41
1.0
 10
422.1690274242418
 20
406.9646384089987
 30
0.0
 41
1.037954849302044
 10
422.9282168027959
 20
406.9646384089987
 30
0.0
 41
1.0
  0
LINE
  5
25D
330
6C
100
AcDbEntity
  8
Sichtbare Kanten(DIN)
100
AcDbLine
 10
422.1690274242425
 20
406.9646384089987
 30
0.0
 11
422.1690274242404
 21
402.7146384089987
 31
0.0
  0
SPLINE
  5
25E
330
6C
100
AcDbEntity
  8
Sichtbare Kanten(DIN)
100
AcDbSpline
210
0.0
220
0.0
230
1.0
 70
    12
 71
     2
 72
     6
 73
     3
 74
     0
 42
0.0000000001
 43
0.0000000001
 40
0.0
 40
0.0
 40
0.0
 40
0.4978532609589532
 40
0.4978532609589532
 40
0.4978532609589532
 10
422.9282168027944
 20
398.4646384089987
 30
0.0
 41
1.0
 10
422.16902742424
 20
396.1870702733341
 30
0.0
 41
1.037954849302039
 10
422.1690274242404
 20
394.2146384089988
 30
0.0
 41
1.0
  0
SPLINE
  5
25F
330
6C
100
AcDbEntity
  8
Sichtbare Kanten(DIN)
100
AcDbSpline
210
0.0
220
0.0
230
1.0
 70
    12
 71
     2
 72
     6
 73
     3
 74
     0
 42
0.0000000001
 43
0.0000000001
 40
0.4978532609589527
 40
0.4978532609589527
 40
0.4978532609589527
 40
0.9957065219179055
 40
0.9957065219179055
 40
0.9957065219179055
 10
422.1690274242404
 20
402.7146384089986
 30
0.0
 41
1.0
 10
422.16902742424
 20
400.7422065446633
 30
0.0
 41
1.037954849302046
 10
422.9282168027944
 20
398.4646384089987
 30
0.0
 41
1.0
  0
LINE
  5
260
330
6C
100
AcDbEntity
  8
Sichtbare Kanten(DIN)
100
AcDbLine
 10
422.1690274242404
 20
402.7146384089987
 30
0.0
 11
422.1690274242404
 21
394.2146384089987
 31
0.0
  0
SPLINE
  5
261
330
6C
100
AcDbEntity
  8
Sichtbare Kanten(DIN)
100
AcDbSpline
210
0.0
220
0.0
230
1.0
 70
    28
 71
     2
 72
     6
 73
     3
 74
     0
 42
0.0000000001
 43
0.0000000001
 40
0.0
 40
0.0
 40
0.0
 40
0.4978532609589536
 40
0.4978532609589536
 40
0.4978532609589536
 10
422.9282168027959
 20
389.9646384089987
 30
0.0
 41
1.0
 10
422.1690274242418
 20
389.9646384089987
 30
0.0
 41
1.037954849302041
 10
422.1690274242424
 20
389.9646384089987
 30
0.0
 41
1.0
  0
SPLINE
  5
262
330
6C
100
AcDbEntity
  8
Sichtbare Kanten(DIN)
100
AcDbSpline
210
0.0
220
0.0
230
1.0
 70
    12
 71
     2
 72
     6
 73
     3
 74
     0
 42
0.0000000001
 43
0.0000000001
 40
0.4978532609589532
 40
0.4978532609589532
 40
0.4978532609589532
 40
0.9957065219179064
 40
0.9957065219179064
 40
0.9957065219179064
 10
422.1690274242404
 20
394.2146384089988
 30
0.0
 41
1.0
 10
422.1690274242406
 20
392.2422065446633
 30
0.0
 41
1.037954849302059
 10
422.9282168027959
 20
389.9646384089988
 30
0.0
 41
1.0
  0
LINE
  5
263
330
6C
100
AcDbEntity
  8
Sichtbare Kanten(DIN)
100
AcDbLine
 10
422.1690274242404
 20
394.2146384089987
 30
0.0
 11
422.1690274242425
 21
389.9646384089987
 31
0.0
  0
LINE
  5
264
330
6C
100
AcDbEntity
  8
Sichtbare Kanten(DIN)
100
AcDbLine
 10
427.969027424241
 20
389.9646384089988
 30
0.0
 11
422.9282168027959
 21
389.9646384089988
 31
0.0
  0
LINE
  5
265
330
6C
100
AcDbEntity
  8
Sichtbare Kanten(DIN)
100
AcDbLine
 10
427.969027424241
 20
406.9646384089987
 30
0.0
 11
427.9690274242397
 21
398.4646384089987
 31
0.0
  0
LINE
  5
266
330
6C
100
AcDbEntity
  8
Sichtbare Kanten(DIN)
100
AcDbLine
 10
427.9690274242397
 20
398.4646384089987
 30
0.0
 11
427.969027424241
 21
389.9646384089988
 31
0.0
  0
LINE
  5
267
330
6C
100
AcDbEntity
  8
Sichtbare Kanten(DIN)
100
AcDbLine
 10
427.969027424241
 20
406.9646384089987
 30
0.0
 11
422.9282168027959
 21
406.9646384089987
 31
0.0
  0
LINE
  5
268
330
6C
100
AcDbEntity
  8
Sichtbare Kanten(DIN)
100
AcDbLine
 10
427.9690274242397
 20
398.4646384089987
 30
0.0
 11
422.9282168027944
 21
398.4646384089987
 31
0.0
  0
LINE
  5
269
330
6C
100
AcDbEntity
  8
Sichtbare Kanten(DIN)
100
AcDbLine
 10
427.9690274242425
 20
406.1646384089987
 30
0.0
 11
428.5691274242425
 21
406.1646384089987
 31
0.0
  0
LINE
  5
26A
330
6C
100
AcDbEntity
  8
Sichtbare Kanten(DIN)
100
AcDbLine
 10
427.9690274242425
 20
390.7646384089987
 30
0.0
 11
428.5691274242425
 21
390.7646384089987
 31
0.0
  0
SPLINE
  5
26B
330
6C
100
AcDbEntity
  8
Sichtbare Kanten(DIN)
100
AcDbSpline
210
0.0
220
0.0
230
1.0
 70
    12
 71
     2
 72
     6
 73
     3
 74
     0
 42
0.0000000001
 43
0.0000000001
 40
0.0
 40
0.0
 40
0.0
 40
0.4978532609589527
 40
0.4978532609589527
 40
0.4978532609589527
 10
422.9282168027959
 20
875.9646384089988
 30
0.0
 41
1.0
 10
422.1690274242406
 20
873.6870702733343
 30
0.0
 41
1.037954849302049
 10
422.1690274242404
 20
871.7146384089987
 30
0.0
 41
1.0
  0
SPLINE
  5
26C
330
6C
100
AcDbEntity
  8
Sichtbare Kanten(DIN)
100
AcDbSpline
210
0.0
220
0.0
230
1.0
 70
    28
 71
     2
 72
     6
 73
     3
 74
     0
 42
0.0000000001
 43
0.0000000001
 40
0.4978532609589533
 40
0.4978532609589533
 40
0.4978532609589533
 40
0.9957065219179064
 40
0.9957065219179064
 40
0.9957065219179064
 10
422.1690274242424
 20
875.9646384089988
 30
0.0
 41
1.0
 10
422.1690274242418
 20
875.9646384089988
 30
0.0
 41
1.037954849302044
 10
422.9282168027959
 20
875.9646384089988
 30
0.0
 41
1.0
  0
LINE
  5
26D
330
6C
100
AcDbEntity
  8
Sichtbare Kanten(DIN)
100
AcDbLine
 10
422.1690274242425
 20
875.9646384089988
 30
0.0
 11
422.1690274242404
 21
871.7146384089987
 31
0.0
  0
SPLINE
  5
26E
330
6C
100
AcDbEntity
  8
Sichtbare Kanten(DIN)
100
AcDbSpline
210
0.0
220
0.0
230
1.0
 70
    12
 71
     2
 72
     6
 73
     3
 74
     0
 42
0.0000000001
 43
0.0000000001
 40
0.0
 40
0.0
 40
0.0
 40
0.4978532609589532
 40
0.4978532609589532
 40
0.4978532609589532
 10
422.9282168027944
 20
867.4646384089987
 30
0.0
 41
1.0
 10
422.16902742424
 20
865.1870702733342
 30
0.0
 41
1.037954849302039
 10
422.1690274242404
 20
863.2146384089988
 30
0.0
 41
1.0
  0
SPLINE
  5
26F
330
6C
100
AcDbEntity
  8
Sichtbare Kanten(DIN)
100
AcDbSpline
210
0.0
220
0.0
230
1.0
 70
    12
 71
     2
 72
     6
 73
     3
 74
     0
 42
0.0000000001
 43
0.0000000001
 40
0.4978532609589527
 40
0.4978532609589527
 40
0.4978532609589527
 40
0.9957065219179055
 40
0.9957065219179055
 40
0.9957065219179055
 10
422.1690274242404
 20
871.7146384089987
 30
0.0
 41
1.0
 10
422.16902742424
 20
869.7422065446632
 30
0.0
 41
1.037954849302046
 10
422.9282168027944
 20
867.4646384089987
 30
0.0
 41
1.0
  0
LINE
  5
270
330
6C
100
AcDbEntity
  8
Sichtbare Kanten(DIN)
100
AcDbLine
 10
422.1690274242404
 20
871.7146384089987
 30
0.0
 11
422.1690274242404
 21
863.2146384089988
 31
0.0
  0
SPLINE
  5
271
330
6C
100
AcDbEntity
  8
Sichtbare Kanten(DIN)
100
AcDbSpline
210
0.0
220
0.0
230
1.0
 70
    28
 71
     2
 72
     6
 73
     3
 74
     0
 42
0.0000000001
 43
0.0000000001
 40
0.0
 40
0.0
 40
0.0
 40
0.4978532609589536
 40
0.4978532609589536
 40
0.4978532609589536
 10
422.9282168027959
 20
858.9646384089988
 30
0.0
 41
1.0
 10
422.1690274242418
 20
858.9646384089988
 30
0.0
 41
1.037954849302041
 10
422.1690274242424
 20
858.9646384089988
 30
0.0
 41
1.0
  0
SPLINE
  5
272
330
6C
100
AcDbEntity
  8
Sichtbare Kanten(DIN)
100
AcDbSpline
210
0.0
220
0.0
230
1.0
 70
    12
 71
     2
 72
     6
 73
     3
 74
     0
 42
0.0000000001
 43
0.0000000001
 40
0.4978532609589532
 40
0.4978532609589532
 40
0.4978532609589532
 40
0.9957065219179064
 40
0.9957065219179064
 40
0.9957065219179064
 10
422.1690274242404
 20
863.2146384089988
 30
0.0
 41
1.0
 10
422.1690274242406
 20
861.2422065446633
 30
0.0
 41
1.037954849302059
 10
422.9282168027959
 20
858.9646384089988
 30
0.0
 41
1.0
  0
LINE
  5
273
330
6C
100
AcDbEntity
  8
Sichtbare Kanten(DIN)
100
AcDbLine
 10
422.1690274242404
 20
863.2146384089988
 30
0.0
 11
422.1690274242425
 21
858.9646384089986
 31
0.0
  0
LINE
  5
274
330
6C
100
AcDbEntity
  8
Sichtbare Kanten(DIN)
100
AcDbLine
 10
427.969027424241
 20
858.9646384089988
 30
0.0
 11
422.9282168027959
 21
858.9646384089988
 31
0.0
  0
LINE
  5
275
330
6C
100
AcDbEntity
  8
Sichtbare Kanten(DIN)
100
AcDbLine
 10
427.969027424241
 20
875.9646384089988
 30
0.0
 11
427.9690274242397
 21
867.4646384089987
 31
0.0
  0
LINE
  5
276
330
6C
100
AcDbEntity
  8
Sichtbare Kanten(DIN)
100
AcDbLine
 10
427.9690274242397
 20
867.4646384089987
 30
0.0
 11
427.969027424241
 21
858.9646384089988
 31
0.0
  0
LINE
  5
277
330
6C
100
AcDbEntity
  8
Sichtbare Kanten(DIN)
100
AcDbLine
 10
427.969027424241
 20
875.9646384089988
 30
0.0
 11
422.9282168027959
 21
875.9646384089988
 31
0.0
  0
LINE
  5
278
330
6C
100
AcDbEntity
  8
Sichtbare Kanten(DIN)
100
AcDbLine
 10
427.9690274242397
 20
867.4646384089987
 30
0.0
 11
422.9282168027944
 21
867.4646384089987
 31
0.0
  0
LINE
  5
279
330
6C
100
AcDbEntity
  8
Sichtbare Kanten(DIN)
100
AcDbLine
 10
427.9690274242425
 20
875.1646384089989
 30
0.0
 11
428.5691274242425
 21
875.1646384089989
 31
0.0
  0
LINE
  5
27A
330
6C
100
AcDbEntity
  8
Sichtbare Kanten(DIN)
100
AcDbLine
 10
427.9690274242425
 20
859.7646384089987
 30
0.0
 11
428.5691274242425
 21
859.7646384089987
 31
0.0
  0
SPLINE
  5
27B
330
6C
100
AcDbEntity
  8
Sichtbare Kanten(DIN)
100
AcDbSpline
210
0.0
220
0.0
230
1.0
 70
    12
 71
     2
 72
     6
 73
     3
 74
     0
 42
0.0000000001
 43
0.0000000001
 40
0.0
 40
0.0
 40
0.0
 40
0.4978532609589527
 40
0.4978532609589527
 40
0.4978532609589527
 10
422.9282168027959
 20
921.9646384089987
 30
0.0
 41
1.0
 10
422.1690274242406
 20
919.6870702733342
 30
0.0
 41
1.037954849302049
 10
422.1690274242404
 20
917.7146384089986
 30
0.0
 41
1.0
  0
SPLINE
  5
27C
330
6C
100
AcDbEntity
  8
Sichtbare Kanten(DIN)
100
AcDbSpline
210
0.0
220
0.0
230
1.0
 70
    28
 71
     2
 72
     6
 73
     3
 74
     0
 42
0.0000000001
 43
0.0000000001
 40
0.4978532609589533
 40
0.4978532609589533
 40
0.4978532609589533
 40
0.9957065219179064
 40
0.9957065219179064
 40
0.9957065219179064
 10
422.1690274242424
 20
921.9646384089987
 30
0.0
 41
1.0
 10
422.1690274242418
 20
921.9646384089987
 30
0.0
 41
1.037954849302044
 10
422.9282168027959
 20
921.9646384089987
 30
0.0
 41
1.0
  0
LINE
  5
27D
330
6C
100
AcDbEntity
  8
Sichtbare Kanten(DIN)
100
AcDbLine
 10
422.1690274242425
 20
921.9646384089987
 30
0.0
 11
422.1690274242404
 21
917.7146384089986
 31
0.0
  0
SPLINE
  5
27E
330
6C
100
AcDbEntity
  8
Sichtbare Kanten(DIN)
100
AcDbSpline
210
0.0
220
0.0
230
1.0
 70
    12
 71
     2
 72
     6
 73
     3
 74
     0
 42
0.0000000001
 43
0.0000000001
 40
0.0
 40
0.0
 40
0.0
 40
0.4978532609589532
 40
0.4978532609589532
 40
0.4978532609589532
 10
422.9282168027944
 20
913.4646384089988
 30
0.0
 41
1.0
 10
422.16902742424
 20
911.1870702733341
 30
0.0
 41
1.037954849302039
 10
422.1690274242404
 20
909.2146384089987
 30
0.0
 41
1.0
  0
SPLINE
  5
27F
330
6C
100
AcDbEntity
  8
Sichtbare Kanten(DIN)
100
AcDbSpline
210
0.0
220
0.0
230
1.0
 70
    12
 71
     2
 72
     6
 73
     3
 74
     0
 42
0.0000000001
 43
0.0000000001
 40
0.4978532609589527
 40
0.4978532609589527
 40
0.4978532609589527
 40
0.9957065219179055
 40
0.9957065219179055
 40
0.9957065219179055
 10
422.1690274242404
 20
917.7146384089986
 30
0.0
 41
1.0
 10
422.16902742424
 20
915.7422065446633
 30
0.0
 41
1.037954849302046
 10
422.9282168027944
 20
913.4646384089988
 30
0.0
 41
1.0
  0
LINE
  5
280
330
6C
100
AcDbEntity
  8
Sichtbare Kanten(DIN)
100
AcDbLine
 10
422.1690274242404
 20
917.7146384089986
 30
0.0
 11
422.1690274242404
 21
909.2146384089987
 31
0.0
  0
SPLINE
  5
281
330
6C
100
AcDbEntity
  8
Sichtbare Kanten(DIN)
100
AcDbSpline
210
0.0
220
0.0
230
1.0
 70
    28
 71
     2
 72
     6
 73
     3
 74
     0
 42
0.0000000001
 43
0.0000000001
 40
0.0
 40
0.0
 40
0.0
 40
0.4978532609589536
 40
0.4978532609589536
 40
0.4978532609589536
 10
422.9282168027959
 20
904.9646384089987
 30
0.0
 41
1.0
 10
422.1690274242418
 20
904.9646384089987
 30
0.0
 41
1.037954849302041
 10
422.1690274242424
 20
904.9646384089987
 30
0.0
 41
1.0
  0
SPLINE
  5
282
330
6C
100
AcDbEntity
  8
Sichtbare Kanten(DIN)
100
AcDbSpline
210
0.0
220
0.0
230
1.0
 70
    12
 71
     2
 72
     6
 73
     3
 74
     0
 42
0.0000000001
 43
0.0000000001
 40
0.4978532609589532
 40
0.4978532609589532
 40
0.4978532609589532
 40
0.9957065219179064
 40
0.9957065219179064
 40
0.9957065219179064
 10
422.1690274242404
 20
909.2146384089987
 30
0.0
 41
1.0
 10
422.1690274242406
 20
907.2422065446632
 30
0.0
 41
1.037954849302059
 10
422.9282168027959
 20
904.9646384089987
 30
0.0
 41
1.0
  0
LINE
  5
283
330
6C
100
AcDbEntity
  8
Sichtbare Kanten(DIN)
100
AcDbLine
 10
422.1690274242404
 20
909.2146384089987
 30
0.0
 11
422.1690274242425
 21
904.9646384089987
 31
0.0
  0
LINE
  5
284
330
6C
100
AcDbEntity
  8
Sichtbare Kanten(DIN)
100
AcDbLine
 10
427.969027424241
 20
904.9646384089987
 30
0.0
 11
422.9282168027959
 21
904.9646384089987
 31
0.0
  0
LINE
  5
285
330
6C
100
AcDbEntity
  8
Sichtbare Kanten(DIN)
100
AcDbLine
 10
427.969027424241
 20
921.9646384089987
 30
0.0
 11
427.9690274242397
 21
913.4646384089988
 31
0.0
  0
LINE
  5
286
330
6C
100
AcDbEntity
  8
Sichtbare Kanten(DIN)
100
AcDbLine
 10
427.9690274242397
 20
913.4646384089988
 30
0.0
 11
427.969027424241
 21
904.9646384089987
 31
0.0
  0
LINE
  5
287
330
6C
100
AcDbEntity
  8
Sichtbare Kanten(DIN)
100
AcDbLine
 10
427.969027424241
 20
921.9646384089987
 30
0.0
 11
422.9282168027959
 21
921.9646384089987
 31
0.0
  0
LINE
  5
288
330
6C
100
AcDbEntity
  8
Sichtbare Kanten(DIN)
100
AcDbLine
 10
427.9690274242397
 20
913.4646384089988
 30
0.0
 11
422.9282168027944
 21
913.4646384089988
 31
0.0
  0
LINE
  5
289
330
6C
100
AcDbEntity
  8
Sichtbare Kanten(DIN)
100
AcDbLine
 10
427.9690274242425
 20
921.1646384089986
 30
0.0
 11
428.5691274242425
 21
921.1646384089986
 31
0.0
  0
LINE
  5
28A
330
6C
100
AcDbEntity
  8
Sichtbare Kanten(DIN)
100
AcDbLine
 10
427.9690274242425
 20
905.764638408999
 30
0.0
 11
428.5691274242425
 21
905.764638408999
 31
0.0
  0
CIRCLE
  5
28B
330
6C
100
AcDbEntity
  8
Sichtbare Kanten(DIN)
100
AcDbCircle
 10
413.5691274242328
 20
726.4646384089985
 30
0.0
 40
6.498990417865999
  0
SPLINE
  5
28C
330
6C
100
AcDbEntity
  8
Sichtbare Kanten(DIN)
100
AcDbSpline
210
0.0
220
0.0
230
1.0
 70
    28
 71
     2
 72
     6
 73
     3
 74
     0
 42
0.0000000001
 43
0.0000000001
 40
-1.775910682181798
 40
-1.775910682181798
 40
-1.775910682181798
 40
-1.077246449640566
 40
-1.077246449640566
 40
-1.077246449640566
 10
407.9393794005746
 20
723.2156480197854
 30
0.0
 41
1.865926265505187
 10
408.8104848078813
 20
721.7068491955824
 30
0.0
 41
1.865971116517865
 10
409.8163506745061
 20
719.9646384089895
 30
0.0
 41
1.731958801025501
  0
SPLINE
  5
28D
330
6C
100
AcDbEntity
  8
Sichtbare Kanten(DIN)
100
AcDbSpline
210
0.0
220
0.0
230
1.0
 70
    28
 71
     2
 72
     6
 73
     3
 74
     0
 42
0.0000000001
 43
0.0000000001
 40
-2.474107415682789
 40
-2.474107415682789
 40
-2.474107415682789
 40
-1.775676932661611
 40
-1.775676932661611
 40
-1.775676932661611
 10
409.8163506744903
 20
719.9646384089986
 30
0.0
 41
1.731958801025526
 10
411.8274576734269
 20
719.9646384089986
 30
0.0
 41
1.865926280510921
 10
413.5691274242335
 20
719.9646384089986
 30
0.0
 41
1.865926280510921
  0
SPLINE
  5
28E
330
6C
100
AcDbEntity
  8
Sichtbare Kanten(DIN)
100
AcDbSpline
210
0.0
220
0.0
230
1.0
 70
    28
 71
     2
 72
     6
 73
     3
 74
     0
 42
0.0000000001
 43
0.0000000001
 40
1.77566059583807
 40
1.77566059583807
 40
1.77566059583807
 40
2.474086895284691
 40
2.474086895284691
 40
2.474086895284691
 10
413.5691274242335
 20
719.9646384089986
 30
0.0
 41
1.865915906183151
 10
415.3107971750404
 20
719.9646384089986
 30
0.0
 41
1.865915906183152
 10
417.3219041739773
 20
719.9646384089986
 30
0.0
 41
1.731949171540978
  0
SPLINE
  5
28F
330
6C
100
AcDbEntity
  8
Sichtbare Kanten(DIN)
100
AcDbSpline
210
0.0
220
0.0
230
1.0
 70
    28
 71
     2
 72
     6
 73
     3
 74
     0
 42
0.0000000001
 43
0.0000000001
 40
-1.775676932661595
 40
-1.775676932661595
 40
-1.775676932661595
 40
-1.077246449640427
 40
-1.077246449640427
 40
-1.077246449640427
 10
413.5691274242336
 20
732.9646384089985
 30
0.0
 41
1.865926280510913
 10
411.8274576734269
 20
732.9646384089985
 30
0.0
 41
1.865926280510912
 10
409.8163506744903
 20
732.9646384089985
 30
0.0
 41
1.731958801025519
  0
SPLINE
  5
290
330
6C
100
AcDbEntity
  8
Sichtbare Kanten(DIN)
100
AcDbSpline
210
0.0
220
0.0
230
1.0
 70
    28
 71
     2
 72
     6
 73
     3
 74
     0
 42
0.0000000001
 43
0.0000000001
 40
-2.474107258536928
 40
-2.474107258536928
 40
-2.474107258536928
 40
-1.77565341053628
 40
-1.77565341053628
 40
-1.77565341053628
 10
409.8163506745066
 20
732.9646384090074
 30
0.0
 41
1.731958727282716
 10
408.8107659081583
 20
731.2229145023751
 30
0.0
 41
1.865930688897194
 10
407.9399039547023
 20
729.7145373526108
 30
0.0
 41
1.865926200913706
  0
SPLINE
  5
291
330
6C
100
AcDbEntity
  8
Sichtbare Kanten(DIN)
100
AcDbSpline
210
0.0
220
0.0
230
1.0
 70
    28
 71
     2
 72
     6
 73
     3
 74
     0
 42
0.0000000001
 43
0.0000000001
 40
-2.474107258536928
 40
-2.474107258536928
 40
-2.474107258536928
 40
-1.775653410536109
 40
-1.775653410536109
 40
-1.775653410536109
 10
417.321904173961
 20
719.9646384089897
 30
0.0
 41
1.731958727282716
 10
418.3274889403093
 20
721.7063623156223
 30
0.0
 41
1.865930688897227
 10
419.1983508937654
 20
723.2147394653871
 30
0.0
 41
1.865926200913706
  0
SPLINE
  5
292
330
6C
100
AcDbEntity
  8
Sichtbare Kanten(DIN)
100
AcDbSpline
210
0.0
220
0.0
230
1.0
 70
    28
 71
     2
 72
     6
 73
     3
 74
     0
 42
0.0000000001
 43
0.0000000001
 40
-1.77565341053628
 40
-1.77565341053628
 40
-1.77565341053628
 40
-1.077246356570589
 40
-1.077246356570589
 40
-1.077246356570589
 10
407.9399039547023
 20
729.7145373526108
 30
0.0
 41
1.865926200913706
 10
407.0690961572013
 20
728.206254003712
 30
0.0
 41
1.865921713230898
 10
406.0635739247635
 20
726.4646384089894
 30
0.0
 41
1.731958727282693
  0
SPLINE
  5
293
330
6C
100
AcDbEntity
  8
Sichtbare Kanten(DIN)
100
AcDbSpline
210
0.0
220
0.0
230
1.0
 70
    28
 71
     2
 72
     6
 73
     3
 74
     0
 42
0.0000000001
 43
0.0000000001
 40
-2.474107415682664
 40
-2.474107415682664
 40
-2.474107415682664
 40
-1.775910682181798
 40
-1.775910682181798
 40
-1.775910682181798
 10
406.063573924763
 20
726.4646384090074
 30
0.0
 41
1.731958801025479
 10
407.0688150420628
 20
724.7235097199866
 30
0.0
 41
1.865881444503785
 10
407.9393794005746
 20
723.2156480197854
 30
0.0
 41
1.865926265505187
  0
SPLINE
  5
294
330
6C
100
AcDbEntity
  8
Sichtbare Kanten(DIN)
100
AcDbSpline
210
0.0
220
0.0
230
1.0
 70
    28
 71
     2
 72
     6
 73
     3
 74
     0
 42
0.0000000001
 43
0.0000000001
 40
-1.775653410536109
 40
-1.775653410536109
 40
-1.775653410536109
 40
-1.077246356570589
 40
-1.077246356570589
 40
-1.077246356570589
 10
419.1983508937654
 20
723.2147394653871
 30
0.0
 41
1.865926200913706
 10
420.0691586912662
 20
724.7230228142857
 30
0.0
 41
1.865921713230865
 10
421.0746809237041
 20
726.4646384090077
 30
0.0
 41
1.731958727282693
  0
SPLINE
  5
295
330
6C
100
AcDbEntity
  8
Sichtbare Kanten(DIN)
100
AcDbSpline
210
0.0
220
0.0
230
1.0
 70
    28
 71
     2
 72
     6
 73
     3
 74
     0
 42
0.0000000001
 43
0.0000000001
 40
-2.474107415682652
 40
-2.474107415682652
 40
-2.474107415682652
 40
-1.775910738780336
 40
-1.775910738780336
 40
-1.775910738780336
 10
421.0746809237045
 20
726.4646384089899
 30
0.0
 41
1.731958801025472
 10
420.0694398820444
 20
728.2057669669983
 30
0.0
 41
1.865881433647487
 10
419.1988755890319
 20
729.7136285537511
 30
0.0
 41
1.865926265497913
  0
SPLINE
  5
296
330
6C
100
AcDbEntity
  8
Sichtbare Kanten(DIN)
100
AcDbSpline
210
0.0
220
0.0
230
1.0
 70
    28
 71
     2
 72
     6
 73
     3
 74
     0
 42
0.0000000001
 43
0.0000000001
 40
-1.775910738780336
 40
-1.775910738780336
 40
-1.775910738780336
 40
-1.077246449640557
 40
-1.077246449640557
 40
-1.077246449640557
 10
419.1988755890319
 20
729.7136285537511
 30
0.0
 41
1.865926265497913
 10
418.3277701162186
 20
731.222427491415
 30
0.0
 41
1.865971127374151
 10
417.3219041739615
 20
732.9646384090076
 30
0.0
 41
1.731958801025495
  0
SPLINE
  5
297
330
6C
100
AcDbEntity
  8
Sichtbare Kanten(DIN)
100
AcDbSpline
210
0.0
220
0.0
230
1.0
 70
    28
 71
     2
 72
     6
 73
     3
 74
     0
 42
0.0000000001
 43
0.0000000001
 40
-2.474107415682773
 40
-2.474107415682773
 40
-2.474107415682773
 40
-1.775676932661595
 40
-1.775676932661595
 40
-1.775676932661595
 10
417.3219041739774
 20
732.9646384089985
 30
0.0
 41
1.731958801025519
 10
415.3107971750404
 20
732.9646384089985
 30
0.0
 41
1.865926280510914
 10
413.5691274242336
 20
732.9646384089985
 30
0.0
 41
1.865926280510914
  0
CIRCLE
  5
298
330
6C
100
AcDbEntity
  8
Sichtbare Kanten(DIN)
100
AcDbCircle
 10
413.5691274242322
 20
726.4646384089985
 30
0.0
 40
4.0
  0
CIRCLE
  5
299
330
6C
100
AcDbEntity
  8
Sichtbare Kanten(DIN)
100
AcDbCircle
 10
413.569127424232
 20
726.4646384089985
 30
0.0
 40
3.235
  0
LINE
  5
29A
330
6C
100
AcDbEntity
  8
Sichtbare Kanten(DIN)
100
AcDbLine
 10
433.5691274242373
 20
702.4646384089987
 30
0.0
 11
393.5691274242373
 21
702.4646384089987
 31
0.0
  0
LINE
  5
29B
330
6C
100
AcDbEntity
  8
Sichtbare Kanten(DIN)
100
AcDbLine
 10
433.5691274242373
 20
702.4646384089987
 30
0.0
 11
433.5691274242353
 21
708.4646384089987
 31
0.0
  0
LINE
  5
29C
330
6C
100
AcDbEntity
  8
Sichtbare Kanten(DIN)
100
AcDbLine
 10
433.5691274242353
 20
708.4646384089985
 30
0.0
 11
458.5691274242353
 21
708.4646384089985
 31
0.0
  0
LINE
  5
29D
330
6C
100
AcDbEntity
  8
Sichtbare Kanten(DIN)
100
AcDbLine
 10
393.5691274242373
 20
702.4646384089987
 30
0.0
 11
393.5691274242353
 21
709.4646384089986
 31
0.0
  0
LINE
  5
29E
330
6C
100
AcDbEntity
  8
Sichtbare Kanten(DIN)
100
AcDbLine
 10
458.5691274242353
 20
721.4646384089985
 30
0.0
 11
458.5691274242353
 21
709.4646384089986
 31
0.0
  0
LINE
  5
29F
330
6C
100
AcDbEntity
  8
Sichtbare Kanten(DIN)
100
AcDbLine
 10
458.5691274242353
 20
721.4646384089985
 30
0.0
 11
447.5691274242353
 21
721.4646384089985
 31
0.0
  0
ARC
  5
2A0
330
6C
100
AcDbEntity
  8
Sichtbare Kanten(DIN)
100
AcDbCircle
 10
396.5691274242353
 20
743.4646384089985
 30
0.0
 40
3.000000000000002
100
AcDbArc
 50
90.0
 51
180.0
  0
LINE
  5
2A1
330
6C
100
AcDbEntity
  8
Sichtbare Kanten(DIN)
100
AcDbLine
 10
393.5691274242353
 20
709.4646384089986
 30
0.0
 11
393.5691274242353
 21
743.4646384089985
 31
0.0
  0
LINE
  5
2A2
330
6C
100
AcDbEntity
  8
Sichtbare Kanten(DIN)
100
AcDbLine
 10
447.5691274242353
 20
731.4646384089985
 30
0.0
 11
447.5691274242353
 21
721.4646384089985
 31
0.0
  0
LINE
  5
2A3
330
6C
100
AcDbEntity
  8
Sichtbare Kanten(DIN)
100
AcDbLine
 10
447.5691274242353
 20
731.4646384089985
 30
0.0
 11
445.5691274242353
 21
731.4646384089985
 31
0.0
  0
LINE
  5
2A4
330
6C
100
AcDbEntity
  8
Sichtbare Kanten(DIN)
100
AcDbLine
 10
445.5691274242353
 20
733.4646384089985
 30
0.0
 11
445.5691274242353
 21
731.4646384089985
 31
0.0
  0
ARC
  5
2A5
330
6C
100
AcDbEntity
  8
Sichtbare Kanten(DIN)
100
AcDbCircle
 10
432.5691274242353
 20
733.4646384089985
 30
0.0
 40
13.0
100
AcDbArc
 50
0.0
 51
90.0
  0
LINE
  5
2A6
330
6C
100
AcDbEntity
  8
Sichtbare Kanten(DIN)
100
AcDbLine
 10
396.5691274242353
 20
746.4646384089985
 30
0.0
 11
432.5691274242353
 21
746.4646384089985
 31
0.0
  0
LINE
  5
2A7
330
6C
100
AcDbEntity
  8
Sichtbare Kanten(DIN)
100
AcDbLine
 10
433.5691274242384
 20
746.4261198058143
 30
0.0
 11
433.5691274242384
 21
830.4646384089986
 31
0.0
  0
LINE
  5
2A8
330
6C
100
AcDbEntity
  8
Sichtbare Kanten(DIN)
100
AcDbLine
 10
427.5691274242366
 20
830.4646384089986
 30
0.0
 11
418.5691274242365
 21
830.4646384089986
 31
0.0
  0
LINE
  5
2A9
330
6C
100
AcDbEntity
  8
Sichtbare Kanten(DIN)
100
AcDbLine
 10
433.5691274242384
 20
830.4646384089986
 30
0.0
 11
427.5691274242366
 21
830.4646384089986
 31
0.0
  0
LINE
  5
2AA
330
6C
100
AcDbEntity
  8
Sichtbare Kanten(DIN)
100
AcDbLine
 10
415.5691274242366
 20
827.4646384089985
 30
0.0
 11
415.5691274242366
 21
747.4646384089986
 31
0.0
  0
ARC
  5
2AB
330
6C
100
AcDbEntity
  8
Sichtbare Kanten(DIN)
100
AcDbCircle
 10
409.5691274242364
 20
747.4646384089986
 30
0.0
 40
6.000000000000258
100
AcDbArc
 50
350.4059317731392
 51
0.0
  0
LINE
  5
2AC
330
6C
100
AcDbEntity
  8
Sichtbare Kanten(DIN)
100
AcDbLine
 10
393.5691274242366
 20
741.4646384089985
 30
0.0
 11
384.5691274242367
 21
741.4646384089985
 31
0.0
  0
ARC
  5
2AD
330
6C
100
AcDbEntity
  8
Sichtbare Kanten(DIN)
100
AcDbCircle
 10
418.5691274242366
 20
827.4646384089987
 30
0.0
 40
3.000000000000024
100
AcDbArc
 50
90.0
 51
180.0
  0
ARC
  5
2AE
330
6C
100
AcDbEntity
  8
Sichtbare Kanten(DIN)
100
AcDbCircle
 10
384.5691274242367
 20
738.4646384089985
 30
0.0
 40
3.000000000000007
100
AcDbArc
 50
90.0
 51
180.0
  0
LINE
  5
2AF
330
6C
100
AcDbEntity
  8
Sichtbare Kanten(DIN)
100
AcDbLine
 10
381.5691274242366
 20
738.4646384089985
 30
0.0
 11
381.5691274242366
 21
736.4646384089986
 31
0.0
  0
LINE
  5
2B0
330
6C
100
AcDbEntity
  8
Sichtbare Kanten(DIN)
100
AcDbLine
 10
381.5691274242366
 20
736.4646384089986
 30
0.0
 11
393.5691274242367
 21
729.5364351787227
 31
0.0
  0
LINE
  5
2B1
330
6C
100
AcDbEntity
  8
Sichtbare Kanten(DIN)
100
AcDbLine
 10
414.4891274242425
 20
818.4646384089985
 30
0.0
 11
414.4891274242425
 21
808.4646384089985
 31
0.0
  0
LINE
  5
2B2
330
6C
100
AcDbEntity
  8
Sichtbare Kanten(DIN)
100
AcDbLine
 10
413.5691274242425
 20
809.3846384089985
 30
0.0
 11
413.5691274242425
 21
817.5446384089985
 31
0.0
  0
LINE
  5
2B3
330
6C
100
AcDbEntity
  8
Sichtbare Kanten(DIN)
100
AcDbLine
 10
414.4891274242425
 20
818.4646384089987
 30
0.0
 11
415.5691274242426
 21
818.4646384089987
 31
0.0
  0
LINE
  5
2B4
330
6C
100
AcDbEntity
  8
Sichtbare Kanten(DIN)
100
AcDbLine
 10
414.4891274242425
 20
808.4646384089987
 30
0.0
 11
415.5691274242426
 21
808.4646384089987
 31
0.0
  0
LINE
  5
2B5
330
6C
100
AcDbEntity
  8
Sichtbare Kanten(DIN)
100
AcDbLine
 10
413.5691274242423
 20
817.5446384089985
 30
0.0
 11
414.4891274242425
 21
818.4646384089987
 31
0.0
  0
LINE
  5
2B6
330
6C
100
AcDbEntity
  8
Sichtbare Kanten(DIN)
100
AcDbLine
 10
413.5691274242425
 20
809.3846384089987
 30
0.0
 11
414.4891274242426
 21
808.4646384089987
 31
0.0
  0
LINE
  5
2B7
330
6C
100
AcDbEntity
  8
Sichtbare Kanten(DIN)
100
AcDbLine
 10
414.4891274242425
 20
772.4646384089987
 30
0.0
 11
414.4891274242425
 21
762.4646384089986
 31
0.0
  0
LINE
  5
2B8
330
6C
100
AcDbEntity
  8
Sichtbare Kanten(DIN)
100
AcDbLine
 10
413.5691274242425
 20
763.3846384089986
 30
0.0
 11
413.5691274242425
 21
771.5446384089987
 31
0.0
  0
LINE
  5
2B9
330
6C
100
AcDbEntity
  8
Sichtbare Kanten(DIN)
100
AcDbLine
 10
414.4891274242425
 20
772.4646384089987
 30
0.0
 11
415.5691274242426
 21
772.4646384089987
 31
0.0
  0
LINE
  5
2BA
330
6C
100
AcDbEntity
  8
Sichtbare Kanten(DIN)
100
AcDbLine
 10
414.4891274242425
 20
762.4646384089986
 30
0.0
 11
415.5691274242426
 21
762.4646384089986
 31
0.0
  0
LINE
  5
2BB
330
6C
100
AcDbEntity
  8
Sichtbare Kanten(DIN)
100
AcDbLine
 10
413.5691274242425
 20
771.5446384089987
 30
0.0
 11
414.4891274242426
 21
772.4646384089987
 31
0.0
  0
LINE
  5
2BC
330
6C
100
AcDbEntity
  8
Sichtbare Kanten(DIN)
100
AcDbLine
 10
413.5691274242425
 20
763.3846384089986
 30
0.0
 11
414.4891274242426
 21
762.4646384089986
 31
0.0
  0
ARC
  5
2BD
330
6C
100
AcDbEntity
  8
Sichtbare Kanten(DIN)
100
AcDbCircle
 10
425.5167631068065
 20
702.2824880130863
 30
0.0
 40
0.275
100
AcDbArc
 50
175.3042510928825
 51
355.3042510928825
  0
LINE
  5
2BE
330
6C
100
AcDbEntity
  8
Sichtbare Kanten(DIN)
100
AcDbLine
 10
425.7908400592826
 20
702.2599752584461
 30
0.0
 11
425.8076511455508
 21
702.4646384089987
 31
0.0
  0
LINE
  5
2BF
330
6C
100
AcDbEntity
  8
Sichtbare Kanten(DIN)
100
AcDbLine
 10
425.2557988331486
 20
702.4646384089987
 30
0.0
 11
425.2426861543306
 21
702.3050007677266
 31
0.0
  0
LINE
  5
2C0
330
6C
100
AcDbEntity
  8
Sichtbare Kanten(DIN)
100
AcDbLine
 10
407.827470037464
 20
-317.0353615910014
 30
0.0
 11
407.827470037464
 21
-342.0353615910014
 31
0.0
  0
LINE
  5
2C1
330
6C
100
AcDbEntity
  8
Sichtbare Kanten(DIN)
100
AcDbLine
 10
408.5691274242377
 20
-342.0353615910014
 30
0.0
 11
411.5691274242374
 21
-342.0353615910014
 31
0.0
  0
LINE
  5
2C2
330
6C
100
AcDbEntity
  8
Sichtbare Kanten(DIN)
100
AcDbLine
 10
408.5691274242377
 20
-342.0353615910014
 30
0.0
 11
407.8274700374641
 21
-342.0353615910014
 31
0.0
  0
LINE
  5
2C3
330
6C
100
AcDbEntity
  8
Sichtbare Kanten(DIN)
100
AcDbLine
 10
408.5691274242377
 20
-317.0353615910014
 30
0.0
 11
408.5691274242377
 21
-342.0353615910014
 31
0.0
  0
LINE
  5
2C4
330
6C
100
AcDbEntity
  8
Sichtbare Kanten(DIN)
100
AcDbLine
 10
407.8274700374641
 20
-317.0353615910014
 30
0.0
 11
408.5691274242377
 21
-317.0353615910014
 31
0.0
  0
LINE
  5
2C5
330
6C
100
AcDbEntity
  8
Sichtbare Kanten(DIN)
100
AcDbLine
 10
411.5691274242374
 20
-317.0353615910014
 30
0.0
 11
408.5691274242377
 21
-317.0353615910014
 31
0.0
  0
LINE
  5
2C6
330
6C
100
AcDbEntity
  8
Sichtbare Kanten(DIN)
100
AcDbLine
 10
407.8274700374641
 20
-364.5353615910014
 30
0.0
 11
407.8274700374641
 21
-389.5353615910013
 31
0.0
  0
LINE
  5
2C7
330
6C
100
AcDbEntity
  8
Sichtbare Kanten(DIN)
100
AcDbLine
 10
408.5691274242377
 20
-389.5353615910013
 30
0.0
 11
411.5691274242374
 21
-389.5353615910013
 31
0.0
  0
LINE
  5
2C8
330
6C
100
AcDbEntity
  8
Sichtbare Kanten(DIN)
100
AcDbLine
 10
408.5691274242377
 20
-389.5353615910013
 30
0.0
 11
407.8274700374641
 21
-389.5353615910013
 31
0.0
  0
LINE
  5
2C9
330
6C
100
AcDbEntity
  8
Sichtbare Kanten(DIN)
100
AcDbLine
 10
408.5691274242377
 20
-364.5353615910014
 30
0.0
 11
408.5691274242377
 21
-389.5353615910013
 31
0.0
  0
LINE
  5
2CA
330
6C
100
AcDbEntity
  8
Sichtbare Kanten(DIN)
100
AcDbLine
 10
407.8274700374641
 20
-364.5353615910014
 30
0.0
 11
408.5691274242377
 21
-364.5353615910014
 31
0.0
  0
LINE
  5
2CB
330
6C
100
AcDbEntity
  8
Sichtbare Kanten(DIN)
100
AcDbLine
 10
411.5691274242374
 20
-364.5353615910014
 30
0.0
 11
408.5691274242377
 21
-364.5353615910014
 31
0.0
  0
LINE
  5
2CC
330
6C
100
AcDbEntity
  8
Sichtbare Kanten(DIN)
100
AcDbLine
 10
407.8274700374641
 20
-412.0353615910013
 30
0.0
 11
407.8274700374641
 21
-437.0353615910012
 31
0.0
  0
LINE
  5
2CD
330
6C
100
AcDbEntity
  8
Sichtbare Kanten(DIN)
100
AcDbLine
 10
408.5691274242377
 20
-437.0353615910012
 30
0.0
 11
411.5691274242374
 21
-437.0353615910012
 31
0.0
  0
LINE
  5
2CE
330
6C
100
AcDbEntity
  8
Sichtbare Kanten(DIN)
100
AcDbLine
 10
408.5691274242377
 20
-437.0353615910012
 30
0.0
 11
407.827470037464
 21
-437.0353615910012
 31
0.0
  0
LINE
  5
2CF
330
6C
100
AcDbEntity
  8
Sichtbare Kanten(DIN)
100
AcDbLine
 10
408.5691274242377
 20
-412.0353615910013
 30
0.0
 11
408.5691274242377
 21
-437.0353615910012
 31
0.0
  0
LINE
  5
2D0
330
6C
100
AcDbEntity
  8
Sichtbare Kanten(DIN)
100
AcDbLine
 10
407.827470037464
 20
-412.0353615910013
 30
0.0
 11
408.5691274242377
 21
-412.0353615910013
 31
0.0
  0
LINE
  5
2D1
330
6C
100
AcDbEntity
  8
Sichtbare Kanten(DIN)
100
AcDbLine
 10
411.5691274242374
 20
-412.0353615910013
 30
0.0
 11
408.5691274242377
 21
-412.0353615910013
 31
0.0
  0
LINE
  5
2D2
330
6C
100
AcDbEntity
  8
Sichtbare Kanten(DIN)
100
AcDbLine
 10
428.5691274242388
 20
898.3973023539581
 30
0.0
 11
428.5691274242388
 21
902.7828076226674
 31
0.0
  0
LINE
  5
2D3
330
6C
100
AcDbEntity
  8
Sichtbare Kanten(DIN)
100
AcDbLine
 10
425.3419665446551
 20
901.8894144743871
 30
0.0
 11
428.5691274242388
 21
902.7828076226674
 31
0.0
  0
LINE
  5
2D4
330
6C
100
AcDbEntity
  8
Sichtbare Kanten(DIN)
100
AcDbLine
 10
428.5691274242388
 20
383.3973023539582
 30
0.0
 11
428.5691274242388
 21
387.7828076226675
 31
0.0
  0
LINE
  5
2D5
330
6C
100
AcDbEntity
  8
Sichtbare Kanten(DIN)
100
AcDbLine
 10
425.3419665446552
 20
386.8894144743871
 30
0.0
 11
428.5691274242388
 21
387.7828076226675
 31
0.0
  0
ARC
  5
2D6
330
6C
100
AcDbEntity
  8
Sichtbare Kanten(DIN)
100
AcDbCircle
 10
-262.8619836831997
 20
-1078.042604845216
 30
0.0
 40
0.5000000000000005
100
AcDbArc
 50
180.0
 51
270.0
  0
ARC
  5
2D7
330
6C
100
AcDbEntity
  8
Sichtbare Kanten(DIN)
100
AcDbCircle
 10
-213.8619836831997
 20
-1078.042604845216
 30
0.0
 40
0.4999999999999983
100
AcDbArc
 50
270.0
 51
0.0
  0
ARC
  5
2D8
330
6C
100
AcDbEntity
  8
Sichtbare Kanten(DIN)
100
AcDbCircle
 10
-213.8619836831997
 20
-1074.042604845216
 30
0.0
 40
0.5000000000000005
100
AcDbArc
 50
0.0
 51
90.0
  0
ARC
  5
2D9
330
6C
100
AcDbEntity
  8
Sichtbare Kanten(DIN)
100
AcDbCircle
 10
-262.8619836831997
 20
-1074.042604845216
 30
0.0
 40
0.4999999999999983
100
AcDbArc
 50
90.0
 51
180.0
  0
LINE
  5
2DA
330
6C
100
AcDbEntity
  8
Sichtbare Kanten(DIN)
100
AcDbLine
 10
-263.3619836831996
 20
-1078.042604845216
 30
0.0
 11
-263.3619836831996
 21
-1074.042604845216
 31
0.0
  0
LINE
  5
2DB
330
6C
100
AcDbEntity
  8
Sichtbare Kanten(DIN)
100
AcDbLine
 10
-254.6119836831997
 20
-1078.542604845216
 30
0.0
 11
-262.8619836831997
 21
-1078.542604845216
 31
0.0
  0
LINE
  5
2DC
330
6C
100
AcDbEntity
  8
Sichtbare Kanten(DIN)
100
AcDbLine
 10
-247.1119836831997
 20
-1056.042604845216
 30
0.0
 11
-247.1119836831997
 21
-1071.042604845216
 31
0.0
  0
LINE
  5
2DD
330
6C
100
AcDbEntity
  8
Sichtbare Kanten(DIN)
100
AcDbLine
 10
-232.1119836831996
 20
-1053.542604845216
 30
0.0
 11
-244.6119836831996
 21
-1053.542604845216
 31
0.0
  0
LINE
  5
2DE
330
6C
100
AcDbEntity
  8
Sichtbare Kanten(DIN)
100
AcDbLine
 10
-229.6119836831997
 20
-1071.042604845216
 30
0.0
 11
-229.6119836831997
 21
-1056.042604845216
 31
0.0
  0
LINE
  5
2DF
330
6C
100
AcDbEntity
  8
Sichtbare Kanten(DIN)
100
AcDbLine
 10
-213.8619836831997
 20
-1078.542604845216
 30
0.0
 11
-222.1119836831997
 21
-1078.542604845216
 31
0.0
  0
LINE
  5
2E0
330
6C
100
AcDbEntity
  8
Sichtbare Kanten(DIN)
100
AcDbLine
 10
-213.3619836831996
 20
-1074.042604845216
 30
0.0
 11
-213.3619836831996
 21
-1078.042604845216
 31
0.0
  0
LINE
  5
2E1
330
6C
100
AcDbEntity
  8
Sichtbare Kanten(DIN)
100
AcDbLine
 10
-222.1119836831997
 20
-1073.542604845217
 30
0.0
 11
-213.8619836831997
 21
-1073.542604845217
 31
0.0
  0
LINE
  5
2E2
330
6C
100
AcDbEntity
  8
Sichtbare Kanten(DIN)
100
AcDbLine
 10
-224.6119836831997
 20
-1056.042604845216
 30
0.0
 11
-224.6119836831997
 21
-1071.042604845216
 31
0.0
  0
LINE
  5
2E3
330
6C
100
AcDbEntity
  8
Sichtbare Kanten(DIN)
100
AcDbLine
 10
-244.6119836831996
 20
-1048.542604845216
 30
0.0
 11
-232.1119836831996
 21
-1048.542604845216
 31
0.0
  0
LINE
  5
2E4
330
6C
100
AcDbEntity
  8
Sichtbare Kanten(DIN)
100
AcDbLine
 10
-252.1119836831997
 20
-1071.042604845216
 30
0.0
 11
-252.1119836831997
 21
-1056.042604845216
 31
0.0
  0
LINE
  5
2E5
330
6C
100
AcDbEntity
  8
Sichtbare Kanten(DIN)
100
AcDbLine
 10
-262.8619836831997
 20
-1073.542604845217
 30
0.0
 11
-254.6119836831997
 21
-1073.542604845217
 31
0.0
  0
ARC
  5
2E6
330
6C
100
AcDbEntity
  8
Sichtbare Kanten(DIN)
100
AcDbCircle
 10
-254.6119836831997
 20
-1071.042604845216
 30
0.0
 40
7.500000000000001
100
AcDbArc
 50
270.0
 51
0.0
  0
ARC
  5
2E7
330
6C
100
AcDbEntity
  8
Sichtbare Kanten(DIN)
100
AcDbCircle
 10
-222.1119836831997
 20
-1071.042604845216
 30
0.0
 40
7.5
100
AcDbArc
 50
180.0
 51
270.0
  0
ARC
  5
2E8
330
6C
100
AcDbEntity
  8
Sichtbare Kanten(DIN)
100
AcDbCircle
 10
-232.1119836831996
 20
-1056.042604845216
 30
0.0
 40
7.499999999999998
100
AcDbArc
 50
0.0
 51
90.0
  0
ARC
  5
2E9
330
6C
100
AcDbEntity
  8
Sichtbare Kanten(DIN)
100
AcDbCircle
 10
-244.6119836831996
 20
-1056.042604845216
 30
0.0
 40
7.500000000000001
100
AcDbArc
 50
90.0
 51
180.0
  0
ARC
  5
2EA
330
6C
100
AcDbEntity
  8
Sichtbare Kanten(DIN)
100
AcDbCircle
 10
-244.6119836831996
 20
-1056.042604845216
 30
0.0
 40
2.499999999999997
100
AcDbArc
 50
90.0
 51
180.0
  0
ARC
  5
2EB
330
6C
100
AcDbEntity
  8
Sichtbare Kanten(DIN)
100
AcDbCircle
 10
-232.1119836831996
 20
-1056.042604845216
 30
0.0
 40
2.499999999999999
100
AcDbArc
 50
0.0
 51
90.0
  0
ARC
  5
2EC
330
6C
100
AcDbEntity
  8
Sichtbare Kanten(DIN)
100
AcDbCircle
 10
-222.1119836831997
 20
-1071.042604845216
 30
0.0
 40
2.500000000000004
100
AcDbArc
 50
180.0
 51
270.0
  0
ARC
  5
2ED
330
6C
100
AcDbEntity
  8
Sichtbare Kanten(DIN)
100
AcDbCircle
 10
-254.6119836831997
 20
-1071.042604845216
 30
0.0
 40
2.499999999999996
100
AcDbArc
 50
270.0
 51
0.0
  0
LINE
  5
2EE
330
6C
100
AcDbEntity
  8
Sichtbare Kanten(DIN)
100
AcDbLine
 10
-253.3619836831996
 20
-998.5426048455867
 30
0.0
 11
-251.3619836831996
 21
-996.5426048455867
 31
0.0
  0
LINE
  5
2EF
330
6C
100
AcDbEntity
  8
Sichtbare Kanten(DIN)
100
AcDbLine
 10
-225.3619836831997
 20
-996.5426048455867
 30
0.0
 11
-223.3619836831997
 21
-998.5426048455867
 31
0.0
  0
LINE
  5
2F0
330
6C
100
AcDbEntity
  8
Sichtbare Kanten(DIN)
100
AcDbLine
 10
-225.3619836831997
 20
-996.5426048455867
 30
0.0
 11
-251.3619836831996
 21
-996.5426048455867
 31
0.0
  0
LINE
  5
2F1
330
6C
100
AcDbEntity
  8
Sichtbare Kanten(DIN)
100
AcDbLine
 10
-223.3619836831997
 20
-1008.542604845587
 30
0.0
 11
-223.3619836831997
 21
-998.5426048455867
 31
0.0
  0
LINE
  5
2F2
330
6C
100
AcDbEntity
  8
Sichtbare Kanten(DIN)
100
AcDbLine
 10
-253.3619836831996
 20
-998.5426048455867
 30
0.0
 11
-253.3619836831996
 21
-1008.542604845587
 31
0.0
  0
LINE
  5
2F3
330
6C
100
AcDbEntity
  8
Sichtbare Kanten(DIN)
100
AcDbLine
 10
-252.1119836831996
 20
-1056.042604845587
 30
0.0
 11
-252.1119836831996
 21
-1048.542604845587
 31
0.0
  0
LINE
  5
2F4
330
6C
100
AcDbEntity
  8
Sichtbare Kanten(DIN)
100
AcDbLine
 10
-224.6119836831997
 20
-1048.542604845587
 30
0.0
 11
-224.6119836831997
 21
-1056.042604845587
 31
0.0
  0
LINE
  5
2F5
330
6C
100
AcDbEntity
  8
Sichtbare Kanten(DIN)
100
AcDbLine
 10
-252.1119836831996
 20
-1057.542604845586
 30
0.0
 11
-255.8619836831996
 21
-1057.542604845586
 31
0.0
  0
LINE
  5
2F6
330
6C
100
AcDbEntity
  8
Sichtbare Kanten(DIN)
100
AcDbLine
 10
-220.8619836831997
 20
-1048.542604845587
 30
0.0
 11
-220.8619836831997
 21
-1057.542604845586
 31
0.0
  0
LINE
  5
2F7
330
6C
100
AcDbEntity
  8
Sichtbare Kanten(DIN)
100
AcDbLine
 10
-220.8619836831997
 20
-1057.542604845586
 30
0.0
 11
-224.6119836831997
 21
-1057.542604845586
 31
0.0
  0
LINE
  5
2F8
330
6C
100
AcDbEntity
  8
Sichtbare Kanten(DIN)
100
AcDbLine
 10
-255.8619836831996
 20
-1057.542604845586
 30
0.0
 11
-255.8619836831996
 21
-1048.542604845587
 31
0.0
  0
LINE
  5
2F9
330
6C
100
AcDbEntity
  8
Sichtbare Kanten(DIN)
100
AcDbLine
 10
-188.3619836831997
 20
-1015.792604845599
 30
0.0
 11
-210.3619836831996
 21
-1015.792604845599
 31
0.0
  0
LINE
  5
2FA
330
6C
100
AcDbEntity
  8
Sichtbare Kanten(DIN)
100
AcDbLine
 10
-212.5856664501896
 20
-1015.792604845599
 30
0.0
 11
-213.250421509087
 21
-1015.792604845599
 31
0.0
  0
LINE
  5
2FB
330
6C
100
AcDbEntity
  8
Sichtbare Kanten(DIN)
100
AcDbLine
 10
-188.3619836831997
 20
-1020.792604845599
 30
0.0
 11
-213.8619836831997
 21
-1020.792604845599
 31
0.0
  0
LINE
  5
2FC
330
6C
100
AcDbEntity
  8
Sichtbare Kanten(DIN)
100
AcDbLine
 10
-188.3619836831997
 20
-1020.792604845599
 30
0.0
 11
-188.3619836831997
 21
-1015.792604845599
 31
0.0
  0
LINE
  5
2FD
330
6C
100
AcDbEntity
  8
Sichtbare Kanten(DIN)
100
AcDbLine
 10
-188.3619836831997
 20
-1002.292604845599
 30
0.0
 11
-218.3619836831997
 21
-1002.292604845599
 31
0.0
  0
LINE
  5
2FE
330
6C
100
AcDbEntity
  8
Sichtbare Kanten(DIN)
100
AcDbLine
 10
-221.3619836831997
 20
-1002.292604845599
 30
0.0
 11
-223.3619836831997
 21
-1002.292604845599
 31
0.0
  0
LINE
  5
2FF
330
6C
100
AcDbEntity
  8
Sichtbare Kanten(DIN)
100
AcDbLine
 10
-188.3619836831997
 20
-1007.292604845599
 30
0.0
 11
-210.3619836831996
 21
-1007.292604845599
 31
0.0
  0
LINE
  5
300
330
6C
100
AcDbEntity
  8
Sichtbare Kanten(DIN)
100
AcDbLine
 10
-210.9268475882365
 20
-1007.292604845599
 30
0.0
 11
-211.5916084892706
 21
-1007.292604845599
 31
0.0
  0
LINE
  5
301
330
6C
100
AcDbEntity
  8
Sichtbare Kanten(DIN)
100
AcDbLine
 10
-214.2444946470599
 20
-1007.292604845599
 30
0.0
 11
-214.9092555481009
 21
-1007.292604845599
 31
0.0
  0
LINE
  5
302
330
6C
100
AcDbEntity
  8
Sichtbare Kanten(DIN)
100
AcDbLine
 10
-217.5621417058841
 20
-1007.292604845599
 30
0.0
 11
-218.2269026068707
 21
-1007.292604845599
 31
0.0
  0
LINE
  5
303
330
6C
100
AcDbEntity
  8
Sichtbare Kanten(DIN)
100
AcDbLine
 10
-221.3619836831997
 20
-1007.292604845599
 30
0.0
 11
-221.5445496661254
 21
-1007.292604845599
 31
0.0
  0
LINE
  5
304
330
6C
100
AcDbEntity
  8
Sichtbare Kanten(DIN)
100
AcDbLine
 10
-188.3619836831997
 20
-1007.292604845599
 30
0.0
 11
-188.3619836831997
 21
-1002.292604845599
 31
0.0
  0
LINE
  5
305
330
6C
100
AcDbEntity
  8
Sichtbare Kanten(DIN)
100
AcDbLine
 10
-217.9502157202438
 20
-1007.542604845619
 30
0.0
 11
-217.9502157202438
 21
-1008.54260484562
 31
0.0
  0
LINE
  5
306
330
6C
100
AcDbEntity
  8
Sichtbare Kanten(DIN)
100
AcDbLine
 10
-218.1981348317717
 20
-1007.542604845622
 30
0.0
 11
-217.9502157202438
 21
-1007.542604845622
 31
0.0
  0
LINE
  5
307
330
6C
100
AcDbEntity
  8
Sichtbare Kanten(DIN)
100
AcDbLine
 10
-193.6520251668129
 20
-1015.542604845527
 30
0.0
 11
-210.3661213404301
 21
-1015.542604845591
 31
0.0
  0
LINE
  5
308
330
6C
100
AcDbEntity
  8
Sichtbare Kanten(DIN)
100
AcDbLine
 10
-212.6144362287742
 20
-1015.542604845599
 30
0.0
 11
-213.2216311849262
 21
-1015.542604845601
 31
0.0
  0
LINE
  5
309
330
6C
100
AcDbEntity
  8
Sichtbare Kanten(DIN)
100
AcDbLine
 10
-193.6520251668129
 20
-1015.542604845527
 30
0.0
 11
-193.6520251668129
 21
-1007.542604845527
 31
0.0
  0
LINE
  5
30A
330
6C
100
AcDbEntity
  8
Sichtbare Kanten(DIN)
100
AcDbLine
 10
-193.6520251668129
 20
-1007.542604845527
 30
0.0
 11
-210.3619836831996
 21
-1007.542604845591
 31
0.0
  0
LINE
  5
30B
330
6C
100
AcDbEntity
  8
Sichtbare Kanten(DIN)
100
AcDbLine
 10
-210.9556380217705
 20
-1007.542604845593
 30
0.0
 11
-211.5628407141802
 21
-1007.542604845595
 31
0.0
  0
LINE
  5
30C
330
6C
100
AcDbEntity
  8
Sichtbare Kanten(DIN)
100
AcDbLine
 10
-214.273285080594
 20
-1007.542604845605
 30
0.0
 11
-214.8804877730116
 21
-1007.542604845608
 31
0.0
  0
LINE
  5
30D
330
6C
100
AcDbEntity
  8
Sichtbare Kanten(DIN)
100
AcDbLine
 10
-217.5909321394174
 20
-1007.542604845618
 30
0.0
 11
-217.9502157202438
 21
-1007.542604845619
 31
0.0
  0
LINE
  5
30E
330
6C
100
AcDbEntity
  8
Sichtbare Kanten(DIN)
100
AcDbLine
 10
-163.7431401820141
 20
-1015.542604845528
 30
0.0
 11
-193.6520251668129
 21
-1015.542604845527
 31
0.0
  0
LINE
  5
30F
330
6C
100
AcDbEntity
  8
Sichtbare Kanten(DIN)
100
AcDbLine
 10
-163.7431401820141
 20
-1007.542604845528
 30
0.0
 11
-193.6520251668129
 21
-1007.542604845527
 31
0.0
  0
LINE
  5
310
330
6C
100
AcDbEntity
  8
Sichtbare Kanten(DIN)
100
AcDbLine
 10
-163.7431401820141
 20
-1015.542604845528
 30
0.0
 11
-163.7431401820141
 21
-1007.542604845528
 31
0.0
  0
SPLINE
  5
311
330
6C
100
AcDbEntity
  8
Sichtbare Kanten(DIN)
100
AcDbSpline
210
0.0
220
0.0
230
1.0
 70
    24
 71
     3
 72
    32
 73
    28
 74
     0
 42
0.0000000001
 43
0.0000000001
 40
0.2433192965151059
 40
0.2433192965151059
 40
0.2433192965151059
 40
0.2433192965151059
 40
0.3855283937674594
 40
0.3855283937674594
 40
0.6860773139791334
 40
0.6860773139791334
 40
0.9579353162595021
 40
0.9579353162595021
 40
1.032385171573991
 40
1.032385171573991
 40
1.063346452444441
 40
1.063346452444441
 40
1.080185052097429
 40
1.080185052097429
 40
1.093575068407353
 40
1.093575068407353
 40
1.10826361191244
 40
1.10826361191244
 40
1.130544639450147
 40
1.130544639450147
 40
1.170659751867304
 40
1.170659751867304
 40
1.272538921974192
 40
1.272538921974192
 40
1.538731814963199
 40
1.538731814963199
 40
1.594509886975616
 40
1.594509886975616
 40
1.594509886975616
 40
1.594509886975616
 10
-210.3619836831997
 20
-1007.594916364791
 30
0.0
 10
-210.3619836831997
 20
-1007.263530343707
 30
0.0
 10
-210.3619836831998
 20
-1006.973459538707
 30
0.0
 10
-210.3619836831998
 20
-1006.21699986502
 30
0.0
 10
-210.3619836831997
 20
-1006.016122682504
 30
0.0
 10
-210.3619836831997
 20
-1005.841503486809
 30
0.0
 10
-210.3619836831997
 20
-1005.830787136967
 30
0.0
 10
-210.3619836831997
 20
-1005.774589421541
 30
0.0
 10
-210.3619836831997
 20
-1005.759717964423
 30
0.0
 10
-210.3619836831997
 20
-1005.730818674294
 30
0.0
 10
-210.3619836831997
 20
-1005.719755165944
 30
0.0
 10
-210.3619836831997
 20
-1005.697434006752
 30
0.0
 10
-210.3619836831997
 20
-1005.688212867984
 30
0.0
 10
-210.3619836831997
 20
-1005.668701339953
 30
0.0
 10
-210.3619836831997
 20
-1005.659300983421
 30
0.0
 10
-210.3619836831997
 20
-1005.637776393907
 30
0.0
 10
-210.3619836831997
 20
-1005.626306294129
 30
0.0
 10
-210.3619836831997
 20
-1005.59749337889
 30
0.0
 10
-210.3619836831997
 20
-1005.580556827723
 30
0.0
 10
-210.3619836831997
 20
-1005.537739844029
 30
0.0
 10
-210.3619836831997
 20
-1005.511431555706
 30
0.0
 10
-210.3619836831997
 20
-1005.432562955685
 30
0.0
 10
-210.3619836831997
 20
-1005.3711392365
 30
0.0
 10
-210.3619836831997
 20
-1005.151506568028
 30
0.0
 10
-210.3619836831997
 20
-1004.988274523876
 30
0.0
 10
-210.3619836831997
 20
-1004.925954077603
 30
0.0
 10
-210.3619836831997
 20
-1004.920321485956
 30
0.0
 10
-210.3619836831997
 20
-1004.92030956293
 30
0.0
  0
SPLINE
  5
312
330
6C
100
AcDbEntity
  8
Sichtbare Kanten(DIN)
100
AcDbSpline
210
0.0
220
0.0
230
1.0
 70
    24
 71
     3
 72
    28
 73
    24
 74
     0
 42
0.0000000001
 43
0.0000000001
 40
3.758125257081901
 40
3.758125257081901
 40
3.758125257081901
 40
3.758125257081901
 40
3.863197271509318
 40
3.863197271509318
 40
3.952423294695847
 40
3.952423294695847
 40
3.987024128703136
 40
3.987024128703136
 40
4.002714610366175
 40
4.002714610366175
 40
4.012771805935186
 40
4.012771805935186
 40
4.022133170872582
 40
4.022133170872582
 40
4.03376881549812
 40
4.03376881549812
 40
4.051790406625209
 40
4.051790406625209
 40
4.111623824110224
 40
4.111623824110224
 40
4.272901065929932
 40
4.272901065929932
 40
4.449637789780339
 40
4.449637789780339
 40
4.449637789780339
 40
4.449637789780339
 10
-210.3619836831997
 20
-1017.948070060405
 30
0.0
 10
-210.3619836831997
 20
-1017.948067747135
 30
0.0
 10
-210.3619836831997
 20
-1017.927548216869
 30
0.0
 10
-210.3619836831997
 20
-1017.867995232645
 30
0.0
 10
-210.3619836831997
 20
-1017.831498384003
 30
0.0
 10
-210.3619836831997
 20
-1017.773513662381
 30
0.0
 10
-210.3619836831997
 20
-1017.752659346162
 30
0.0
 10
-210.3619836831997
 20
-1017.716122244295
 30
0.0
 10
-210.3619836831997
 20
-1017.702821565005
 30
0.0
 10
-210.3619836831997
 20
-1017.678195712386
 30
0.0
 10
-210.3619836831997
 20
-1017.667794968637
 30
0.0
 10
-210.3619836831997
 20
-1017.646271924362
 30
0.0
 10
-210.3619836831997
 20
-1017.635852401779
 30
0.0
 10
-210.3619836831997
 20
-1017.612390621423
 30
0.0
 10
-210.3619836831997
 20
-1017.600216525086
 30
0.0
 10
-210.3619836831997
 20
-1017.571760354121
 30
0.0
 10
-210.3619836831997
 20
-1017.555644817303
 30
0.0
 10
-210.3619836831997
 20
-1017.491783124647
 30
0.0
 10
-210.3619836831997
 20
-1017.443975229658
 30
0.0
 10
-210.3619836831997
 20
-1017.25456875445
 30
0.0
 10
-210.3619836831997
 20
-1017.087171611385
 30
0.0
 10
-210.3619836831997
 20
-1016.372308690454
 30
0.0
 10
-210.3619836831997
 20
-1015.946574681385
 30
0.0
 10
-210.3619836831997
 20
-1015.542606551225
 30
0.0
  0
SPLINE
  5
313
330
6C
100
AcDbEntity
  8
Sichtbare Kanten(DIN)
100
AcDbSpline
210
0.0
220
0.0
230
1.0
 70
     8
 71
     3
 72
    24
 73
    20
 74
     0
 42
0.0000000001
 43
0.0000000001
 40
20.16149352547561
 40
20.16149352547561
 40
20.16149352547561
 40
20.16149352547561
 40
20.19441467573918
 40
20.19441467573918
 40
20.23313007595259
 40
20.23313007595259
 40
20.27186795962414
 40
20.27186795962414
 40
20.31073875567766
 40
20.31073875567766
 40
20.35081178405284
 40
20.35081178405284
 40
20.40070423103364
 40
20.40070423103364
 40
20.49996911823694
 40
20.49996911823694
 40
20.76082870134352
 40
20.76082870134352
 40
20.94107594726592
 40
20.94107594726592
 40
20.94107594726592
 40
20.94107594726592
 10
-223.3619836831997
 20
-1004.680348179295
 30
0.0
 10
-223.2859369025481
 20
-1004.634678859486
 30
0.0
 10
-223.1994391568223
 20
-1004.596690943911
 30
0.0
 10
-223.0008663799559
 20
-1004.545094134275
 30
0.0
 10
-222.8848253295246
 20
-1004.536070800326
 30
0.0
 10
-222.6613980963612
 20
-1004.559408420046
 30
0.0
 10
-222.5516273009479
 20
-1004.592054797567
 30
0.0
 10
-222.3594689421627
 20
-1004.685812551904
 30
0.0
 10
-222.2753903513555
 20
-1004.747632126691
 30
0.0
 10
-222.1399565910969
 20
-1004.876737769521
 30
0.0
 10
-222.0879816583327
 20
-1004.944396255756
 30
0.0
 10
-221.9976147863863
 20
-1005.08371868219
 30
0.0
 10
-221.9636434018532
 20
-1005.154109569275
 30
0.0
 10
-221.8791633179399
 20
-1005.354144643516
 30
0.0
 10
-221.8435383884582
 20
-1005.478775524278
 30
0.0
 10
-221.7186448131201
 20
-1005.987515295501
 30
0.0
 10
-221.6443749423415
 20
-1006.477424701085
 30
0.0
 10
-221.5159815115536
 20
-1007.520284004207
 30
0.0
 10
-221.463277542505
 20
-1008.012678559127
 30
0.0
 10
-221.4110432971362
 20
-1008.542604845588
 30
0.0
  0
SPLINE
  5
314
330
6C
100
AcDbEntity
  8
Sichtbare Kanten(DIN)
100
AcDbSpline
210
0.0
220
0.0
230
1.0
 70
     8
 71
     3
 72
    10
 73
     6
 74
     0
 42
0.0000000001
 43
0.0000000001
 40
24.64670045111061
 40
24.64670045111061
 40
24.64670045111061
 40
24.64670045111061
 40
24.77304261386299
 40
24.77304261386299
 40
24.95328922885157
 40
24.95328922885157
 40
24.95328922885157
 40
24.95328922885157
 10
-218.3619836831997
 20
-1006.286685366277
 30
0.0
 10
-218.3239586302249
 20
-1006.526503366528
 30
0.0
 10
-218.2875731972613
 20
-1006.795453347556
 30
0.0
 10
-218.1983340845388
 20
-1007.5202874372
 30
0.0
 10
-218.1456303026538
 20
-1008.012680396718
 30
0.0
 10
-218.0933962385238
 20
-1008.542604845588
 30
0.0
  0
SPLINE
  5
315
330
6C
100
AcDbEntity
  8
Sichtbare Kanten(DIN)
100
AcDbSpline
210
0.0
220
0.0
230
1.0
 70
     8
 71
     3
 72
    34
 73
    30
 74
     0
 42
0.0000000001
 43
0.0000000001
 40
27.52643047684867
 40
27.52643047684867
 40
27.52643047684867
 40
27.52643047684867
 40
27.64843535785756
 40
27.64843535785756
 40
27.8498647864043
 40
27.8498647864043
 40
28.06307267440907
 40
28.06307267440907
 40
28.12517007768986
 40
28.12517007768986
 40
28.17342674101813
 40
28.17342674101813
 40
28.21884130772799
 40
28.21884130772799
 40
28.25755670557746
 40
28.25755670557746
 40
28.29629458914896
 40
28.29629458914896
 40
28.33516538586995
 40
28.33516538586995
 40
28.37523841963595
 40
28.37523841963595
 40
28.42513090159219
 40
28.42513090159219
 40
28.52439596360069
 40
28.52439596360069
 40
28.78525581555681
 40
28.78525581555681
 40
28.96550250918098
 40
28.96550250918098
 40
28.96550250918098
 40
28.96550250918098
 10
-217.6956422873102
 20
-1008.542604845591
 30
0.0
 10
-217.6603011226953
 20
-1008.183905494652
 30
0.0
 10
-217.6248417448831
 20
-1007.843225906608
 30
0.0
 10
-217.5312064250975
 20
-1007.013075933479
 30
0.0
 10
-217.4721744004393
 20
-1006.55998109156
 30
0.0
 10
-217.3468508655876
 20
-1005.803875470925
 30
0.0
 10
-217.2950477386528
 20
-1005.523636869114
 30
0.0
 10
-217.1453381932583
 20
-1005.157164219008
 30
0.0
 10
-217.1040852817423
 20
-1005.0693217863
 30
0.0
 10
-216.9811682636204
 20
-1004.89432785474
 30
0.0
 10
-216.9070831927596
 20
-1004.809397005758
 30
0.0
 10
-216.7156080194435
 20
-1004.665567037542
 30
0.0
 10
-216.5987755927051
 20
-1004.605689203211
 30
0.0
 10
-216.3655716682102
 20
-1004.54509405178
 30
0.0
 10
-216.2495306171856
 20
-1004.536070792883
 30
0.0
 10
-216.0261034119427
 20
-1004.559408548848
 30
0.0
 10
-215.9163326461131
 20
-1004.59205499155
 30
0.0
 10
-215.7241743702872
 20
-1004.685812841886
 30
0.0
 10
-215.6400958347309
 20
-1004.747632447301
 30
0.0
 10
-215.5046621736762
 20
-1004.876738116861
 30
0.0
 10
-215.4526872880026
 20
-1004.944396599278
 30
0.0
 10
-215.3623204641577
 20
-1005.083719054936
 30
0.0
 10
-215.3283490943607
 20
-1005.154109967071
 30
0.0
 10
-215.2438689726157
 20
-1005.354145285537
 30
0.0
 10
-215.2082440155256
 20
-1005.478776398547
 30
0.0
 10
-215.0833503668326
 20
-1005.987517069384
 30
0.0
 10
-215.0090804113891
 20
-1006.477427497642
 30
0.0
 10
-214.8806870716043
 20
-1007.520287009334
 30
0.0
 10
-214.8279832663924
 20
-1008.012680167692
 30
0.0
 10
-214.775749179674
 20
-1008.542604845588
 30
0.0
  0
SPLINE
  5
316
330
6C
100
AcDbEntity
  8
Sichtbare Kanten(DIN)
100
AcDbSpline
210
0.0
220
0.0
230
1.0
 70
     8
 71
     3
 72
    10
 73
     6
 74
     0
 42
0.0000000001
 43
0.0000000001
 40
30.06444522090486
 40
30.06444522090486
 40
30.06444522090486
 40
30.06444522090486
 40
30.07437624296682
 40
30.07437624296682
 40
30.08464650821219
 40
30.08464650821219
 40
30.08464650821219
 40
30.08464650821219
 10
-213.8619836831997
 20
-1017.154823252711
 30
0.0
 10
-213.8610805865354
 20
-1017.157496118539
 30
0.0
 10
-213.8603504579369
 20
-1017.159567996754
 30
0.0
 10
-213.8592618926179
 20
-1017.162488196452
 30
0.0
 10
-213.8589483444123
 20
-1017.16327184446
 30
0.0
 10
-213.8589483444119
 20
-1017.163271844461
 30
0.0
  0
SPLINE
  5
317
330
6C
100
AcDbEntity
  8
Sichtbare Kanten(DIN)
100
AcDbSpline
210
0.0
220
0.0
230
1.0
 70
     8
 71
     3
 72
    48
 73
    44
 74
     0
 42
0.0000000001
 43
0.0000000001
 40
31.53864375739326
 40
31.53864375739326
 40
31.53864375739326
 40
31.53864375739326
 40
31.66064863402001
 40
31.66064863402001
 40
31.86207806244002
 40
31.86207806244002
 40
32.07528594992161
 40
32.07528594992161
 40
32.13738335602212
 40
32.13738335602212
 40
32.18564002265682
 40
32.18564002265682
 40
32.23105458945744
 40
32.23105458945744
 40
32.26976998726498
 40
32.26976998726498
 40
32.3085078708347
 40
32.3085078708347
 40
32.34737866756753
 40
32.34737866756753
 40
32.38745170142918
 40
32.38745170142918
 40
32.43734418400607
 40
32.43734418400607
 40
32.53660924911654
 40
32.53660924911654
 40
32.79746910584363
 40
32.79746910584363
 40
33.03531560849299
 40
33.03531560849299
 40
33.23710522685453
 40
33.23710522685453
 40
33.43479776903447
 40
33.43479776903447
 40
33.62992392794141
 40
33.62992392794141
 40
33.82204318618615
 40
33.82204318618615
 40
34.00776291601057
 40
34.00776291601057
 40
34.08658952849724
 40
34.08658952849724
 40
34.09685978866056
 40
34.09685978866056
 40
34.09685978866056
 40
34.09685978866056
 10
-214.3779952284859
 20
-1008.542604845591
 30
0.0
 10
-214.3426540651352
 20
-1008.183905507471
 30
0.0
 10
-214.307194688607
 20
-1007.843225931057
 30
0.0
 10
-214.2135593701553
 20
-1007.013075964815
 30
0.0
 10
-214.1545273455443
 20
-1006.559981119609
 30
0.0
 10
-214.0292038111797
 20
-1005.803875492964
 30
0.0
 10
-213.97740068284
 20
-1005.523636886462
 30
0.0
 10
-213.8276911425519
 20
-1005.157164235972
 30
0.0
 10
-213.7864382313596
 20
-1005.06932180068
 30
0.0
 10
-213.6635212101599
 20
-1004.894327860539
 30
0.0
 10
-213.5894361348566
 20
-1004.80939700509
 30
0.0
 10
-213.3979609524321
 20
-1004.665567032671
 30
0.0
 10
-213.2811285244723
 20
-1004.60568919927
 30
0.0
 10
-213.0479245988443
 20
-1004.545094050316
 30
0.0
 10
-212.9318835478091
 20
-1004.53607079275
 30
0.0
 10
-212.7084563430616
 20
-1004.559408551134
 30
0.0
 10
-212.598685577757
 20
-1004.592054994993
 30
0.0
 10
-212.4065273034032
 20
-1004.685812847031
 30
0.0
 10
-212.3224487688273
 20
-1004.74763245299
 30
0.0
 10
-212.1870151095331
 20
-1004.876738123025
 30
0.0
 10
-212.1350402246952
 20
-1004.944396605374
 30
0.0
 10
-212.0446734017038
 20
-1005.083719061551
 30
0.0
 10
-212.0107020321683
 20
-1005.15410997413
 30
0.0
 10
-211.9262219097519
 20
-1005.354145296929
 30
0.0
 10
-211.890596952172
 20
-1005.478776414061
 30
0.0
 10
-211.7657033021772
 20
-1005.987517100862
 30
0.0
 10
-211.6914333452312
 20
-1006.477427547268
 30
0.0
 10
-211.5462743680666
 20
-1007.656463957868
 30
0.0
 10
-211.4766276120997
 20
-1008.33414551829
 30
0.0
 10
-211.3501332998467
 20
-1009.678026445737
 30
0.0
 10
-211.2913613509904
 20
-1010.346517703935
 30
0.0
 10
-211.1765311328342
 20
-1011.669560621722
 30
0.0
 10
-211.1189513752565
 20
-1012.340753044655
 30
0.0
 10
-211.0060611073313
 20
-1013.604172310969
 30
0.0
 10
-210.9492467132579
 20
-1014.213338939036
 30
0.0
 10
-210.8383124534508
 20
-1015.290464446263
 30
0.0
 10
-210.7825835278182
 20
-1015.774717242128
 30
0.0
 10
-210.6765854771752
 20
-1016.543999201703
 30
0.0
 10
-210.6227065283592
 20
-1016.85006760818
 30
0.0
 10
-210.5629481623647
 20
-1017.098125633979
 30
0.0
 10
-210.5464158999598
 20
-1017.149608793376
 30
0.0
 10
-210.5416148334846
 20
-1017.16248819723
 30
0.0
 10
-210.5413012855888
 20
-1017.16327184446
 30
0.0
 10
-210.5413012855883
 20
-1017.163271844461
 30
0.0
  0
SPLINE
  5
318
330
6C
100
AcDbEntity
  8
Sichtbare Kanten(DIN)
100
AcDbSpline
210
0.0
220
0.0
230
1.0
 70
     8
 71
     3
 72
    16
 73
    12
 74
     0
 42
0.0000000001
 43
0.0000000001
 40
35.32135376439922
 40
35.32135376439922
 40
35.32135376439922
 40
35.32135376439922
 40
35.47531855859221
 40
35.47531855859221
 40
35.67286191502518
 40
35.67286191502518
 40
35.87429134346098
 40
35.87429134346098
 40
36.08749923100776
 40
36.08749923100776
 40
36.15996051726322
 40
36.15996051726322
 40
36.15996051726322
 40
36.15996051726322
 10
-211.2592223161233
 20
-1010.717500854589
 30
0.0
 10
-211.2147816888318
 20
-1010.208011676597
 30
0.0
 10
-211.1700850501761
 20
-1009.703548155861
 30
0.0
 10
-211.0689689770691
 20
-1008.616318785407
 30
0.0
 10
-211.0114162731158
 20
-1008.037108472271
 30
0.0
 10
-210.8959123108481
 20
-1007.01307596091
 30
0.0
 10
-210.8368802862313
 20
-1006.559981116114
 30
0.0
 10
-210.711556751806
 20
-1005.803875490218
 30
0.0
 10
-210.6597536236413
 20
-1005.523636884301
 30
0.0
 10
-210.5044082601208
 20
-1005.143368353973
 30
0.0
 10
-210.4551926076025
 20
-1005.038269873749
 30
0.0
 10
-210.3619836831997
 20
-1004.920334446455
 30
0.0
  0
SPLINE
  5
319
330
6C
100
AcDbEntity
  8
Sichtbare Kanten(DIN)
100
AcDbSpline
210
0.0
220
0.0
230
1.0
 70
     8
 71
     3
 72
    42
 73
    38
 74
     0
 42
0.0000000001
 43
0.0000000001
 40
0.0
 40
0.0
 40
0.0
 40
0.0
 40
0.0562129416133335
 40
0.0562129416133335
 40
0.0889667670691756
 40
0.0889667670691756
 40
0.1317901463711252
 40
0.1317901463711252
 40
0.1706567152184519
 40
0.1706567152184519
 40
0.2093801617413792
 40
0.2093801617413792
 40
0.2482637671909885
 40
0.2482637671909885
 40
0.2884334561494531
 40
0.2884334561494531
 40
0.3389464175792568
 40
0.3389464175792568
 40
0.4413263128722531
 40
0.4413263128722531
 40
0.7068640296718098
 40
0.7068640296718098
 40
0.9418402285831449
 40
0.9418402285831449
 40
1.143402726650652
 40
1.143402726650652
 40
1.340999187737387
 40
1.340999187737387
 40
1.536042550138463
 40
1.536042550138463
 40
1.728030073734026
 40
1.728030073734026
 40
1.913397571342631
 40
1.913397571342631
 40
1.991322665818091
 40
1.991322665818091
 40
1.996514487439063
 40
1.996514487439063
 40
1.996514487439063
 40
1.996514487439063
 10
-210.3619836831997
 20
-1017.948163168952
 30
0.0
 10
-210.401054143844
 20
-1018.027198096574
 30
0.0
 10
-210.4523565221871
 20
-1018.115650847044
 30
0.0
 10
-210.5812555219935
 20
-1018.262203420297
 30
0.0
 10
-210.6398708651267
 20
-1018.317438526386
 30
0.0
 10
-210.7999245366479
 20
-1018.43065057748
 30
0.0
 10
-210.9113702987405
 20
-1018.484606465746
 30
0.0
 10
-211.1385989678657
 20
-1018.54141646149
 30
0.0
 10
-211.25524702473
 20
-1018.549275633817
 30
0.0
 10
-211.4786847184284
 20
-1018.523497434798
 30
0.0
 10
-211.5878930479831
 20
-1018.489733821283
 30
0.0
 10
-211.7785732640931
 20
-1018.394344399076
 30
0.0
 10
-211.8616930893492
 20
-1018.332004140787
 30
0.0
 10
-211.9954146607162
 20
-1018.202447204328
 30
0.0
 10
-212.046580691336
 20
-1018.134856696661
 30
0.0
 10
-212.1361309483214
 20
-1017.99500913707
 30
0.0
 10
-212.1698547710888
 20
-1017.924166485494
 30
0.0
 10
-212.2550259134422
 20
-1017.71976489391
 30
0.0
 10
-212.291150650417
 20
-1017.590958210545
 30
0.0
 10
-212.417347930323
 20
-1017.066173814528
 30
0.0
 10
-212.493096498817
 20
-1016.55818616229
 30
0.0
 10
-212.6386198769936
 20
-1015.35747649167
 30
0.0
 10
-212.7073982300061
 20
-1014.682509797707
 30
0.0
 10
-212.8329905014771
 20
-1013.341937827425
 30
0.0
 10
-212.8916950270201
 20
-1012.67248357511
 30
0.0
 10
-213.0064321212228
 20
-1011.349532967932
 30
0.0
 10
-213.0639842998679
 20
-1010.67934628724
 30
0.0
 10
-213.1768197984504
 20
-1009.4200794162
 30
0.0
 10
-213.2336075185096
 20
-1008.81407921334
 30
0.0
 10
-213.3444530272876
 20
-1007.745254036095
 30
0.0
 10
-213.4001303244466
 20
-1007.26613525334
 30
0.0
 10
-213.5058194239563
 20
-1006.509107846434
 30
0.0
 10
-213.5596977769822
 20
-1006.209599912813
 30
0.0
 10
-213.6176873344306
 20
-1005.975195429
 30
0.0
 10
-213.6334867406585
 20
-1005.928346800742
 30
0.0
 10
-213.6358877869515
 20
-1005.922137394611
 30
0.0
 10
-213.6359678973189
 20
-1005.921937850452
 30
0.0
 10
-213.6359678973189
 20
-1005.921937850452
 30
0.0
  0
SPLINE
  5
31A
330
6C
100
AcDbEntity
  8
Sichtbare Kanten(DIN)
100
AcDbSpline
210
0.0
220
0.0
230
1.0
 70
     8
 71
     3
 72
    18
 73
    14
 74
     0
 42
0.0000000001
 43
0.0000000001
 40
3.221021201217112
 40
3.221021201217112
 40
3.221021201217112
 40
3.221021201217112
 40
3.375540213128205
 40
3.375540213128205
 40
3.573091399622554
 40
3.573091399622554
 40
3.774537063498197
 40
3.774537063498197
 40
3.987812082019045
 40
3.987812082019045
 40
4.049546276628587
 40
4.049546276628587
 40
4.070773541931021
 40
4.070773541931021
 40
4.070773541931021
 40
4.070773541931021
 10
-212.9180464279782
 20
-1012.367704479194
 30
0.0
 10
-212.9626452029445
 20
-1012.879006747369
 30
0.0
 10
-213.0075042506689
 20
-1013.38527256056
 30
0.0
 10
-213.1087826130622
 20
-1014.473859708163
 30
0.0
 10
-213.1663380621544
 20
-1015.052787038209
 30
0.0
 10
-213.2818535149493
 20
-1016.076141376463
 30
0.0
 10
-213.3408915805177
 20
-1016.528815564901
 30
0.0
 10
-213.4662776321422
 20
-1017.284152525172
 30
0.0
 10
-213.5178992480976
 20
-1017.563790461698
 30
0.0
 10
-213.6682658019324
 20
-1017.930215440457
 30
0.0
 10
-213.7095581961152
 20
-1018.017722883971
 30
0.0
 10
-213.802322373497
 20
-1018.149386882213
 30
0.0
 10
-213.8300021007824
 20
-1018.184688526455
 30
0.0
 10
-213.8619836831997
 20
-1018.2199617975
 30
0.0
  0
SPLINE
  5
31B
330
6C
100
AcDbEntity
  8
Sichtbare Kanten(DIN)
100
AcDbSpline
210
0.0
220
0.0
230
1.0
 70
     8
 71
     3
 72
    16
 73
    12
 74
     0
 42
0.0000000001
 43
0.0000000001
 40
5.516617782153752
 40
5.516617782153752
 40
5.516617782153752
 40
5.516617782153752
 40
5.541006884223932
 40
5.541006884223932
 40
5.733142456389206
 40
5.733142456389206
 40
5.918905430029492
 40
5.918905430029492
 40
5.997841567052412
 40
5.997841567052412
 40
6.008753884866218
 40
6.008753884866218
 40
6.008753884866218
 40
6.008753884866218
 10
-216.5798699783446
 20
-1008.542604845588
 30
0.0
 10
-216.586882303922
 20
-1008.472728351281
 30
0.0
 10
-216.5938835602686
 20
-1008.403793816159
 30
0.0
 10
-216.6559132734084
 20
-1007.800993163902
 30
0.0
 10
-216.7116485827238
 20
-1007.316099971251
 30
0.0
 10
-216.8176842965962
 20
-1006.545288909526
 30
0.0
 10
-216.8715645591057
 20
-1006.238398315501
 30
0.0
 10
-216.9315341835996
 20
-1005.988644460747
 30
0.0
 10
-216.9481544018074
 20
-1005.936584328172
 30
0.0
 10
-216.9532610671632
 20
-1005.922822808706
 30
0.0
 10
-216.9536149561422
 20
-1005.921937850453
 30
0.0
 10
-216.9536149561427
 20
-1005.921937850452
 30
0.0
  0
SPLINE
  5
31C
330
6C
100
AcDbEntity
  8
Sichtbare Kanten(DIN)
100
AcDbSpline
210
0.0
220
0.0
230
1.0
 70
     8
 71
     3
 72
    10
 73
     6
 74
     0
 42
0.0000000001
 43
0.0000000001
 40
13.5410447706764
 40
13.5410447706764
 40
13.5410447706764
 40
13.5410447706764
 40
13.56622951458653
 40
13.56622951458653
 40
13.71172227560928
 40
13.71172227560928
 40
13.71172227560928
 40
13.71172227560928
 10
-223.2151643620178
 20
-1008.542604845588
 30
0.0
 10
-223.2224060228593
 20
-1008.470442618397
 30
0.0
 10
-223.2296359726596
 20
-1008.399283650402
 30
0.0
 10
-223.2785300090065
 20
-1007.924536557299
 30
0.0
 10
-223.3206065132528
 20
-1007.548589779896
 30
0.0
 10
-223.3619836831997
 20
-1007.220053185164
 30
0.0
  0
SPLINE
  5
31D
330
6C
100
AcDbEntity
  8
Sichtbare Kanten(DIN)
100
AcDbSpline
210
0.0
220
0.0
230
1.0
 70
    12
 71
     2
 72
     6
 73
     3
 74
     0
 42
0.0000000001
 43
0.0000000001
 40
0.3807113172039052
 40
0.3807113172039052
 40
0.3807113172039052
 40
0.7614226344078104
 40
0.7614226344078104
 40
0.7614226344078104
 10
-203.9911488077986
 20
-995.3925048456012
 30
0.0
 41
1.0
 10
-204.8619836831997
 20
-995.3925048456017
 30
0.0
 41
1.037954849302019
 10
-205.8675371826648
 20
-995.9730614292029
 30
0.0
 41
1.0
  0
LINE
  5
31E
330
6C
100
AcDbEntity
  8
Sichtbare Kanten(DIN)
100
AcDbLine
 10
-203.9911488077986
 20
-995.3925048456012
 30
0.0
 11
-204.8619836831997
 21
-995.3925048456023
 31
0.0
  0
SPLINE
  5
31F
330
6C
100
AcDbEntity
  8
Sichtbare Kanten(DIN)
100
AcDbSpline
210
0.0
220
0.0
230
1.0
 70
    12
 71
     2
 72
     6
 73
     3
 74
     0
 42
0.0000000001
 43
0.0000000001
 40
0.0
 40
0.0
 40
0.0
 40
0.3807113172039044
 40
0.3807113172039044
 40
0.3807113172039044
 10
-190.8564301837346
 20
-995.9730614292029
 30
0.0
 41
1.0
 10
-191.8619836831997
 20
-995.3925048456017
 30
0.0
 41
1.037954849302038
 10
-192.7328185586009
 20
-995.3925048456012
 30
0.0
 41
1.0
  0
LINE
  5
320
330
6C
100
AcDbEntity
  8
Sichtbare Kanten(DIN)
100
AcDbLine
 10
-191.8619836831996
 20
-995.3925048456023
 30
0.0
 11
-192.7328185586008
 21
-995.3925048456012
 31
0.0
  0
SPLINE
  5
321
330
6C
100
AcDbEntity
  8
Sichtbare Kanten(DIN)
100
AcDbSpline
210
0.0
220
0.0
230
1.0
 70
    12
 71
     2
 72
     6
 73
     3
 74
     0
 42
0.0000000001
 43
0.0000000001
 40
0.3807113172039045
 40
0.3807113172039045
 40
0.3807113172039045
 40
0.761422634407809
 40
0.761422634407809
 40
0.761422634407809
 10
-198.3619836831997
 20
-995.3925048456005
 30
0.0
 41
1.0
 10
-200.103653434002
 20
-995.3925048456005
 30
0.0
 41
1.037954849302044
 10
-202.1147604329323
 20
-995.9730614292011
 30
0.0
 41
1.0
  0
LINE
  5
322
330
6C
100
AcDbEntity
  8
Sichtbare Kanten(DIN)
100
AcDbLine
 10
-198.3619836831997
 20
-995.3925048456005
 30
0.0
 11
-203.9911488077986
 21
-995.3925048456012
 31
0.0
  0
SPLINE
  5
323
330
6C
100
AcDbEntity
  8
Sichtbare Kanten(DIN)
100
AcDbSpline
210
0.0
220
0.0
230
1.0
 70
    12
 71
     2
 72
     6
 73
     3
 74
     0
 42
0.0000000001
 43
0.0000000001
 40
0.0
 40
0.0
 40
0.0
 40
0.3807113172039052
 40
0.3807113172039052
 40
0.3807113172039052
 10
-202.1147604329323
 20
-995.9730614292011
 30
0.0
 41
1.0
 10
-203.1203139323974
 20
-995.3925048456007
 30
0.0
 41
1.037954849302053
 10
-203.9911488077986
 20
-995.3925048456012
 30
0.0
 41
1.0
  0
SPLINE
  5
324
330
6C
100
AcDbEntity
  8
Sichtbare Kanten(DIN)
100
AcDbSpline
210
0.0
220
0.0
230
1.0
 70
    12
 71
     2
 72
     6
 73
     3
 74
     0
 42
0.0000000001
 43
0.0000000001
 40
0.0
 40
0.0
 40
0.0
 40
0.3807113172039045
 40
0.3807113172039045
 40
0.3807113172039045
 10
-194.6092069334672
 20
-995.9730614292011
 30
0.0
 41
1.0
 10
-196.6203139323974
 20
-995.3925048456005
 30
0.0
 41
1.037954849302043
 10
-198.3619836831997
 20
-995.3925048456005
 30
0.0
 41
1.0
  0
SPLINE
  5
325
330
6C
100
AcDbEntity
  8
Sichtbare Kanten(DIN)
100
AcDbSpline
210
0.0
220
0.0
230
1.0
 70
    12
 71
     2
 72
     6
 73
     3
 74
     0
 42
0.0000000001
 43
0.0000000001
 40
0.3807113172039044
 40
0.3807113172039044
 40
0.3807113172039044
 40
0.7614226344078088
 40
0.7614226344078088
 40
0.7614226344078088
 10
-192.7328185586009
 20
-995.3925048456012
 30
0.0
 41
1.0
 10
-193.603653434002
 20
-995.3925048456007
 30
0.0
 41
1.037954849302023
 10
-194.6092069334671
 20
-995.9730614292011
 30
0.0
 41
1.0
  0
LINE
  5
326
330
6C
100
AcDbEntity
  8
Sichtbare Kanten(DIN)
100
AcDbLine
 10
-192.7328185586008
 20
-995.3925048456012
 30
0.0
 11
-198.3619836831997
 21
-995.3925048456003
 31
0.0
  0
LINE
  5
327
330
6C
100
AcDbEntity
  8
Sichtbare Kanten(DIN)
100
AcDbLine
 10
-204.8619836831997
 20
-995.3925048456023
 30
0.0
 11
-205.8675371826648
 21
-995.9730614292029
 31
0.0
  0
LINE
  5
328
330
6C
100
AcDbEntity
  8
Sichtbare Kanten(DIN)
100
AcDbLine
 10
-191.8619836831996
 20
-995.3925048456023
 30
0.0
 11
-190.8564301837346
 21
-995.9730614292029
 31
0.0
  0
LINE
  5
329
330
6C
100
AcDbEntity
  8
Sichtbare Kanten(DIN)
100
AcDbLine
 10
-202.1147604329323
 20
-1000.0925048456
 30
0.0
 11
-202.1147604329323
 21
-995.9730614292011
 31
0.0
  0
LINE
  5
32A
330
6C
100
AcDbEntity
  8
Sichtbare Kanten(DIN)
100
AcDbLine
 10
-194.6092069334671
 20
-1000.0925048456
 30
0.0
 11
-202.1147604329323
 21
-1000.0925048456
 31
0.0
  0
LINE
  5
32B
330
6C
100
AcDbEntity
  8
Sichtbare Kanten(DIN)
100
AcDbLine
 10
-194.6092069334671
 20
-1000.0925048456
 30
0.0
 11
-194.6092069334671
 21
-995.9730614292011
 31
0.0
  0
LINE
  5
32C
330
6C
100
AcDbEntity
  8
Sichtbare Kanten(DIN)
100
AcDbLine
 10
-205.8675371826648
 20
-1000.092504845602
 30
0.0
 11
-205.8675371826648
 21
-995.9730614292029
 31
0.0
  0
LINE
  5
32D
330
6C
100
AcDbEntity
  8
Sichtbare Kanten(DIN)
100
AcDbLine
 10
-202.1147604329323
 20
-1000.0925048456
 30
0.0
 11
-205.8675371826648
 21
-1000.092504845602
 31
0.0
  0
LINE
  5
32E
330
6C
100
AcDbEntity
  8
Sichtbare Kanten(DIN)
100
AcDbLine
 10
-190.8564301837346
 20
-1000.092504845602
 30
0.0
 11
-194.6092069334671
 21
-1000.0925048456
 31
0.0
  0
LINE
  5
32F
330
6C
100
AcDbEntity
  8
Sichtbare Kanten(DIN)
100
AcDbLine
 10
-190.8564301837346
 20
-1000.092504845602
 30
0.0
 11
-190.8564301837346
 21
-995.9730614292029
 31
0.0
  0
LINE
  5
330
330
6C
100
AcDbEntity
  8
Sichtbare Kanten(DIN)
100
AcDbLine
 10
-194.3619836831997
 20
-1007.292604845602
 30
0.0
 11
-194.3619836831997
 21
-1007.542604845602
 31
0.0
  0
LINE
  5
331
330
6C
100
AcDbEntity
  8
Sichtbare Kanten(DIN)
100
AcDbLine
 10
-194.3619836831997
 20
-1015.542604845602
 30
0.0
 11
-194.3619836831997
 21
-1015.792604845602
 31
0.0
  0
LINE
  5
332
330
6C
100
AcDbEntity
  8
Sichtbare Kanten(DIN)
100
AcDbLine
 10
-202.3619836831997
 20
-1007.292604845602
 30
0.0
 11
-202.3619836831997
 21
-1007.542604845602
 31
0.0
  0
LINE
  5
333
330
6C
100
AcDbEntity
  8
Sichtbare Kanten(DIN)
100
AcDbLine
 10
-202.3619836831997
 20
-1015.542604845602
 30
0.0
 11
-202.3619836831997
 21
-1015.792604845602
 31
0.0
  0
LINE
  5
334
330
6C
100
AcDbEntity
  8
Sichtbare Kanten(DIN)
100
AcDbLine
 10
-192.6619836831997
 20
-1000.092504845602
 30
0.0
 11
-192.6619836831997
 21
-1000.692604845602
 31
0.0
  0
LINE
  5
335
330
6C
100
AcDbEntity
  8
Sichtbare Kanten(DIN)
100
AcDbLine
 10
-204.0619836831997
 20
-1000.092504845602
 30
0.0
 11
-204.0619836831997
 21
-1000.692604845602
 31
0.0
  0
LINE
  5
336
330
6C
100
AcDbEntity
  8
Sichtbare Kanten(DIN)
100
AcDbLine
 10
-206.3619836831997
 20
-1021.542604845602
 30
0.0
 11
-206.3619836831997
 21
-1020.792604845602
 31
0.0
  0
LINE
  5
337
330
6C
100
AcDbEntity
  8
Sichtbare Kanten(DIN)
100
AcDbLine
 10
-190.3619836831997
 20
-1021.542604845602
 30
0.0
 11
-190.3619836831997
 21
-1020.792604845602
 31
0.0
  0
LINE
  5
338
330
6C
100
AcDbEntity
  8
Sichtbare Kanten(DIN)
100
AcDbLine
 10
-190.3619836831997
 20
-1000.692604845602
 30
0.0
 11
-206.3619836831997
 21
-1000.692604845602
 31
0.0
  0
LINE
  5
339
330
6C
100
AcDbEntity
  8
Sichtbare Kanten(DIN)
100
AcDbLine
 10
-190.3619836831997
 20
-1000.692604845602
 30
0.0
 11
-190.3619836831997
 21
-1002.292604845602
 31
0.0
  0
LINE
  5
33A
330
6C
100
AcDbEntity
  8
Sichtbare Kanten(DIN)
100
AcDbLine
 10
-206.3619836831997
 20
-1000.692604845602
 30
0.0
 11
-206.3619836831997
 21
-1002.292604845602
 31
0.0
  0
LINE
  5
33B
330
6C
100
AcDbEntity
  8
Sichtbare Kanten(DIN)
100
AcDbLine
 10
-176.3619836831997
 20
-1043.542604845228
 30
0.0
 11
-225.8619836831996
 21
-1043.542604845228
 31
0.0
  0
LINE
  5
33C
330
6C
100
AcDbEntity
  8
Sichtbare Kanten(DIN)
100
AcDbLine
 10
-250.8619836831996
 20
-1043.542604845228
 30
0.0
 11
-300.3619836831997
 21
-1043.542604845228
 31
0.0
  0
LINE
  5
33D
330
6C
100
AcDbEntity
  8
Sichtbare Kanten(DIN)
100
AcDbLine
 10
-176.3619836831997
 20
-1021.542604845228
 30
0.0
 11
-300.3619836831997
 21
-1021.542604845228
 31
0.0
  0
LINE
  5
33E
330
6C
100
AcDbEntity
  8
Sichtbare Kanten(DIN)
100
AcDbLine
 10
-300.3619836831997
 20
-1021.042604845228
 30
0.0
 11
-300.3619836831997
 21
-1044.042604845228
 31
0.0
  0
ARC
  5
33F
330
6C
100
AcDbEntity
  8
Sichtbare Kanten(DIN)
100
AcDbCircle
 10
-301.8619836831997
 20
-1021.042604845228
 30
0.0
 40
1.5
100
AcDbArc
 50
0.0
 51
90.0
  0
ARC
  5
340
330
6C
100
AcDbEntity
  8
Sichtbare Kanten(DIN)
100
AcDbCircle
 10
-301.8619836831997
 20
-1044.042604845228
 30
0.0
 40
1.5
100
AcDbArc
 50
270.0
 51
0.0
  0
LINE
  5
341
330
6C
100
AcDbEntity
  8
Sichtbare Kanten(DIN)
100
AcDbLine
 10
-415.3619836831997
 20
-1043.542604845228
 30
0.0
 11
-415.3619836831997
 21
-1021.542604845228
 31
0.0
  0
ARC
  5
342
330
6C
100
AcDbEntity
  8
Sichtbare Kanten(DIN)
100
AcDbCircle
 10
-413.3619836831996
 20
-1043.542604845228
 30
0.0
 40
2.0
100
AcDbArc
 50
180.0
 51
270.0
  0
ARC
  5
343
330
6C
100
AcDbEntity
  8
Sichtbare Kanten(DIN)
100
AcDbCircle
 10
-413.3619836831996
 20
-1021.542604845228
 30
0.0
 40
2.0
100
AcDbArc
 50
90.0
 51
180.0
  0
LINE
  5
344
330
6C
100
AcDbEntity
  8
Sichtbare Kanten(DIN)
100
AcDbLine
 10
-301.8619836831997
 20
-1045.542604845228
 30
0.0
 11
-413.3619836831996
 21
-1045.542604845228
 31
0.0
  0
LINE
  5
345
330
6C
100
AcDbEntity
  8
Sichtbare Kanten(DIN)
100
AcDbLine
 10
-301.8619836831997
 20
-1019.542604845228
 30
0.0
 11
-413.3619836831996
 21
-1019.542604845228
 31
0.0
  0
LINE
  5
346
330
6C
100
AcDbEntity
  8
Sichtbare Kanten(DIN)
100
AcDbLine
 10
-176.3619836831997
 20
-1044.042604845228
 30
0.0
 11
-176.3619836831997
 21
-1021.042604845228
 31
0.0
  0
ARC
  5
347
330
6C
100
AcDbEntity
  8
Sichtbare Kanten(DIN)
100
AcDbCircle
 10
-174.8619836831997
 20
-1044.042604845228
 30
0.0
 40
1.5
100
AcDbArc
 50
180.0
 51
270.0
  0
ARC
  5
348
330
6C
100
AcDbEntity
  8
Sichtbare Kanten(DIN)
100
AcDbCircle
 10
-174.8619836831997
 20
-1021.042604845228
 30
0.0
 40
1.5
100
AcDbArc
 50
90.0
 51
180.0
  0
LINE
  5
349
330
6C
100
AcDbEntity
  8
Sichtbare Kanten(DIN)
100
AcDbLine
 10
-61.3619836831997
 20
-1021.542604845228
 30
0.0
 11
-61.3619836831997
 21
-1043.542604845228
 31
0.0
  0
ARC
  5
34A
330
6C
100
AcDbEntity
  8
Sichtbare Kanten(DIN)
100
AcDbCircle
 10
-63.36198368319969
 20
-1021.542604845228
 30
0.0
 40
1.999999999999999
100
AcDbArc
 50
0.0
 51
90.0
  0
ARC
  5
34B
330
6C
100
AcDbEntity
  8
Sichtbare Kanten(DIN)
100
AcDbCircle
 10
-63.36198368319969
 20
-1043.542604845228
 30
0.0
 40
1.999999999999999
100
AcDbArc
 50
270.0
 51
0.0
  0
LINE
  5
34C
330
6C
100
AcDbEntity
  8
Sichtbare Kanten(DIN)
100
AcDbLine
 10
-174.8619836831997
 20
-1019.542604845228
 30
0.0
 11
-63.36198368319966
 21
-1019.542604845228
 31
0.0
  0
LINE
  5
34D
330
6C
100
AcDbEntity
  8
Sichtbare Kanten(DIN)
100
AcDbLine
 10
-174.8619836831997
 20
-1045.542604845228
 30
0.0
 11
-63.36198368319966
 21
-1045.542604845228
 31
0.0
  0
LINE
  5
34E
330
6C
100
AcDbEntity
  8
Sichtbare Kanten(DIN)
100
AcDbLine
 10
-250.8619836831996
 20
-1043.542604845218
 30
0.0
 11
-225.8619836831996
 21
-1043.542604845218
 31
0.0
  0
LINE
  5
34F
330
6C
100
AcDbEntity
  8
Sichtbare Kanten(DIN)
100
AcDbLine
 10
-244.6119836831997
 20
-1048.542604845217
 30
0.0
 11
-250.8619836831996
 21
-1048.542604845218
 31
0.0
  0
LINE
  5
350
330
6C
100
AcDbEntity
  8
Sichtbare Kanten(DIN)
100
AcDbLine
 10
-225.8619836831996
 20
-1048.542604845218
 30
0.0
 11
-232.1119836831997
 21
-1048.542604845217
 31
0.0
  0
LINE
  5
351
330
6C
100
AcDbEntity
  8
Sichtbare Kanten(DIN)
100
AcDbLine
 10
-225.8619836831996
 20
-1043.542604845218
 30
0.0
 11
-225.8619836831996
 21
-1048.542604845218
 31
0.0
  0
LINE
  5
352
330
6C
100
AcDbEntity
  8
Sichtbare Kanten(DIN)
100
AcDbLine
 10
-250.8619836831996
 20
-1048.542604845218
 30
0.0
 11
-250.8619836831996
 21
-1043.542604845218
 31
0.0
  0
LINE
  5
353
330
6C
100
AcDbEntity
  8
Sichtbare Kanten(DIN)
100
AcDbLine
 10
-243.3619836831997
 20
-1065.622429845595
 30
0.0
 11
-233.3619836831997
 21
-1065.622429845595
 31
0.0
  0
LINE
  5
354
330
6C
100
AcDbEntity
  8
Sichtbare Kanten(DIN)
100
AcDbLine
 10
-234.2821586831997
 20
-1066.542604845595
 30
0.0
 11
-242.4418086831997
 21
-1066.542604845595
 31
0.0
  0
LINE
  5
355
330
6C
100
AcDbEntity
  8
Sichtbare Kanten(DIN)
100
AcDbLine
 10
-242.4418086831997
 20
-1066.542604845595
 30
0.0
 11
-243.3619836831997
 21
-1065.622429845595
 31
0.0
  0
LINE
  5
356
330
6C
100
AcDbEntity
  8
Sichtbare Kanten(DIN)
100
AcDbLine
 10
-234.2821586831997
 20
-1066.542604845595
 30
0.0
 11
-233.3619836831996
 21
-1065.622429845595
 31
0.0
  0
LINE
  5
357
330
6C
100
AcDbEntity
  8
Sichtbare Kanten(DIN)
100
AcDbLine
 10
-233.3619836831997
 20
-1063.542604845595
 30
0.0
 11
-233.3619836831997
 21
-1065.622429845595
 31
0.0
  0
LINE
  5
358
330
6C
100
AcDbEntity
  8
Sichtbare Kanten(DIN)
100
AcDbLine
 10
-243.3619836831997
 20
-1063.542604845595
 30
0.0
 11
-243.3619836831997
 21
-1065.622429845595
 31
0.0
  0
SPLINE
  5
359
330
6C
100
AcDbEntity
  8
Sichtbare Kanten(DIN)
100
AcDbSpline
210
0.0
220
0.0
230
1.0
 70
    12
 71
     2
 72
     6
 73
     3
 74
     0
 42
0.0000000001
 43
0.0000000001
 40
0.4978532609589531
 40
0.4978532609589531
 40
0.4978532609589531
 40
0.995706521917906
 40
0.995706521917906
 40
0.995706521917906
 10
-231.0007677510319
 20
-1037.14250484522
 30
0.0
 41
1.0
 10
-232.1395518188642
 20
-1037.14250484522
 30
0.0
 41
1.037954849302044
 10
-233.4545063950878
 20
-1037.901694223774
 30
0.0
 41
1.0
  0
LINE
  5
35A
330
6C
100
AcDbEntity
  8
Sichtbare Kanten(DIN)
100
AcDbLine
 10
-231.0007677510319
 20
-1037.14250484522
 30
0.0
 11
-238.3619836831996
 21
-1037.142504845219
 31
0.0
  0
SPLINE
  5
35B
330
6C
100
AcDbEntity
  8
Sichtbare Kanten(DIN)
100
AcDbSpline
210
0.0
220
0.0
230
1.0
 70
    12
 71
     2
 72
     6
 73
     3
 74
     0
 42
0.0000000001
 43
0.0000000001
 40
0.0
 40
0.0
 40
0.0
 40
0.4978532609589533
 40
0.4978532609589533
 40
0.4978532609589533
 10
-233.4545063950879
 20
-1037.901694223774
 30
0.0
 41
1.0
 10
-236.0844155475351
 20
-1037.142504845219
 30
0.0
 41
1.03795484930203
 10
-238.3619836831996
 20
-1037.142504845219
 30
0.0
 41
1.0
  0
SPLINE
  5
35C
330
6C
100
AcDbEntity
  8
Sichtbare Kanten(DIN)
100
AcDbSpline
210
0.0
220
0.0
230
1.0
 70
    12
 71
     2
 72
     6
 73
     3
 74
     0
 42
0.0000000001
 43
0.0000000001
 40
0.0
 40
0.0
 40
0.0
 40
0.4978532609589527
 40
0.4978532609589527
 40
0.4978532609589527
 10
-243.2694609713115
 20
-1037.901694223774
 30
0.0
 41
1.0
 10
-244.5844155475351
 20
-1037.14250484522
 30
0.0
 41
1.037954849302049
 10
-245.7231996153674
 20
-1037.14250484522
 30
0.0
 41
1.0
  0
SPLINE
  5
35D
330
6C
100
AcDbEntity
  8
Sichtbare Kanten(DIN)
100
AcDbSpline
210
0.0
220
0.0
230
1.0
 70
    12
 71
     2
 72
     6
 73
     3
 74
     0
 42
0.0000000001
 43
0.0000000001
 40
0.4978532609589533
 40
0.4978532609589533
 40
0.4978532609589533
 40
0.9957065219179064
 40
0.9957065219179064
 40
0.9957065219179064
 10
-238.3619836831996
 20
-1037.142504845219
 30
0.0
 41
1.0
 10
-240.6395518188642
 20
-1037.142504845219
 30
0.0
 41
1.037954849302044
 10
-243.2694609713114
 20
-1037.901694223774
 30
0.0
 41
1.0
  0
LINE
  5
35E
330
6C
100
AcDbEntity
  8
Sichtbare Kanten(DIN)
100
AcDbLine
 10
-238.3619836831997
 20
-1037.142504845219
 30
0.0
 11
-245.7231996153674
 21
-1037.14250484522
 31
0.0
  0
LINE
  5
35F
330
6C
100
AcDbEntity
  8
Sichtbare Kanten(DIN)
100
AcDbLine
 10
-229.8619836831996
 20
-1037.142504845222
 30
0.0
 11
-231.0007677510319
 21
-1037.14250484522
 31
0.0
  0
SPLINE
  5
360
330
6C
100
AcDbEntity
  8
Sichtbare Kanten(DIN)
100
AcDbSpline
210
0.0
220
0.0
230
1.0
 70
    12
 71
     2
 72
     6
 73
     3
 74
     0
 42
0.0000000001
 43
0.0000000001
 40
0.0
 40
0.0
 40
0.0
 40
0.4978532609589531
 40
0.4978532609589531
 40
0.4978532609589531
 10
-228.547029106976
 20
-1037.901694223776
 30
0.0
 41
1.0
 10
-229.8619836831997
 20
-1037.142504845221
 30
0.0
 41
1.037954849302053
 10
-231.0007677510319
 20
-1037.14250484522
 30
0.0
 41
1.0
  0
SPLINE
  5
361
330
6C
100
AcDbEntity
  8
Sichtbare Kanten(DIN)
100
AcDbSpline
210
0.0
220
0.0
230
1.0
 70
    12
 71
     2
 72
     6
 73
     3
 74
     0
 42
0.0000000001
 43
0.0000000001
 40
0.4978532609589527
 40
0.4978532609589527
 40
0.4978532609589527
 40
0.9957065219179055
 40
0.9957065219179055
 40
0.9957065219179055
 10
-245.7231996153674
 20
-1037.14250484522
 30
0.0
 41
1.0
 10
-246.8619836831996
 20
-1037.142504845221
 30
0.0
 41
1.037954849302046
 10
-248.1769382594233
 20
-1037.901694223776
 30
0.0
 41
1.0
  0
LINE
  5
362
330
6C
100
AcDbEntity
  8
Sichtbare Kanten(DIN)
100
AcDbLine
 10
-245.7231996153674
 20
-1037.14250484522
 30
0.0
 11
-246.8619836831997
 21
-1037.142504845222
 31
0.0
  0
LINE
  5
363
330
6C
100
AcDbEntity
  8
Sichtbare Kanten(DIN)
100
AcDbLine
 10
-229.8619836831996
 20
-1037.142504845222
 30
0.0
 11
-228.547029106976
 21
-1037.901694223776
 31
0.0
  0
LINE
  5
364
330
6C
100
AcDbEntity
  8
Sichtbare Kanten(DIN)
100
AcDbLine
 10
-246.8619836831997
 20
-1037.142504845222
 30
0.0
 11
-248.1769382594233
 21
-1037.901694223776
 31
0.0
  0
LINE
  5
365
330
6C
100
AcDbEntity
  8
Sichtbare Kanten(DIN)
100
AcDbLine
 10
-228.547029106976
 20
-1042.942504845221
 30
0.0
 11
-228.547029106976
 21
-1037.901694223776
 31
0.0
  0
LINE
  5
366
330
6C
100
AcDbEntity
  8
Sichtbare Kanten(DIN)
100
AcDbLine
 10
-233.4545063950878
 20
-1042.942504845219
 30
0.0
 11
-233.4545063950879
 21
-1037.901694223774
 31
0.0
  0
LINE
  5
367
330
6C
100
AcDbEntity
  8
Sichtbare Kanten(DIN)
100
AcDbLine
 10
-228.547029106976
 20
-1042.942504845221
 30
0.0
 11
-233.4545063950878
 21
-1042.942504845219
 31
0.0
  0
LINE
  5
368
330
6C
100
AcDbEntity
  8
Sichtbare Kanten(DIN)
100
AcDbLine
 10
-233.4545063950878
 20
-1042.942504845219
 30
0.0
 11
-243.2694609713115
 21
-1042.942504845219
 31
0.0
  0
LINE
  5
369
330
6C
100
AcDbEntity
  8
Sichtbare Kanten(DIN)
100
AcDbLine
 10
-243.2694609713115
 20
-1042.942504845219
 30
0.0
 11
-248.1769382594233
 21
-1042.942504845221
 31
0.0
  0
LINE
  5
36A
330
6C
100
AcDbEntity
  8
Sichtbare Kanten(DIN)
100
AcDbLine
 10
-243.2694609713115
 20
-1042.942504845219
 30
0.0
 11
-243.2694609713114
 21
-1037.901694223774
 31
0.0
  0
LINE
  5
36B
330
6C
100
AcDbEntity
  8
Sichtbare Kanten(DIN)
100
AcDbLine
 10
-248.1769382594233
 20
-1042.942504845221
 30
0.0
 11
-248.1769382594233
 21
-1037.901694223776
 31
0.0
  0
LINE
  5
36C
330
6C
100
AcDbEntity
  8
Sichtbare Kanten(DIN)
100
AcDbLine
 10
-230.6619836831997
 20
-1042.942504845221
 30
0.0
 11
-230.6619836831997
 21
-1043.542604845222
 31
0.0
  0
LINE
  5
36D
330
6C
100
AcDbEntity
  8
Sichtbare Kanten(DIN)
100
AcDbLine
 10
-246.0619836831996
 20
-1042.942504845221
 30
0.0
 11
-246.0619836831996
 21
-1043.542604845222
 31
0.0
  0
LINE
  5
36E
330
6C
100
AcDbEntity
  8
Sichtbare Kanten(DIN)
100
AcDbLine
 10
-230.5619836831997
 20
-1063.542604845222
 30
0.0
 11
-246.1619836831997
 21
-1063.542604845222
 31
0.0
  0
LINE
  5
36F
330
6C
100
AcDbEntity
  8
Sichtbare Kanten(DIN)
100
AcDbLine
 10
-230.5619836831997
 20
-1060.042604845222
 30
0.0
 11
-246.1619836831997
 21
-1060.042604845222
 31
0.0
  0
LINE
  5
370
330
6C
100
AcDbEntity
  8
Sichtbare Kanten(DIN)
100
AcDbLine
 10
-230.5619836831997
 20
-1060.042604845222
 30
0.0
 11
-230.5619836831997
 21
-1063.542604845222
 31
0.0
  0
LINE
  5
371
330
6C
100
AcDbEntity
  8
Sichtbare Kanten(DIN)
100
AcDbLine
 10
-246.1619836831997
 20
-1060.042604845222
 30
0.0
 11
-246.1619836831997
 21
-1063.542604845222
 31
0.0
  0
SPLINE
  5
372
330
6C
100
AcDbEntity
  8
Sichtbare Kanten(DIN)
100
AcDbSpline
210
0.0
220
0.0
230
1.0
 70
    12
 71
     2
 72
     6
 73
     3
 74
     0
 42
0.0000000001
 43
0.0000000001
 40
0.201462933431515
 40
0.201462933431515
 40
0.201462933431515
 40
0.9931707173662314
 40
0.9931707173662314
 40
0.9931707173662314
 10
-247.1119836831997
 20
-1059.383092614228
 30
0.0
 41
1.05003041164592
 10
-245.2801053459944
 20
-1060.0401163492
 30
0.0
 41
1.123319806224795
 10
-243.2694609713115
 20
-1058.879270278231
 30
0.0
 41
1.0
  0
SPLINE
  5
373
330
6C
100
AcDbEntity
  8
Sichtbare Kanten(DIN)
100
AcDbSpline
210
0.0
220
0.0
230
1.0
 70
    12
 71
     2
 72
     6
 73
     3
 74
     0
 42
0.0000000001
 43
0.0000000001
 40
0.0
 40
0.0
 40
0.0
 40
0.7917077839347168
 40
0.7917077839347168
 40
0.7917077839347168
 10
-233.4545063950878
 20
-1058.879270278231
 30
0.0
 41
1.0
 10
-231.4438620204049
 20
-1060.0401163492
 30
0.0
 41
1.123319806224795
 10
-229.6119836831997
 20
-1059.383092614228
 30
0.0
 41
1.05003041164592
  0
SPLINE
  5
374
330
6C
100
AcDbEntity
  8
Sichtbare Kanten(DIN)
100
AcDbSpline
210
0.0
220
0.0
230
1.0
 70
    12
 71
     2
 72
     6
 73
     3
 74
     0
 42
0.0000000001
 43
0.0000000001
 40
0.0
 40
0.0
 40
0.0
 40
0.9931707173662317
 40
0.9931707173662317
 40
0.9931707173662317
 10
-243.2694609713115
 20
-1058.879270278231
 30
0.0
 41
1.0
 10
-238.3619836831997
 20
-1060.295936944898
 30
0.0
 41
1.154700538379253
 10
-233.4545063950878
 20
-1058.879270278231
 30
0.0
 41
1.0
  0
SPLINE
  5
375
330
6C
100
AcDbEntity
  8
Sichtbare Kanten(DIN)
100
AcDbSpline
210
0.0
220
0.0
230
1.0
 70
    12
 71
     2
 72
     6
 73
     3
 74
     0
 42
0.0000000001
 43
0.0000000001
 40
0.0
 40
0.0
 40
0.0
 40
0.554598852571607
 40
0.554598852571607
 40
0.554598852571607
 10
-243.2694609713115
 20
-1054.705939412207
 30
0.0
 41
1.0
 10
-244.7258194586066
 20
-1053.865110447531
 30
0.0
 41
1.086386700269279
 10
-245.9895370771957
 20
-1053.956376994124
 30
0.0
 41
1.076294589778126
  0
SPLINE
  5
376
330
6C
100
AcDbEntity
  8
Sichtbare Kanten(DIN)
100
AcDbSpline
210
0.0
220
0.0
230
1.0
 70
    12
 71
     2
 72
     6
 73
     3
 74
     0
 42
0.0000000001
 43
0.0000000001
 40
0.0
 40
0.0
 40
0.0
 40
0.993170717366231
 40
0.993170717366231
 40
0.993170717366231
 10
-233.4545063950878
 20
-1054.705939412207
 30
0.0
 41
1.0
 10
-238.3619836831996
 20
-1053.28927274554
 30
0.0
 41
1.154700538379251
 10
-243.2694609713115
 20
-1054.705939412207
 30
0.0
 41
1.0
  0
SPLINE
  5
377
330
6C
100
AcDbEntity
  8
Sichtbare Kanten(DIN)
100
AcDbSpline
210
0.0
220
0.0
230
1.0
 70
    12
 71
     2
 72
     6
 73
     3
 74
     0
 42
0.0000000001
 43
0.0000000001
 40
0.4385718647946251
 40
0.4385718647946251
 40
0.4385718647946251
 40
0.9931707173662307
 40
0.9931707173662307
 40
0.9931707173662307
 10
-230.7344302892036
 20
-1053.956376994124
 30
0.0
 41
1.076294589778126
 10
-231.9981479077927
 20
-1053.865110447531
 30
0.0
 41
1.086386700269278
 10
-233.4545063950878
 20
-1054.705939412207
 30
0.0
 41
1.0
  0
LINE
  5
378
330
6C
100
AcDbEntity
  8
Sichtbare Kanten(DIN)
100
AcDbLine
 10
-246.1619836831997
 20
-1060.042604845222
 30
0.0
 11
-247.1119836831997
 21
-1059.494122089492
 31
0.0
  0
LINE
  5
379
330
6C
100
AcDbEntity
  8
Sichtbare Kanten(DIN)
100
AcDbLine
 10
-230.5619836831997
 20
-1060.042604845222
 30
0.0
 11
-229.6119836831997
 21
-1059.494122089492
 31
0.0
  0
LINE
  5
37A
330
6C
100
AcDbEntity
  8
Sichtbare Kanten(DIN)
100
AcDbLine
 10
-233.4545063950878
 20
-1054.705939412207
 30
0.0
 11
-233.4545063950878
 21
-1058.879270278231
 31
0.0
  0
LINE
  5
37B
330
6C
100
AcDbEntity
  8
Sichtbare Kanten(DIN)
100
AcDbLine
 10
-243.2694609713115
 20
-1054.705939412207
 30
0.0
 11
-243.2694609713115
 21
-1058.879270278231
 31
0.0
  0
SPLINE
  5
37C
330
6C
100
AcDbEntity
  8
Sichtbare Kanten(DIN)
100
AcDbSpline
210
0.0
220
0.0
230
1.0
 70
    12
 71
     2
 72
     6
 73
     3
 74
     0
 42
0.0000000001
 43
0.0000000001
 40
-1.248446248760171
 40
-1.248446248760171
 40
-1.248446248760171
 40
-1.077246356570589
 40
-1.077246356570589
 40
-1.077246356570589
 10
-268.0412335771872
 20
-1021.542604845277
 30
0.0
 41
1.789585844357782
 10
-267.931310974178
 20
-1021.297657831818
 30
0.0
 41
1.764796953388086
 10
-267.7808497493266
 20
-1021.037051345807
 30
0.0
 41
1.731958727282693
  0
SPLINE
  5
37D
330
6C
100
AcDbEntity
  8
Sichtbare Kanten(DIN)
100
AcDbSpline
210
0.0
220
0.0
230
1.0
 70
    12
 71
     2
 72
     6
 73
     3
 74
     0
 42
0.0000000001
 43
0.0000000001
 40
-1.248426395303442
 40
-1.248426395303442
 40
-1.248426395303442
 40
-1.077228047977938
 40
-1.077228047977938
 40
-1.077228047977938
 10
-263.1827337892119
 20
-1021.542604845277
 30
0.0
 41
1.789570855087949
 10
-263.2926563922211
 20
-1021.297657831818
 30
0.0
 41
1.76478217174583
 10
-263.4431176170725
 20
-1021.037051345807
 30
0.0
 41
1.731944220687889
  0
LINE
  5
37E
330
6C
100
AcDbEntity
  8
Sichtbare Kanten(DIN)
100
AcDbLine
 10
-263.4431176170697
 20
-1021.037051345812
 30
0.0
 11
-267.7808497493296
 21
-1021.037051345812
 31
0.0
  0
LINE
  5
37F
330
6C
100
AcDbEntity
  8
Sichtbare Kanten(DIN)
100
AcDbLine
 10
-268.0727311983355
 20
-1021.542604845277
 30
0.0
 11
-267.7808497493296
 21
-1021.037051345812
 31
0.0
  0
LINE
  5
380
330
6C
100
AcDbEntity
  8
Sichtbare Kanten(DIN)
100
AcDbLine
 10
-263.1512361680636
 20
-1021.542604845277
 30
0.0
 11
-263.4431176170695
 21
-1021.037051345812
 31
0.0
  0
SPLINE
  5
381
330
6C
100
AcDbEntity
  8
Sichtbare Kanten(DIN)
100
AcDbSpline
210
0.0
220
0.0
230
1.0
 70
    12
 71
     2
 72
     6
 73
     3
 74
     0
 42
0.0000000001
 43
0.0000000001
 40
-1.214627419156182
 40
-1.214627419156182
 40
-1.214627419156182
 40
-1.046055624563914
 40
-1.046055624563914
 40
-1.046055624563914
 10
-208.3824451140773
 20
-1021.542604845277
 30
0.0
 41
1.764087366989421
 10
-208.4923677170863
 20
-1021.297657831818
 30
0.0
 41
1.739651674485965
 10
-208.6428289419376
 20
-1021.037051345807
 30
0.0
 41
1.707281335835024
  0
LINE
  5
382
330
6C
100
AcDbEntity
  8
Sichtbare Kanten(DIN)
100
AcDbLine
 10
-208.642828941935
 20
-1021.037051345811
 30
0.0
 11
-213.3619836831996
 21
-1021.037051345811
 31
0.0
  0
LINE
  5
383
330
6C
100
AcDbEntity
  8
Sichtbare Kanten(DIN)
100
AcDbLine
 10
-213.3619836831996
 20
-1021.542604845277
 30
0.0
 11
-213.3619836831996
 21
-1021.037051345811
 31
0.0
  0
LINE
  5
384
330
6C
100
AcDbEntity
  8
Sichtbare Kanten(DIN)
100
AcDbLine
 10
-208.3509474929289
 20
-1021.542604845277
 30
0.0
 11
-208.6428289419353
 21
-1021.037051345811
 31
0.0
  0
LINE
  5
385
330
6C
100
AcDbEntity
  8
Sichtbare Kanten(DIN)
100
AcDbLine
 10
-255.8619836831997
 20
-1048.542604845283
 30
0.0
 11
-252.3619836831997
 21
-1048.542604845283
 31
0.0
  0
LINE
  5
386
330
6C
100
AcDbEntity
  8
Sichtbare Kanten(DIN)
100
AcDbLine
 10
-224.3619836831996
 20
-1048.542604845283
 30
0.0
 11
-220.8619836831997
 21
-1048.542604845283
 31
0.0
  0
LINE
  5
387
330
6C
100
AcDbEntity
  8
Sichtbare Kanten(DIN)
100
AcDbLine
 10
-259.8209569576428
 20
-1048.542604845282
 30
0.0
 11
-255.8619836831997
 21
-1048.542604845283
 31
0.0
  0
LINE
  5
388
330
6C
100
AcDbEntity
  8
Sichtbare Kanten(DIN)
100
AcDbLine
 10
-259.8619836831996
 20
-1008.542604845282
 30
0.0
 11
-258.3619836831997
 21
-1008.542604845283
 31
0.0
  0
LINE
  5
389
330
6C
100
AcDbEntity
  8
Sichtbare Kanten(DIN)
100
AcDbLine
 10
-221.3619836831997
 20
-1008.542604845283
 30
0.0
 11
-255.3619836831996
 21
-1008.542604845283
 31
0.0
  0
LINE
  5
38A
330
6C
100
AcDbEntity
  8
Sichtbare Kanten(DIN)
100
AcDbLine
 10
-259.8209569576426
 20
-1048.542604845282
 30
0.0
 11
-259.8209569576426
 21
-1073.542604845282
 31
0.0
  0
LINE
  5
38B
330
6C
100
AcDbEntity
  8
Sichtbare Kanten(DIN)
100
AcDbLine
 10
-262.8619836831997
 20
-1073.542604845278
 30
0.0
 11
-262.8619836831997
 21
-1062.542604845279
 31
0.0
  0
LINE
  5
38C
330
6C
100
AcDbEntity
  8
Sichtbare Kanten(DIN)
100
AcDbLine
 10
-259.8619836831997
 20
-1073.542604845278
 30
0.0
 11
-259.8619836831997
 21
-1062.542604845279
 31
0.0
  0
LINE
  5
38D
330
6C
100
AcDbEntity
  8
Sichtbare Kanten(DIN)
100
AcDbLine
 10
-262.8619836831997
 20
-1008.542604845272
 30
0.0
 11
-262.8619836831997
 21
-1011.542604845271
 31
0.0
  0
LINE
  5
38E
330
6C
100
AcDbEntity
  8
Sichtbare Kanten(DIN)
100
AcDbLine
 10
-262.8619836831997
 20
-1062.542604845275
 30
0.0
 11
-262.8619836831997
 21
-1060.542604845275
 31
0.0
  0
LINE
  5
38F
330
6C
100
AcDbEntity
  8
Sichtbare Kanten(DIN)
100
AcDbLine
 10
-262.8619836831997
 20
-1047.542604845271
 30
0.0
 11
-262.8619836831997
 21
-1060.542604845275
 31
0.0
  0
LINE
  5
390
330
6C
100
AcDbEntity
  8
Sichtbare Kanten(DIN)
100
AcDbLine
 10
-262.8619836831997
 20
-1011.542604845271
 30
0.0
 11
-262.8619836831997
 21
-1021.542604845271
 31
0.0
  0
LINE
  5
391
330
6C
100
AcDbEntity
  8
Sichtbare Kanten(DIN)
100
AcDbLine
 10
-262.8619836831997
 20
-1043.542604845271
 30
0.0
 11
-262.8619836831997
 21
-1047.542604845271
 31
0.0
  0
LINE
  5
392
330
6C
100
AcDbEntity
  8
Sichtbare Kanten(DIN)
100
AcDbLine
 10
-259.8619836831997
 20
-1011.542604845271
 30
0.0
 11
-259.8619836831997
 21
-1008.542604845272
 31
0.0
  0
LINE
  5
393
330
6C
100
AcDbEntity
  8
Sichtbare Kanten(DIN)
100
AcDbLine
 10
-259.8619836831997
 20
-1008.542604845272
 30
0.0
 11
-262.8619836831997
 21
-1008.542604845272
 31
0.0
  0
LINE
  5
394
330
6C
100
AcDbEntity
  8
Sichtbare Kanten(DIN)
100
AcDbLine
 10
-259.8619836831997
 20
-1011.542604845271
 30
0.0
 11
-259.8619836831997
 21
-1021.542604845271
 31
0.0
  0
LINE
  5
395
330
6C
100
AcDbEntity
  8
Sichtbare Kanten(DIN)
100
AcDbLine
 10
-259.8619836831997
 20
-1043.542604845271
 30
0.0
 11
-259.8619836831997
 21
-1047.542604845271
 31
0.0
  0
LINE
  5
396
330
6C
100
AcDbEntity
  8
Sichtbare Kanten(DIN)
100
AcDbLine
 10
-259.8619836831997
 20
-1060.542604845275
 30
0.0
 11
-259.8619836831997
 21
-1047.542604845271
 31
0.0
  0
LINE
  5
397
330
6C
100
AcDbEntity
  8
Sichtbare Kanten(DIN)
100
AcDbLine
 10
-259.8619836831997
 20
-1062.542604845275
 30
0.0
 11
-259.8619836831997
 21
-1060.542604845275
 31
0.0
  0
LINE
  5
398
330
6C
100
AcDbEntity
  8
Sichtbare Kanten(DIN)
100
AcDbLine
 10
-262.8619836831997
 20
-1062.542604845275
 30
0.0
 11
-259.8619836831997
 21
-1062.542604845275
 31
0.0
  0
LINE
  5
399
330
6C
100
AcDbEntity
  8
Sichtbare Kanten(DIN)
100
AcDbLine
 10
-259.8619836831997
 20
-1060.542604845275
 30
0.0
 11
-262.8619836831997
 21
-1060.542604845275
 31
0.0
  0
LINE
  5
39A
330
6C
100
AcDbEntity
  8
Sichtbare Kanten(DIN)
100
AcDbLine
 10
-216.9030104087566
 20
-1048.542604845282
 30
0.0
 11
-220.8619836831997
 21
-1048.542604845283
 31
0.0
  0
LINE
  5
39B
330
6C
100
AcDbEntity
  8
Sichtbare Kanten(DIN)
100
AcDbLine
 10
-216.9030104087596
 20
-1073.542604845282
 30
0.0
 11
-216.9030104087596
 21
-1048.542604845282
 31
0.0
  0
LINE
  5
39C
330
6C
100
AcDbEntity
  8
Sichtbare Kanten(DIN)
100
AcDbLine
 10
-216.8619836831997
 20
-1008.542604845282
 30
0.0
 11
-218.3619836831996
 21
-1008.542604845283
 31
0.0
  0
LINE
  5
39D
330
6C
100
AcDbEntity
  8
Sichtbare Kanten(DIN)
100
AcDbLine
 10
-213.8619836831997
 20
-1073.542604845278
 30
0.0
 11
-213.8619836831997
 21
-1062.542604845279
 31
0.0
  0
LINE
  5
39E
330
6C
100
AcDbEntity
  8
Sichtbare Kanten(DIN)
100
AcDbLine
 10
-216.8619836831997
 20
-1073.542604845278
 30
0.0
 11
-216.8619836831997
 21
-1062.542604845279
 31
0.0
  0
LINE
  5
39F
330
6C
100
AcDbEntity
  8
Sichtbare Kanten(DIN)
100
AcDbLine
 10
-213.8619836831997
 20
-1011.542604845271
 30
0.0
 11
-213.8619836831997
 21
-1008.542604845272
 31
0.0
  0
LINE
  5
3A0
330
6C
100
AcDbEntity
  8
Sichtbare Kanten(DIN)
100
AcDbLine
 10
-213.8619836831997
 20
-1047.542604845271
 30
0.0
 11
-213.8619836831997
 21
-1043.542604845271
 31
0.0
  0
LINE
  5
3A1
330
6C
100
AcDbEntity
  8
Sichtbare Kanten(DIN)
100
AcDbLine
 10
-213.8619836831997
 20
-1021.542604845271
 30
0.0
 11
-213.8619836831997
 21
-1011.542604845271
 31
0.0
  0
LINE
  5
3A2
330
6C
100
AcDbEntity
  8
Sichtbare Kanten(DIN)
100
AcDbLine
 10
-213.8619836831997
 20
-1060.542604845275
 30
0.0
 11
-213.8619836831997
 21
-1047.542604845271
 31
0.0
  0
LINE
  5
3A3
330
6C
100
AcDbEntity
  8
Sichtbare Kanten(DIN)
100
AcDbLine
 10
-213.8619836831997
 20
-1062.542604845275
 30
0.0
 11
-213.8619836831997
 21
-1060.542604845275
 31
0.0
  0
LINE
  5
3A4
330
6C
100
AcDbEntity
  8
Sichtbare Kanten(DIN)
100
AcDbLine
 10
-216.8619836831997
 20
-1008.542604845272
 30
0.0
 11
-213.8619836831997
 21
-1008.542604845272
 31
0.0
  0
LINE
  5
3A5
330
6C
100
AcDbEntity
  8
Sichtbare Kanten(DIN)
100
AcDbLine
 10
-216.8619836831997
 20
-1008.542604845272
 30
0.0
 11
-216.8619836831997
 21
-1011.542604845271
 31
0.0
  0
LINE
  5
3A6
330
6C
100
AcDbEntity
  8
Sichtbare Kanten(DIN)
100
AcDbLine
 10
-216.8619836831997
 20
-1047.542604845271
 30
0.0
 11
-216.8619836831997
 21
-1043.542604845271
 31
0.0
  0
LINE
  5
3A7
330
6C
100
AcDbEntity
  8
Sichtbare Kanten(DIN)
100
AcDbLine
 10
-216.8619836831997
 20
-1021.542604845271
 30
0.0
 11
-216.8619836831997
 21
-1011.542604845271
 31
0.0
  0
LINE
  5
3A8
330
6C
100
AcDbEntity
  8
Sichtbare Kanten(DIN)
100
AcDbLine
 10
-216.8619836831997
 20
-1047.542604845271
 30
0.0
 11
-216.8619836831997
 21
-1060.542604845275
 31
0.0
  0
LINE
  5
3A9
330
6C
100
AcDbEntity
  8
Sichtbare Kanten(DIN)
100
AcDbLine
 10
-216.8619836831997
 20
-1060.542604845275
 30
0.0
 11
-213.8619836831997
 21
-1060.542604845275
 31
0.0
  0
LINE
  5
3AA
330
6C
100
AcDbEntity
  8
Sichtbare Kanten(DIN)
100
AcDbLine
 10
-216.8619836831997
 20
-1062.542604845275
 30
0.0
 11
-216.8619836831997
 21
-1060.542604845275
 31
0.0
  0
LINE
  5
3AB
330
6C
100
AcDbEntity
  8
Sichtbare Kanten(DIN)
100
AcDbLine
 10
-213.8619836831997
 20
-1062.542604845275
 30
0.0
 11
-216.8619836831997
 21
-1062.542604845275
 31
0.0
  0
LINE
  5
3AC
330
6C
100
AcDbEntity
  8
Sichtbare Kanten(DIN)
100
AcDbLine
 10
-218.3619836831997
 20
-999.5426048452728
 30
0.0
 11
-218.3619836831997
 21
-996.5426048452737
 31
0.0
  0
LINE
  5
3AD
330
6C
100
AcDbEntity
  8
Sichtbare Kanten(DIN)
100
AcDbLine
 10
-218.3619836831997
 20
-1021.542604845272
 30
0.0
 11
-218.3619836831997
 21
-999.5426048452728
 31
0.0
  0
LINE
  5
3AE
330
6C
100
AcDbEntity
  8
Sichtbare Kanten(DIN)
100
AcDbLine
 10
-221.3619836831997
 20
-1043.542604845246
 30
0.0
 11
-221.3619836831997
 21
-1044.042604845246
 31
0.0
  0
LINE
  5
3AF
330
6C
100
AcDbEntity
  8
Sichtbare Kanten(DIN)
100
AcDbLine
 10
-221.3619836831997
 20
-1021.542604845272
 30
0.0
 11
-221.3619836831997
 21
-999.5426048452728
 31
0.0
  0
LINE
  5
3B0
330
6C
100
AcDbEntity
  8
Sichtbare Kanten(DIN)
100
AcDbLine
 10
-221.3619836831997
 20
-996.5426048452737
 30
0.0
 11
-221.3619836831997
 21
-999.5426048452728
 31
0.0
  0
ARC
  5
3B1
330
6C
100
AcDbEntity
  8
Sichtbare Kanten(DIN)
100
AcDbCircle
 10
-222.8619836831996
 20
-1044.042604845246
 30
0.0
 40
1.500000000000001
100
AcDbArc
 50
270.0
 51
0.0
  0
LINE
  5
3B2
330
6C
100
AcDbEntity
  8
Sichtbare Kanten(DIN)
100
AcDbLine
 10
-222.8619836831996
 20
-1045.542604845246
 30
0.0
 11
-225.8619836831996
 21
-1045.542604845246
 31
0.0
  0
LINE
  5
3B3
330
6C
100
AcDbEntity
  8
Sichtbare Kanten(DIN)
100
AcDbLine
 10
-250.8619836831996
 20
-1045.542604845246
 30
0.0
 11
-253.8619836831997
 21
-1045.542604845246
 31
0.0
  0
LINE
  5
3B4
330
6C
100
AcDbEntity
  8
Sichtbare Kanten(DIN)
100
AcDbLine
 10
-224.3619836831997
 20
-1048.542604845246
 30
0.0
 11
-225.8619836831996
 21
-1048.542604845246
 31
0.0
  0
LINE
  5
3B5
330
6C
100
AcDbEntity
  8
Sichtbare Kanten(DIN)
100
AcDbLine
 10
-250.8619836831996
 20
-1048.542604845246
 30
0.0
 11
-252.3619836831997
 21
-1048.542604845246
 31
0.0
  0
ARC
  5
3B6
330
6C
100
AcDbEntity
  8
Sichtbare Kanten(DIN)
100
AcDbCircle
 10
-224.3619836831997
 20
-1042.542604845246
 30
0.0
 40
6.0
100
AcDbArc
 50
270.0
 51
350.4059317731401
  0
ARC
  5
3B7
330
6C
100
AcDbEntity
  8
Sichtbare Kanten(DIN)
100
AcDbCircle
 10
-253.8619836831997
 20
-1044.042604845246
 30
0.0
 40
1.500000000000001
100
AcDbArc
 50
180.0
 51
270.0
  0
LINE
  5
3B8
330
6C
100
AcDbEntity
  8
Sichtbare Kanten(DIN)
100
AcDbLine
 10
-255.3619836831996
 20
-999.5426048452728
 30
0.0
 11
-255.3619836831996
 21
-996.5426048452737
 31
0.0
  0
LINE
  5
3B9
330
6C
100
AcDbEntity
  8
Sichtbare Kanten(DIN)
100
AcDbLine
 10
-255.3619836831996
 20
-1021.542604845272
 30
0.0
 11
-255.3619836831996
 21
-999.5426048452728
 31
0.0
  0
LINE
  5
3BA
330
6C
100
AcDbEntity
  8
Sichtbare Kanten(DIN)
100
AcDbLine
 10
-255.3619836831996
 20
-1043.542604845246
 30
0.0
 11
-255.3619836831996
 21
-1044.042604845246
 31
0.0
  0
ARC
  5
3BB
330
6C
100
AcDbEntity
  8
Sichtbare Kanten(DIN)
100
AcDbCircle
 10
-252.3619836831997
 20
-1042.542604845246
 30
0.0
 40
5.999999999999998
100
AcDbArc
 50
189.5940682268598
 51
269.9999999999997
  0
LINE
  5
3BC
330
6C
100
AcDbEntity
  8
Sichtbare Kanten(DIN)
100
AcDbLine
 10
-258.3619836831996
 20
-1021.542604845272
 30
0.0
 11
-258.3619836831996
 21
-999.5426048452728
 31
0.0
  0
LINE
  5
3BD
330
6C
100
AcDbEntity
  8
Sichtbare Kanten(DIN)
100
AcDbLine
 10
-258.3619836831996
 20
-996.5426048452737
 30
0.0
 11
-258.3619836831996
 21
-999.5426048452728
 31
0.0
  0
LINE
  5
3BE
330
6C
100
AcDbEntity
  8
Sichtbare Kanten(DIN)
100
AcDbLine
 10
-221.3619836831997
 20
-996.5426048452737
 30
0.0
 11
-218.3619836831997
 21
-996.5426048452737
 31
0.0
  0
LINE
  5
3BF
330
6C
100
AcDbEntity
  8
Sichtbare Kanten(DIN)
100
AcDbLine
 10
-258.3619836831996
 20
-996.5426048452737
 30
0.0
 11
-255.3619836831996
 21
-996.5426048452737
 31
0.0
  0
LINE
  5
3C0
330
6C
100
AcDbEntity
  8
Sichtbare Kanten(DIN)
100
AcDbLine
 10
-246.1619836831996
 20
-1060.44260484525
 30
0.0
 11
-246.8614836831997
 21
-1060.442604845251
 31
0.0
  0
LINE
  5
3C1
330
6C
100
AcDbEntity
  8
Sichtbare Kanten(DIN)
100
AcDbLine
 10
-229.8624836831997
 20
-1060.442604845251
 30
0.0
 11
-230.5619836831997
 21
-1060.44260484525
 31
0.0
  0
SPLINE
  5
3C2
330
6C
100
AcDbEntity
  8
Sichtbare Kanten(DIN)
100
AcDbSpline
210
0.0
220
0.0
230
1.0
 70
    12
 71
     2
 72
     6
 73
     3
 74
     0
 42
0.0000000001
 43
0.0000000001
 40
-1.926090273639705
 40
-1.926090273639705
 40
-1.926090273639705
 40
-1.582542650530754
 40
-1.582542650530754
 40
-1.582542650530754
 10
-230.5619836831997
 20
-1060.4162306539
 30
0.0
 41
1.749273017830118
 10
-230.0977705624883
 20
-1060.361182046494
 30
0.0
 41
1.739542401368868
 10
-229.6119836831997
 20
-1060.186949127556
 30
0.0
 41
1.709445492682048
  0
SPLINE
  5
3C3
330
6C
100
AcDbEntity
  8
Sichtbare Kanten(DIN)
100
AcDbSpline
210
0.0
220
0.0
230
1.0
 70
    12
 71
     2
 72
     6
 73
     3
 74
     0
 42
0.0000000001
 43
0.0000000001
 40
-2.597918579321858
 40
-2.597918579321858
 40
-2.597918579321858
 40
-2.254370956212905
 40
-2.254370956212905
 40
-2.254370956212905
 10
-247.1119836831997
 20
-1060.186949127556
 30
0.0
 41
1.709445492682049
 10
-246.6261968039111
 20
-1060.361182046494
 30
0.0
 41
1.73954240136887
 10
-246.1619836831997
 20
-1060.4162306539
 30
0.0
 41
1.749273017830121
  0
LINE
  5
3C4
330
6C
100
AcDbEntity
  8
Sichtbare Kanten(DIN)
100
AcDbLine
 10
-229.8624836831997
 20
-1060.442604845251
 30
0.0
 11
-229.6119836831997
 21
-1060.297978602819
 31
0.0
  0
LINE
  5
3C5
330
6C
100
AcDbEntity
  8
Sichtbare Kanten(DIN)
100
AcDbLine
 10
-246.8614836831996
 20
-1060.442604845251
 30
0.0
 11
-247.1119836831997
 21
-1060.297978602819
 31
0.0
  0
LINE
  5
3C6
330
6C
100
AcDbEntity
  8
Sichtbare Kanten(DIN)
100
AcDbLine
 10
-221.3820846958773
 20
-1002.292604845599
 30
0.0
 11
-223.3619836831997
 21
-1002.292604845599
 31
0.0
  0
LINE
  5
3C7
330
6C
100
AcDbEntity
  8
Sichtbare Kanten(DIN)
100
AcDbLine
 10
-223.3619836831997
 20
-1000.312705858277
 30
0.0
 11
-221.3820846958773
 21
-1002.292604845599
 31
0.0
  0
LINE
  5
3C8
330
6C
100
AcDbEntity
  8
Sichtbare Kanten(DIN)
100
AcDbLine
 10
-225.8619836831996
 20
-1037.724423027043
 30
0.0
 11
-228.8540718264425
 21
-1037.724423027043
 31
0.0
  0
LINE
  5
3C9
330
6C
100
AcDbEntity
  8
Sichtbare Kanten(DIN)
100
AcDbLine
 10
-247.8698955399569
 20
-1037.724423027043
 30
0.0
 11
-250.8619836831996
 21
-1037.724423027043
 31
0.0
  0
LINE
  5
3CA
330
6C
100
AcDbEntity
  8
Sichtbare Kanten(DIN)
100
AcDbLine
 10
-225.8619836831996
 20
-1043.542604845225
 30
0.0
 11
-225.8619836831996
 21
-1037.724423027043
 31
0.0
  0
LINE
  5
3CB
330
6C
100
AcDbEntity
  8
Sichtbare Kanten(DIN)
100
AcDbLine
 10
-250.8619836831996
 20
-1037.724423027043
 30
0.0
 11
-250.8619836831996
 21
-1043.542604845225
 31
0.0
  0
ENDSEC
  0
SECTION
  2
OBJECTS
  0
DICTIONARY
  5
C
330
0
100
AcDbDictionary
281
     1
  3
ACAD_COLOR
350
63
  3
ACAD_GROUP
350
D
  3
ACAD_LAYOUT
350
62
  3
ACAD_MATERIAL
350
10
  3
ACAD_MLEADERSTYLE
350
66
  3
ACAD_MLINESTYLE
350
5F
  3
ACAD_PLOTSETTINGS
350
61
  3
ACAD_PLOTSTYLENAME
350
E
  3
ACAD_SCALELIST
350
42
  3
ACAD_TABLESTYLE
350
64
  3
ACAD_VISUALSTYLE
350
29
  3
ACDB_RECOMPOSE_DATA
350
3DB
  3
AcDbVariableDictionary
350
3CC
  3
DWGPROPS
350
3DC
  0
DICTIONARY
  5
63
102
{ACAD_REACTORS
330
C
102
}
330
C
100
AcDbDictionary
281
     1
  0
DICTIONARY
  5
D
102
{ACAD_REACTORS
330
C
102
}
330
C
100
AcDbDictionary
281
     1
  0
DICTIONARY
  5
62
102
{ACAD_REACTORS
330
C
102
}
330
C
100
AcDbDictionary
281
     1
  3
Layout1
350
6B
  3
Layout2
350
73
  3
Model
350
6F
  0
DICTIONARY
  5
10
102
{ACAD_REACTORS
330
C
102
}
330
C
100
AcDbDictionary
281
     1
  3
ByBlock
350
19
  3
ByLayer
350
11
  3
Global
350
21
  0
DICTIONARY
  5
66
102
{ACAD_REACTORS
330
C
102
}
330
C
100
AcDbDictionary
281
     1
  3
Standard
350
67
  0
DICTIONARY
  5
5F
102
{ACAD_REACTORS
330
C
102
}
330
C
100
AcDbDictionary
281
     1
  3
Standard
350
60
  0
DICTIONARY
  5
61
102
{ACAD_REACTORS
330
C
102
}
330
C
100
AcDbDictionary
281
     1
  0
ACDBDICTIONARYWDFLT
  5
E
102
{ACAD_REACTORS
330
C
102
}
330
C
100
AcDbDictionary
281
     1
  3
Normal
350
F
100
AcDbDictionaryWithDefault
340
F
  0
DICTIONARY
  5
42
102
{ACAD_REACTORS
330
C
102
}
330
C
100
AcDbDictionary
281
     1
  3
A0
350
43
  3
A1
350
44
  3
A2
350
45
  3
A3
350
46
  3
A4
350
47
  3
A5
350
48
  3
A6
350
49
  3
A7
350
4A
  3
A8
350
4B
  3
A9
350
4C
  3
B0
350
4D
  3
B1
350
4E
  3
B2
350
4F
  3
B3
350
50
  3
B4
350
51
  3
B5
350
52
  3
B6
350
53
  0
DICTIONARY
  5
64
102
{ACAD_REACTORS
330
C
102
}
330
C
100
AcDbDictionary
281
     1
  3
Standard
350
65
  0
DICTIONARY
  5
29
102
{ACAD_REACTORS
330
C
102
}
330
C
100
AcDbDictionary
281
     1
  3
2dWireframe
350
2F
  3
Basic
350
2E
  3
Brighten
350
35
  3
ColorChange
350
39
  3
Conceptual
350
32
  3
Dim
350
34
  3
EdgeColorOff
350
41
  3
Facepattern
350
38
  3
Flat
350
2A
  3
FlatWithEdges
350
2B
  3
Gouraud
350
2C
  3
GouraudWithEdges
350
2D
  3
Hidden
350
31
  3
JitterOff
350
3F
  3
Linepattern
350
37
  3
OverhangOff
350
40
  3
Realistic
350
33
  3
Shaded
350
3E
  3
Shaded with edges
350
3D
  3
Shades of Gray
350
3A
  3
Sketchy
350
3B
  3
Thicken
350
36
  3
Wireframe
350
30
  3
X-Ray
350
3C
  0
XRECORD
  5
3DB
102
{ACAD_REACTORS
330
C
102
}
330
C
100
AcDbXrecord
280
     1
 90
        1
330
65
  0
DICTIONARY
  5
3CC
102
{ACAD_REACTORS
330
C
102
}
330
C
100
AcDbDictionary
281
     1
  3
CANNOSCALE
350
3D0
  3
CMLEADERSTYLE
350
3CE
  3
CTABLESTYLE
350
3CD
  3
DIMASSOC
350
3D7
  3
HIDETEXT
350
3D6
  3
INDEXCTL
350
3D5
  3
LAYEREVAL
350
3D2
  3
LAYERNOTIFY
350
3D3
  3
LIGHTINGUNITS
350
3D1
  3
MSLTSCALE
350
3CF
  3
SORTENTS
350
3D4
  3
XCLIPFRAME
350
3D8
  0
XRECORD
  5
3DC
102
{ACAD_REACTORS
330
C
102
}
330
C
100
AcDbXrecord
280
     1
  1
DWGPROPS COOKIE
  2

  3

  4
S.Rübsamen
  6

  7

  8

  9

300
Manager=
301
Firma=
302
Kategorie=
303
Bauteilnummer=
304
Bezeichnung=
305
Projekt=
306
Konstrukteur=S.Rübsamen
307
Ingenieur=
308
Bevollmächtigter=
309
Kostenstelle=
 40
0.0000328009259259
 41
2455805.58684257
 42
2455805.58684257
  1

 90
       34
300
Zulieferer=
300
Benutzerstatus=
300
Konstruktionsstatus=InBearbeitung
300
Kontrolliert von=
300
Konstruktion genehmigt von=
300
Fertigung genehmigt von=
300
Gewicht=
300
Oberfläche=
300
Oberfläche_2=roh
300
Werkstoff=Edelstahl V2A
300
Zeichnungs_Nr.=
300
Benennung2=
300
Benennung3=
300
Werkstoff_DIN=1.4301 / ASTM 304
300
Oberfläche_3=
300
ZeichnungsNr Index=
300
Änderung_a=
300
Änderung_b=
300
Datum_a=
300
Datum_b=
300
Status_a=
300
Status_b=
300
Name_a=
300
Name_b=
  0
LAYOUT
  5
6B
102
{ACAD_XDICTIONARY
360
412
102
}
102
{ACAD_REACTORS
330
62
102
}
330
62
100
AcDbPlotSettings
  1

  2

  4

  6

 40
0.0
 41
0.0
 42
0.0
 43
0.0
 44
0.0
 45
0.0
 46
0.0
 47
0.0
 48
0.0
 49
0.0
140
0.0
141
0.0
142
1.0
143
1.0
 70
   688
 72
     0
 73
     0
 74
     5
  7

 75
    16
147
1.0
148
0.0
149
0.0
100
AcDbLayout
  1
Layout1
 70
     1
 71
     1
 10
0.0
 20
0.0
 11
12.0
 21
9.0
 12
0.0
 22
0.0
 32
0.0
 14
0.0
 24
0.0
 34
0.0
 15
0.0
 25
0.0
 35
0.0
146
0.0
 13
0.0
 23
0.0
 33
0.0
 16
1.0
 26
0.0
 36
0.0
 17
0.0
 27
1.0
 37
0.0
 76
     0
330
68
  0
LAYOUT
  5
73
102
{ACAD_XDICTIONARY
360
416
102
}
102
{ACAD_REACTORS
330
62
102
}
330
62
100
AcDbPlotSettings
  1

  2

  4

  6

 40
0.0
 41
0.0
 42
0.0
 43
0.0
 44
0.0
 45
0.0
 46
0.0
 47
0.0
 48
0.0
 49
0.0
140
0.0
141
0.0
142
1.0
143
1.0
 70
   688
 72
     0
 73
     0
 74
     5
  7

 75
    16
147
1.0
148
0.0
149
0.0
100
AcDbLayout
  1
Layout2
 70
     1
 71
     2
 10
0.0
 20
0.0
 11
12.0
 21
9.0
 12
0.0
 22
0.0
 32
0.0
 14
0.0
 24
0.0
 34
0.0
 15
0.0
 25
0.0
 35
0.0
146
0.0
 13
0.0
 23
0.0
 33
0.0
 16
1.0
 26
0.0
 36
0.0
 17
0.0
 27
1.0
 37
0.0
 76
     0
330
70
  0
LAYOUT
  5
6F
102
{ACAD_XDICTIONARY
360
414
102
}
102
{ACAD_REACTORS
330
62
102
}
330
62
100
AcDbPlotSettings
  1

  2

  4

  6

 40
0.0
 41
0.0
 42
0.0
 43
0.0
 44
0.0
 45
0.0
 46
0.0
 47
0.0
 48
0.0
 49
0.0
140
0.0
141
0.0
142
1.0
143
1.0
 70
  1712
 72
     0
 73
     0
 74
     0
  7

 75
     0
147
1.0
148
0.0
149
0.0
100
AcDbLayout
  1
Model
 70
     1
 71
     0
 10
0.0
 20
0.0
 11
12.0
 21
9.0
 12
0.0
 22
0.0
 32
0.0
 14
0.0
 24
0.0
 34
0.0
 15
0.0
 25
0.0
 35
0.0
146
0.0
 13
0.0
 23
0.0
 33
0.0
 16
1.0
 26
0.0
 36
0.0
 17
0.0
 27
1.0
 37
0.0
 76
     0
330
6C
  0
MATERIAL
  5
19
102
{ACAD_XDICTIONARY
360
1A
102
}
102
{ACAD_REACTORS
330
10
102
}
330
10
100
AcDbMaterial
  1
ByBlock
 72
     0
 43
0.0208333333333333
 43
0.0
 43
0.0
 43
0.0
 43
0.0
 43
0.0208333333333333
 43
0.0
 43
0.0
 43
0.0
 43
0.0
 43
1.0
 43
0.0
 43
0.0
 43
0.0
 43
0.0
 43
1.0
 77
     0
 47
0.0208333333333333
 47
0.0
 47
0.0
 47
0.0
 47
0.0
 47
0.0208333333333333
 47
0.0
 47
0.0
 47
0.0
 47
0.0
 47
1.0
 47
0.0
 47
0.0
 47
0.0
 47
0.0
 47
1.0
171
     0
 49
0.0208333333333333
 49
0.0
 49
0.0
 49
0.0
 49
0.0
 49
0.0208333333333333
 49
0.0
 49
0.0
 49
0.0
 49
0.0
 49
1.0
 49
0.0
 49
0.0
 49
0.0
 49
0.0
 49
1.0
175
     0
142
0.0208333333333333
142
0.0
142
0.0
142
0.0
142
0.0
142
0.0208333333333333
142
0.0
142
0.0
142
0.0
142
0.0
142
1.0
142
0.0
142
0.0
142
0.0
142
0.0
142
1.0
179
     0
144
0.0208333333333333
144
0.0
144
0.0
144
0.0
144
0.0
144
0.0208333333333333
144
0.0
144
0.0
144
0.0
144
0.0
144
1.0
144
0.0
144
0.0
144
0.0
144
0.0
144
1.0
147
0.0208333333333333
147
0.0
147
0.0
147
0.0
147
0.0
147
0.0208333333333333
147
0.0
147
0.0
147
0.0
147
0.0
147
1.0
147
0.0
147
0.0
147
0.0
147
0.0
147
1.0
  0
MATERIAL
  5
11
102
{ACAD_XDICTIONARY
360
12
102
}
102
{ACAD_REACTORS
330
10
102
}
330
10
100
AcDbMaterial
  1
ByLayer
 72
     0
 43
0.0208333333333333
 43
0.0
 43
0.0
 43
0.0
 43
0.0
 43
0.0208333333333333
 43
0.0
 43
0.0
 43
0.0
 43
0.0
 43
1.0
 43
0.0
 43
0.0
 43
0.0
 43
0.0
 43
1.0
 77
     0
 47
0.0208333333333333
 47
0.0
 47
0.0
 47
0.0
 47
0.0
 47
0.0208333333333333
 47
0.0
 47
0.0
 47
0.0
 47
0.0
 47
1.0
 47
0.0
 47
0.0
 47
0.0
 47
0.0
 47
1.0
171
     0
 49
0.0208333333333333
 49
0.0
 49
0.0
 49
0.0
 49
0.0
 49
0.0208333333333333
 49
0.0
 49
0.0
 49
0.0
 49
0.0
 49
1.0
 49
0.0
 49
0.0
 49
0.0
 49
0.0
 49
1.0
175
     0
142
0.0208333333333333
142
0.0
142
0.0
142
0.0
142
0.0
142
0.0208333333333333
142
0.0
142
0.0
142
0.0
142
0.0
142
1.0
142
0.0
142
0.0
142
0.0
142
0.0
142
1.0
179
     0
144
0.0208333333333333
144
0.0
144
0.0
144
0.0
144
0.0
144
0.0208333333333333
144
0.0
144
0.0
144
0.0
144
0.0
144
1.0
144
0.0
144
0.0
144
0.0
144
0.0
144
1.0
147
0.0208333333333333
147
0.0
147
0.0
147
0.0
147
0.0
147
0.0208333333333333
147
0.0
147
0.0
147
0.0
147
0.0
147
1.0
147
0.0
147
0.0
147
0.0
147
0.0
147
1.0
  0
MATERIAL
  5
21
102
{ACAD_XDICTIONARY
360
22
102
}
102
{ACAD_REACTORS
330
10
102
}
330
10
100
AcDbMaterial
  1
Global
 72
     0
 43
0.0208333333333333
 43
0.0
 43
0.0
 43
0.0
 43
0.0
 43
0.0208333333333333
 43
0.0
 43
0.0
 43
0.0
 43
0.0
 43
1.0
 43
0.0
 43
0.0
 43
0.0
 43
0.0
 43
1.0
 77
     0
 47
0.0208333333333333
 47
0.0
 47
0.0
 47
0.0
 47
0.0
 47
0.0208333333333333
 47
0.0
 47
0.0
 47
0.0
 47
0.0
 47
1.0
 47
0.0
 47
0.0
 47
0.0
 47
0.0
 47
1.0
171
     0
 49
0.0208333333333333
 49
0.0
 49
0.0
 49
0.0
 49
0.0
 49
0.0208333333333333
 49
0.0
 49
0.0
 49
0.0
 49
0.0
 49
1.0
 49
0.0
 49
0.0
 49
0.0
 49
0.0
 49
1.0
175
     0
142
0.0208333333333333
142
0.0
142
0.0
142
0.0
142
0.0
142
0.0208333333333333
142
0.0
142
0.0
142
0.0
142
0.0
142
1.0
142
0.0
142
0.0
142
0.0
142
0.0
142
1.0
179
     0
144
0.0208333333333333
144
0.0
144
0.0
144
0.0
144
0.0
144
0.0208333333333333
144
0.0
144
0.0
144
0.0
144
0.0
144
1.0
144
0.0
144
0.0
144
0.0
144
0.0
144
1.0
147
0.0208333333333333
147
0.0
147
0.0
147
0.0
147
0.0
147
0.0208333333333333
147
0.0
147
0.0
147
0.0
147
0.0
147
1.0
147
0.0
147
0.0
147
0.0
147
0.0
147
1.0
  0
MLEADERSTYLE
  5
67
102
{ACAD_REACTORS
330
66
102
}
330
66
100
AcDbMLeaderStyle
170
     2
171
     1
172
     0
 90
        2
 40
0.0
 41
0.0
173
     1
 91
-1056964608
340
5B
 92
       -2
290
     1
 42
0.09
291
     1
 43
0.36
  3
Standard
 44
0.18
300

342
55
174
     1
178
     6
175
     1
176
     0
 93
-1056964608
 45
0.18
292
     0
297
     0
 46
0.18
 94
-1056964608
 47
1.0
 49
1.0
140
1.0
293
     1
141
0.0
294
     1
177
     0
142
1.0
295
     0
296
     0
143
0.125
1001
ACAD_MLEADERVER
1070
     2
  0
MLINESTYLE
  5
60
102
{ACAD_REACTORS
330
5F
102
}
330
5F
100
AcDbMlineStyle
  2
STANDARD
 70
     0
  3

 62
   256
 51
90.0
 52
90.0
 71
     2
 49
0.5
 62
   256
  6
BYLAYER
 49
-0.5
 62
   256
  6
BYLAYER
  0
ACDBPLACEHOLDER
  5
F
102
{ACAD_REACTORS
330
E
102
}
330
E
  0
SCALE
  5
43
102
{ACAD_REACTORS
330
42
102
}
330
42
100
AcDbScale
 70
     0
300
1:1
140
1.0
141
1.0
290
     1
  0
SCALE
  5
44
102
{ACAD_REACTORS
330
42
102
}
330
42
100
AcDbScale
 70
     0
300
1/128" = 1'-0"
140
0.0078125
141
12.0
290
     0
  0
SCALE
  5
45
102
{ACAD_REACTORS
330
42
102
}
330
42
100
AcDbScale
 70
     0
300
1/64" = 1'-0"
140
0.015625
141
12.0
290
     0
  0
SCALE
  5
46
102
{ACAD_REACTORS
330
42
102
}
330
42
100
AcDbScale
 70
     0
300
1/32" = 1'-0"
140
0.03125
141
12.0
290
     0
  0
SCALE
  5
47
102
{ACAD_REACTORS
330
42
102
}
330
42
100
AcDbScale
 70
     0
300
1/16" = 1'-0"
140
0.0625
141
12.0
290
     0
  0
SCALE
  5
48
102
{ACAD_REACTORS
330
42
102
}
330
42
100
AcDbScale
 70
     0
300
3/32" = 1'-0"
140
0.09375
141
12.0
290
     0
  0
SCALE
  5
49
102
{ACAD_REACTORS
330
42
102
}
330
42
100
AcDbScale
 70
     0
300
1/8" = 1'-0"
140
0.125
141
12.0
290
     0
  0
SCALE
  5
4A
102
{ACAD_REACTORS
330
42
102
}
330
42
100
AcDbScale
 70
     0
300
3/16" = 1'-0"
140
0.1875
141
12.0
290
     0
  0
SCALE
  5
4B
102
{ACAD_REACTORS
330
42
102
}
330
42
100
AcDbScale
 70
     0
300
1/4" = 1'-0"
140
0.25
141
12.0
290
     0
  0
SCALE
  5
4C
102
{ACAD_REACTORS
330
42
102
}
330
42
100
AcDbScale
 70
     0
300
3/8" = 1'-0"
140
0.375
141
12.0
290
     0
  0
SCALE
  5
4D
102
{ACAD_REACTORS
330
42
102
}
330
42
100
AcDbScale
 70
     0
300
1/2" = 1'-0"
140
0.5
141
12.0
290
     0
  0
SCALE
  5
4E
102
{ACAD_REACTORS
330
42
102
}
330
42
100
AcDbScale
 70
     0
300
3/4" = 1'-0"
140
0.75
141
12.0
290
     0
  0
SCALE
  5
4F
102
{ACAD_REACTORS
330
42
102
}
330
42
100
AcDbScale
 70
     0
300
1" = 1'-0"
140
1.0
141
12.0
290
     0
  0
SCALE
  5
50
102
{ACAD_REACTORS
330
42
102
}
330
42
100
AcDbScale
 70
     0
300
1-1/2" = 1'-0"
140
1.5
141
12.0
290
     0
  0
SCALE
  5
51
102
{ACAD_REACTORS
330
42
102
}
330
42
100
AcDbScale
 70
     0
300
3" = 1'-0"
140
3.0
141
12.0
290
     0
  0
SCALE
  5
52
102
{ACAD_REACTORS
330
42
102
}
330
42
100
AcDbScale
 70
     0
300
6" = 1'-0"
140
6.0
141
12.0
290
     0
  0
SCALE
  5
53
102
{ACAD_REACTORS
330
42
102
}
330
42
100
AcDbScale
 70
     0
300
1'-0" = 1'-0"
140
12.0
141
12.0
290
     0
  0
TABLESTYLE
  5
65
102
{ACAD_XDICTIONARY
360
3D9
102
}
102
{ACAD_REACTORS
330
64
102
}
330
64
100
AcDbTableStyle
  3
Standard
 70
     0
 71
     0
 40
0.06
 41
0.06
280
     0
281
     0
  7
Standard
140
0.18
170
     2
 62
     0
 63
     7
283
     0
274
    -2
284
     1
 64
     0
275
    -2
285
     1
 65
     0
276
    -2
286
     1
 66
     0
277
    -2
287
     1
 67
     0
278
    -2
288
     1
 68
     0
279
    -2
289
     1
 69
     0
  7
Standard
140
0.25
170
     5
 62
     0
 63
     7
283
     0
274
    -2
284
     1
 64
     0
275
    -2
285
     1
 65
     0
276
    -2
286
     1
 66
     0
277
    -2
287
     1
 67
     0
278
    -2
288
     1
 68
     0
279
    -2
289
     1
 69
     0
  7
Standard
140
0.18
170
     5
 62
     0
 63
     7
283
     0
274
    -2
284
     1
 64
     0
275
    -2
285
     1
 65
     0
276
    -2
286
     1
 66
     0
277
    -2
287
     1
 67
     0
278
    -2
288
     1
 68
     0
279
    -2
289
     1
 69
     0
  0
VISUALSTYLE
  5
2F
102
{ACAD_XDICTIONARY
360
3EA
102
}
102
{ACAD_REACTORS
330
29
102
}
330
29
100
AcDbVisualStyle
  2
2dWireframe
 70
     4
 71
     0
 72
     2
 73
     0
 90
        0
 40
-0.6
 41
-30.0
 62
     5
 63
     7
 74
     1
 91
        4
 64
     7
 65
   257
 75
     1
175
     1
 42
1.0
 92
        0
 66
   257
 43
1.0
 76
     1
 77
     6
 78
     2
 67
     7
 79
     5
170
     0
171
     0
290
     0
174
     0
 93
        1
 44
0.0
173
     0
291
     0
 45
0.0
1001
ACAD
1000
AcDbSavedByObjectVersion
1070
     0
  0
VISUALSTYLE
  5
2E
102
{ACAD_XDICTIONARY
360
3E8
102
}
102
{ACAD_REACTORS
330
29
102
}
330
29
100
AcDbVisualStyle
  2
Basic
 70
     7
 71
     1
 72
     0
 73
     1
 90
        0
 40
-0.6
 41
-30.0
 62
     5
 63
     7
 74
     0
 91
        4
 64
     7
 65
   257
 75
     1
175
     1
 42
1.0
 92
        8
 66
     7
 43
1.0
 76
     1
 77
     6
 78
     2
 67
     7
 79
     5
170
     0
171
     0
290
     0
174
     0
 93
        1
 44
0.0
173
     0
291
     1
 45
0.0
1001
ACAD
1000
AcDbSavedByObjectVersion
1070
     0
  0
VISUALSTYLE
  5
35
102
{ACAD_XDICTIONARY
360
3F6
102
}
102
{ACAD_REACTORS
330
29
102
}
330
29
100
AcDbVisualStyle
  2
Brighten
 70
    12
 71
     2
 72
     2
 73
     0
 90
        0
 40
-0.6
 41
-30.0
 62
     5
 63
     7
 74
     1
 91
        4
 64
     7
 65
   257
 75
     1
175
     1
 42
1.0
 92
        8
 66
     7
 43
1.0
 76
     1
 77
     6
 78
     2
 67
     7
 79
     5
170
     0
171
     0
290
     0
174
     0
 93
        1
 44
50.0
173
     0
291
     1
 45
0.0
1001
ACAD
1000
AcDbSavedByObjectVersion
1070
     0
  0
VISUALSTYLE
  5
39
102
{ACAD_XDICTIONARY
360
3FE
102
}
102
{ACAD_REACTORS
330
29
102
}
330
29
100
AcDbVisualStyle
  2
ColorChange
 70
    16
 71
     2
 72
     2
 73
     3
 90
        0
 40
-0.6
 41
-30.0
 62
     5
 63
     8
 74
     1
 91
        4
 64
     7
 65
   257
 75
     1
175
     1
 42
1.0
 92
        8
 66
     8
 43
1.0
 76
     1
 77
     6
 78
     2
 67
     7
 79
     5
170
     0
171
     0
290
     0
174
     0
 93
        1
 44
0.0
173
     0
291
     1
 45
0.0
1001
ACAD
1000
AcDbSavedByObjectVersion
1070
     0
  0
VISUALSTYLE
  5
32
102
{ACAD_XDICTIONARY
360
3F0
102
}
102
{ACAD_REACTORS
330
29
102
}
330
29
100
AcDbVisualStyle
  2
Conceptual
 70
     9
 71
     3
 72
     2
 73
     0
 90
        0
 40
-0.6
 41
-30.0
 62
     5
 63
     7
 74
     2
 91
        2
 64
     7
 65
   257
 75
     1
175
     1
 42
179.0
 92
        8
 66
     7
 43
1.0
 76
     1
 77
     6
 78
     2
 67
     7
 79
     3
170
     0
171
     0
290
     0
174
     0
 93
        1
 44
0.0
173
     0
291
     0
 45
0.0
1001
ACAD
1000
AcDbSavedByObjectVersion
1070
     0
  0
VISUALSTYLE
  5
34
102
{ACAD_XDICTIONARY
360
3F4
102
}
102
{ACAD_REACTORS
330
29
102
}
330
29
100
AcDbVisualStyle
  2
Dim
 70
    11
 71
     2
 72
     2
 73
     0
 90
        0
 40
-0.6
 41
-30.0
 62
     5
 63
     7
 74
     1
 91
        4
 64
     7
 65
   257
 75
     1
175
     1
 42
1.0
 92
        8
 66
     7
 43
1.0
 76
     1
 77
     6
 78
     2
 67
     7
 79
     5
170
     0
171
     0
290
     0
174
     0
 93
        1
 44
-50.0
173
     0
291
     1
 45
0.0
1001
ACAD
1000
AcDbSavedByObjectVersion
1070
     0
  0
VISUALSTYLE
  5
41
102
{ACAD_XDICTIONARY
360
40E
102
}
102
{ACAD_REACTORS
330
29
102
}
330
29
100
AcDbVisualStyle
  2
EdgeColorOff
 70
    22
 71
     2
 72
     2
 73
     0
 90
        0
 40
-0.6
 41
-30.0
 62
     5
 63
     7
 74
     1
 91
        4
 64
     7
 65
   257
 75
     1
175
     1
 42
1.0
 92
        8
 66
     7
 43
1.0
 76
     1
 77
     6
 78
     2
 67
     7
 79
     5
170
     0
171
     0
290
     0
174
     0
 93
        1
 44
0.0
173
     0
291
     1
 45
0.0
1001
ACAD
1000
AcDbSavedByObjectVersion
1070
     0
  0
VISUALSTYLE
  5
38
102
{ACAD_XDICTIONARY
360
3FC
102
}
102
{ACAD_REACTORS
330
29
102
}
330
29
100
AcDbVisualStyle
  2
Facepattern
 70
    15
 71
     2
 72
     2
 73
     0
 90
        0
 40
-0.6
 41
-30.0
 62
     5
 63
     7
 74
     1
 91
        4
 64
     7
 65
   257
 75
     1
175
     1
 42
1.0
 92
        8
 66
     7
 43
1.0
 76
     1
 77
     6
 78
     2
 67
     7
 79
     5
170
     0
171
     0
290
     0
174
     0
 93
        1
 44
0.0
173
     0
291
     1
 45
0.0
1001
ACAD
1000
AcDbSavedByObjectVersion
1070
     0
  0
VISUALSTYLE
  5
2A
102
{ACAD_XDICTIONARY
360
3E0
102
}
102
{ACAD_REACTORS
330
29
102
}
330
29
100
AcDbVisualStyle
  2
Flat
 70
     0
 71
     2
 72
     1
 73
     1
 90
        2
 40
-0.6
 41
30.0
 62
     5
 63
     7
 74
     0
 91
        0
 64
     7
 65
   257
 75
     1
175
     1
 42
1.0
 92
        8
 66
     7
 43
1.0
 76
     1
 77
     6
 78
     2
 67
     7
 79
     5
170
     0
171
     0
290
     0
174
     0
 93
       13
 44
0.0
173
     0
291
     1
 45
0.0
1001
ACAD
1000
AcDbSavedByObjectVersion
1070
     0
  0
VISUALSTYLE
  5
2B
102
{ACAD_XDICTIONARY
360
3E2
102
}
102
{ACAD_REACTORS
330
29
102
}
330
29
100
AcDbVisualStyle
  2
FlatWithEdges
 70
     1
 71
     2
 72
     1
 73
     1
 90
        2
 40
-0.6
 41
30.0
 62
     5
 63
     7
 74
     1
 91
        0
 64
     7
 65
   257
 75
     1
175
     1
 42
1.0
 92
        0
 66
   257
 43
1.0
 76
     1
 77
     6
 78
     2
 67
     7
 79
     5
170
     0
171
     0
290
     0
174
     0
 93
       13
 44
0.0
173
     0
291
     1
 45
0.0
1001
ACAD
1000
AcDbSavedByObjectVersion
1070
     0
  0
VISUALSTYLE
  5
2C
102
{ACAD_XDICTIONARY
360
3E4
102
}
102
{ACAD_REACTORS
330
29
102
}
330
29
100
AcDbVisualStyle
  2
Gouraud
 70
     2
 71
     2
 72
     2
 73
     1
 90
        2
 40
-0.6
 41
30.0
 62
     5
 63
     7
 74
     0
 91
        0
 64
     7
 65
   257
 75
     1
175
     1
 42
1.0
 92
        0
 66
     7
 43
1.0
 76
     1
 77
     6
 78
     2
 67
     7
 79
     5
170
     0
171
     0
290
     0
174
     0
 93
       13
 44
0.0
173
     0
291
     1
 45
0.0
1001
ACAD
1000
AcDbSavedByObjectVersion
1070
     0
  0
VISUALSTYLE
  5
2D
102
{ACAD_XDICTIONARY
360
3E6
102
}
102
{ACAD_REACTORS
330
29
102
}
330
29
100
AcDbVisualStyle
  2
GouraudWithEdges
 70
     3
 71
     2
 72
     2
 73
     1
 90
        2
 40
-0.6
 41
30.0
 62
     5
 63
     7
 74
     1
 91
        0
 64
     7
 65
   257
 75
     1
175
     1
 42
1.0
 92
        0
 66
   257
 43
1.0
 76
     1
 77
     6
 78
     2
 67
     7
 79
     5
170
     0
171
     0
290
     0
174
     0
 93
       13
 44
0.0
173
     0
291
     1
 45
0.0
1001
ACAD
1000
AcDbSavedByObjectVersion
1070
     0
  0
VISUALSTYLE
  5
31
102
{ACAD_XDICTIONARY
360
3EE
102
}
102
{ACAD_REACTORS
330
29
102
}
330
29
100
AcDbVisualStyle
  2
Hidden
 70
     6
 71
     1
 72
     2
 73
     2
 90
        0
 40
-0.6
 41
-30.0
 62
     5
 63
     7
 74
     2
 91
        2
 64
     7
 65
   257
 75
     2
175
     1
 42
40.0
 92
        0
 66
   257
 43
1.0
 76
     1
 77
     6
 78
     2
 67
     7
 79
     3
170
     0
171
     0
290
     0
174
     0
 93
        1
 44
0.0
173
     0
291
     0
 45
0.0
1001
ACAD
1000
AcDbSavedByObjectVersion
1070
     0
  0
VISUALSTYLE
  5
3F
102
{ACAD_XDICTIONARY
360
40A
102
}
102
{ACAD_REACTORS
330
29
102
}
330
29
100
AcDbVisualStyle
  2
JitterOff
 70
    20
 71
     2
 72
     2
 73
     0
 90
        0
 40
-0.6
 41
-30.0
 62
     5
 63
     7
 74
     1
 91
        4
 64
     7
 65
   257
 75
     1
175
     1
 42
1.0
 92
       10
 66
     7
 43
1.0
 76
     1
 77
     6
 78
     2
 67
     7
 79
     5
170
     0
171
     0
290
     0
174
     0
 93
        1
 44
0.0
173
     0
291
     1
 45
0.0
1001
ACAD
1000
AcDbSavedByObjectVersion
1070
     0
  0
VISUALSTYLE
  5
37
102
{ACAD_XDICTIONARY
360
3FA
102
}
102
{ACAD_REACTORS
330
29
102
}
330
29
100
AcDbVisualStyle
  2
Linepattern
 70
    14
 71
     2
 72
     2
 73
     0
 90
        0
 40
-0.6
 41
-30.0
 62
     5
 63
     7
 74
     1
 91
        4
 64
     7
 65
   257
 75
     7
175
     7
 42
1.0
 92
        8
 66
     7
 43
1.0
 76
     1
 77
     6
 78
     2
 67
     7
 79
     5
170
     0
171
     0
290
     0
174
     0
 93
        1
 44
0.0
173
     0
291
     1
 45
0.0
1001
ACAD
1000
AcDbSavedByObjectVersion
1070
     0
  0
VISUALSTYLE
  5
40
102
{ACAD_XDICTIONARY
360
40C
102
}
102
{ACAD_REACTORS
330
29
102
}
330
29
100
AcDbVisualStyle
  2
OverhangOff
 70
    21
 71
     2
 72
     2
 73
     0
 90
        0
 40
-0.6
 41
-30.0
 62
     5
 63
     7
 74
     1
 91
        4
 64
     7
 65
   257
 75
     1
175
     1
 42
1.0
 92
        9
 66
     7
 43
1.0
 76
     1
 77
     6
 78
     2
 67
     7
 79
     5
170
     0
171
     0
290
     0
174
     0
 93
        1
 44
0.0
173
     0
291
     1
 45
0.0
1001
ACAD
1000
AcDbSavedByObjectVersion
1070
     0
  0
VISUALSTYLE
  5
33
102
{ACAD_XDICTIONARY
360
3F2
102
}
102
{ACAD_REACTORS
330
29
102
}
330
29
100
AcDbVisualStyle
  2
Realistic
 70
     8
 71
     2
 72
     3
 73
     0
 90
        2
 40
-0.6
 41
30.0
 62
     5
 63
     7
 74
     0
 91
        0
 64
     7
 65
   257
 75
     1
175
     1
 42
1.0
 92
        8
 66
   257
 43
1.0
 76
     1
 77
     6
 78
     2
 67
     7
 79
     3
170
     0
171
     0
290
     0
174
     0
 93
       13
 44
0.0
173
     0
291
     0
 45
0.0
1001
ACAD
1000
AcDbSavedByObjectVersion
1070
     0
  0
VISUALSTYLE
  5
3E
102
{ACAD_XDICTIONARY
360
408
102
}
102
{ACAD_REACTORS
330
29
102
}
330
29
100
AcDbVisualStyle
  2
Shaded
 70
    27
 71
     2
 72
     2
 73
     1
 90
        2
 40
-0.6
 41
30.0
 62
     5
 63
     7
 74
     0
 91
        4
 64
     7
 65
   257
 75
     1
175
     1
 42
1.0
 92
        8
 66
   257
 43
1.0
 76
     1
 77
     6
 78
     2
 67
     8
 79
     3
170
     0
171
     0
290
     0
174
     0
 93
        5
 44
0.0
173
     0
291
     0
 45
0.0
1001
ACAD
1000
AcDbSavedByObjectVersion
1070
     0
  0
VISUALSTYLE
  5
3D
102
{ACAD_XDICTIONARY
360
406
102
}
102
{ACAD_REACTORS
330
29
102
}
330
29
100
AcDbVisualStyle
  2
Shaded with edges
 70
    26
 71
     2
 72
     2
 73
     1
 90
        2
 40
-0.6
 41
30.0
 62
     5
 63
     7
 74
     1
 91
       10
 64
     7
 65
   257
 75
     2
175
     1
 42
1.0
 92
        8
 66
   257
 43
1.0
 76
     1
 77
     6
 78
     2
 67
     7
 79
     3
170
     0
171
     0
290
     0
174
     0
 93
        5
 44
0.0
173
     0
291
     0
 45
0.0
1001
ACAD
1000
AcDbSavedByObjectVersion
1070
     0
  0
VISUALSTYLE
  5
3A
102
{ACAD_XDICTIONARY
360
400
102
}
102
{ACAD_REACTORS
330
29
102
}
330
29
100
AcDbVisualStyle
  2
Shades of Gray
 70
    23
 71
     2
 72
     2
 73
     3
 90
        0
 40
-0.6
 41
-30.0
 62
     5
 63
     7
 74
     2
 91
        2
 64
     7
 65
     7
 75
     1
175
     1
 42
40.0
 92
        8
 66
     7
 43
1.0
 76
     1
 77
     6
 78
     2
 67
     7
 79
     3
170
     0
171
     0
290
     0
174
     0
 93
        1
 44
0.0
173
     0
291
     0
 45
0.0
1001
ACAD
1000
AcDbSavedByObjectVersion
1070
     0
  0
VISUALSTYLE
  5
3B
102
{ACAD_XDICTIONARY
360
402
102
}
102
{ACAD_REACTORS
330
29
102
}
330
29
100
AcDbVisualStyle
  2
Sketchy
 70
    24
 71
     1
 72
     2
 73
     2
 90
        0
 40
-0.6
 41
-30.0
 62
     5
 63
     7
 74
     2
 91
        2
 64
     7
 65
     7
 75
     1
175
     1
 42
40.0
 92
       11
 66
     7
 43
1.0
 76
     1
 77
     6
 78
     2
 67
     7
 79
     6
170
     0
171
     0
290
     0
174
     0
 93
        1
 44
0.0
173
     0
291
     0
 45
0.0
1001
ACAD
1000
AcDbSavedByObjectVersion
1070
     0
  0
VISUALSTYLE
  5
36
102
{ACAD_XDICTIONARY
360
3F8
102
}
102
{ACAD_REACTORS
330
29
102
}
330
29
100
AcDbVisualStyle
  2
Thicken
 70
    13
 71
     2
 72
     2
 73
     0
 90
        0
 40
-0.6
 41
-30.0
 62
     5
 63
     7
 74
     1
 91
        4
 64
     7
 65
   257
 75
     1
175
     1
 42
1.0
 92
       12
 66
     7
 43
1.0
 76
     1
 77
     6
 78
     2
 67
     7
 79
     5
170
     0
171
     0
290
     0
174
     0
 93
        1
 44
0.0
173
     0
291
     1
 45
0.0
1001
ACAD
1000
AcDbSavedByObjectVersion
1070
     0
  0
VISUALSTYLE
  5
30
102
{ACAD_XDICTIONARY
360
3EC
102
}
102
{ACAD_REACTORS
330
29
102
}
330
29
100
AcDbVisualStyle
  2
Wireframe
 70
     5
 71
     0
 72
     2
 73
     0
 90
        0
 40
-0.6
 41
-30.0
 62
     5
 63
     7
 74
     1
 91
        4
 64
     7
 65
   257
 75
     1
175
     1
 42
1.0
 92
        0
 66
   257
 43
1.0
 76
     1
 77
     6
 78
     2
 67
     7
 79
     3
170
     0
171
     0
290
     0
174
     0
 93
        1
 44
0.0
173
     0
291
     0
 45
0.0
1001
ACAD
1000
AcDbSavedByObjectVersion
1070
     0
  0
VISUALSTYLE
  5
3C
102
{ACAD_XDICTIONARY
360
404
102
}
102
{ACAD_REACTORS
330
29
102
}
330
29
100
AcDbVisualStyle
  2
X-Ray
 70
    25
 71
     2
 72
     2
 73
     1
 90
        1
 40
0.5
 41
-30.0
 62
     5
 63
     7
 74
     1
 91
        0
 64
     7
 65
   257
 75
     1
175
     1
 42
1.0
 92
        8
 66
     7
 43
1.0
 76
     1
 77
     6
 78
     2
 67
     7
 79
     3
170
     0
171
     0
290
     0
174
     0
 93
       13
 44
0.0
173
     0
291
     0
 45
0.0
1001
ACAD
1000
AcDbSavedByObjectVersion
1070
     0
  0
DICTIONARYVAR
  5
3D0
102
{ACAD_REACTORS
330
3CC
102
}
330
3CC
100
DictionaryVariables
280
     0
  1
1:1
  0
DICTIONARYVAR
  5
3CE
102
{ACAD_REACTORS
330
3CC
102
}
330
3CC
100
DictionaryVariables
280
     0
  1
STANDARD
  0
DICTIONARYVAR
  5
3CD
102
{ACAD_REACTORS
330
3CC
102
}
330
3CC
100
DictionaryVariables
280
     0
  1
STANDARD
  0
DICTIONARYVAR
  5
3D7
102
{ACAD_REACTORS
330
3CC
102
}
330
3CC
100
DictionaryVariables
280
     0
  1
1
  0
DICTIONARYVAR
  5
3D6
102
{ACAD_REACTORS
330
3CC
102
}
330
3CC
100
DictionaryVariables
280
     0
  1
1
  0
DICTIONARYVAR
  5
3D5
102
{ACAD_REACTORS
330
3CC
102
}
330
3CC
100
DictionaryVariables
280
     0
  1
0
  0
DICTIONARYVAR
  5
3D2
102
{ACAD_REACTORS
330
3CC
102
}
330
3CC
100
DictionaryVariables
280
     0
  1
0
  0
DICTIONARYVAR
  5
3D3
102
{ACAD_REACTORS
330
3CC
102
}
330
3CC
100
DictionaryVariables
280
     0
  1
0
  0
DICTIONARYVAR
  5
3D1
102
{ACAD_REACTORS
330
3CC
102
}
330
3CC
100
DictionaryVariables
280
     0
  1
2
  0
DICTIONARYVAR
  5
3CF
102
{ACAD_REACTORS
330
3CC
102
}
330
3CC
100
DictionaryVariables
280
     0
  1
1
  0
DICTIONARYVAR
  5
3D4
102
{ACAD_REACTORS
330
3CC
102
}
330
3CC
100
DictionaryVariables
280
     0
  1
127
  0
DICTIONARYVAR
  5
3D8
102
{ACAD_REACTORS
330
3CC
102
}
330
3CC
100
DictionaryVariables
280
     0
  1
2
  0
DICTIONARY
  5
412
330
6B
100
AcDbDictionary
280
     1
281
     1
  3
ACAD_XREC_ROUNDTRIP
360
413
  0
DICTIONARY
  5
416
330
73
100
AcDbDictionary
280
     1
281
     1
  3
ACAD_XREC_ROUNDTRIP
360
417
  0
DICTIONARY
  5
414
330
6F
100
AcDbDictionary
280
     1
281
     1
  3
ACAD_XREC_ROUNDTRIP
360
415
  0
DICTIONARY
  5
1A
330
19
100
AcDbDictionary
280
     1
281
     1
  3
ACAD_XREC_ROUNDTRIP
360
3DE
  3
BUMPTILE
360
1C
  3
DIFFUSETILE
360
1B
  3
OPACITYTILE
360
1F
  3
REFLECTIONTILE
360
1E
  3
REFRACTIONTILE
360
20
  3
SPECULARTILE
360
1D
  0
DICTIONARY
  5
12
330
11
100
AcDbDictionary
280
     1
281
     1
  3
ACAD_XREC_ROUNDTRIP
360
3DD
  3
BUMPTILE
360
14
  3
DIFFUSETILE
360
13
  3
OPACITYTILE
360
17
  3
REFLECTIONTILE
360
16
  3
REFRACTIONTILE
360
18
  3
SPECULARTILE
360
15
  0
DICTIONARY
  5
22
330
21
100
AcDbDictionary
280
     1
281
     1
  3
ACAD_XREC_ROUNDTRIP
360
3DF
  3
BUMPTILE
360
24
  3
DIFFUSETILE
360
23
  3
OPACITYTILE
360
27
  3
REFLECTIONTILE
360
26
  3
REFRACTIONTILE
360
28
  3
SPECULARTILE
360
25
  0
DICTIONARY
  5
3D9
330
65
100
AcDbDictionary
280
     1
281
     1
  3
ACAD_ROUNDTRIP_2008_TABLESTYLE_CELLSTYLEMAP
360
3DA
  3
ACAD_XREC_ROUNDTRIP
360
410
  0
DICTIONARY
  5
3EA
330
2F
100
AcDbDictionary
280
     1
281
     1
  3
ACAD_XREC_ROUNDTRIP
360
3EB
  0
DICTIONARY
  5
3E8
330
2E
100
AcDbDictionary
280
     1
281
     1
  3
ACAD_XREC_ROUNDTRIP
360
3E9
  0
DICTIONARY
  5
3F6
330
35
100
AcDbDictionary
280
     1
281
     1
  3
ACAD_XREC_ROUNDTRIP
360
3F7
  0
DICTIONARY
  5
3FE
330
39
100
AcDbDictionary
280
     1
281
     1
  3
ACAD_XREC_ROUNDTRIP
360
3FF
  0
DICTIONARY
  5
3F0
330
32
100
AcDbDictionary
280
     1
281
     1
  3
ACAD_XREC_ROUNDTRIP
360
3F1
  0
DICTIONARY
  5
3F4
330
34
100
AcDbDictionary
280
     1
281
     1
  3
ACAD_XREC_ROUNDTRIP
360
3F5
  0
DICTIONARY
  5
40E
330
41
100
AcDbDictionary
280
     1
281
     1
  3
ACAD_XREC_ROUNDTRIP
360
40F
  0
DICTIONARY
  5
3FC
330
38
100
AcDbDictionary
280
     1
281
     1
  3
ACAD_XREC_ROUNDTRIP
360
3FD
  0
DICTIONARY
  5
3E0
330
2A
100
AcDbDictionary
280
     1
281
     1
  3
ACAD_XREC_ROUNDTRIP
360
3E1
  0
DICTIONARY
  5
3E2
330
2B
100
AcDbDictionary
280
     1
281
     1
  3
ACAD_XREC_ROUNDTRIP
360
3E3
  0
DICTIONARY
  5
3E4
330
2C
100
AcDbDictionary
280
     1
281
     1
  3
ACAD_XREC_ROUNDTRIP
360
3E5
  0
DICTIONARY
  5
3E6
330
2D
100
AcDbDictionary
280
     1
281
     1
  3
ACAD_XREC_ROUNDTRIP
360
3E7
  0
DICTIONARY
  5
3EE
330
31
100
AcDbDictionary
280
     1
281
     1
  3
ACAD_XREC_ROUNDTRIP
360
3EF
  0
DICTIONARY
  5
40A
330
3F
100
AcDbDictionary
280
     1
281
     1
  3
ACAD_XREC_ROUNDTRIP
360
40B
  0
DICTIONARY
  5
3FA
330
37
100
AcDbDictionary
280
     1
281
     1
  3
ACAD_XREC_ROUNDTRIP
360
3FB
  0
DICTIONARY
  5
40C
330
40
100
AcDbDictionary
280
     1
281
     1
  3
ACAD_XREC_ROUNDTRIP
360
40D
  0
DICTIONARY
  5
3F2
330
33
100
AcDbDictionary
280
     1
281
     1
  3
ACAD_XREC_ROUNDTRIP
360
3F3
  0
DICTIONARY
  5
408
330
3E
100
AcDbDictionary
280
     1
281
     1
  3
ACAD_XREC_ROUNDTRIP
360
409
  0
DICTIONARY
  5
406
330
3D
100
AcDbDictionary
280
     1
281
     1
  3
ACAD_XREC_ROUNDTRIP
360
407
  0
DICTIONARY
  5
400
330
3A
100
AcDbDictionary
280
     1
281
     1
  3
ACAD_XREC_ROUNDTRIP
360
401
  0
DICTIONARY
  5
402
330
3B
100
AcDbDictionary
280
     1
281
     1
  3
ACAD_XREC_ROUNDTRIP
360
403
  0
DICTIONARY
  5
3F8
330
36
100
AcDbDictionary
280
     1
281
     1
  3
ACAD_XREC_ROUNDTRIP
360
3F9
  0
DICTIONARY
  5
3EC
330
30
100
AcDbDictionary
280
     1
281
     1
  3
ACAD_XREC_ROUNDTRIP
360
3ED
  0
DICTIONARY
  5
404
330
3C
100
AcDbDictionary
280
     1
281
     1
  3
ACAD_XREC_ROUNDTRIP
360
405
  0
XRECORD
  5
413
102
{ACAD_REACTORS
330
412
102
}
330
412
100
AcDbXrecord
280
     1
102
SHADEPLOT
 70
     0
102
SHADEPLOTRESLEVEL
 70
     2
102
SHADEPLOTCUSTOMDPI
 70
   300
  0
XRECORD
  5
417
102
{ACAD_REACTORS
330
416
102
}
330
416
100
AcDbXrecord
280
     1
102
SHADEPLOT
 70
     0
102
SHADEPLOTRESLEVEL
 70
     2
102
SHADEPLOTCUSTOMDPI
 70
   300
  0
XRECORD
  5
415
102
{ACAD_REACTORS
330
414
102
}
330
414
100
AcDbXrecord
280
     1
102
SHADEPLOT
 70
     0
102
SHADEPLOTRESLEVEL
 70
     2
102
SHADEPLOTCUSTOMDPI
 70
   300
  0
XRECORD
  5
3DE
102
{ACAD_REACTORS
330
1A
102
}
330
1A
100
AcDbXrecord
280
     1
102
MATERIAL
148
0.0
149
0.0
149
0.0
 93
        0
 94
      127
282
     0
 72
     0
 77
     0
171
     0
175
     0
179
     0
273
     0
  0
XRECORD
  5
1C
102
{ACAD_REACTORS
330
1A
102
}
330
1A
100
AcDbXrecord
280
     1
270
     1
271
     1
  0
XRECORD
  5
1B
102
{ACAD_REACTORS
330
1A
102
}
330
1A
100
AcDbXrecord
280
     1
270
     1
271
     1
  0
XRECORD
  5
1F
102
{ACAD_REACTORS
330
1A
102
}
330
1A
100
AcDbXrecord
280
     1
270
     1
271
     1
  0
XRECORD
  5
1E
102
{ACAD_REACTORS
330
1A
102
}
330
1A
100
AcDbXrecord
280
     1
270
     1
271
     1
  0
XRECORD
  5
20
102
{ACAD_REACTORS
330
1A
102
}
330
1A
100
AcDbXrecord
280
     1
270
     1
271
     1
  0
XRECORD
  5
1D
102
{ACAD_REACTORS
330
1A
102
}
330
1A
100
AcDbXrecord
280
     1
270
     1
271
     1
  0
XRECORD
  5
3DD
102
{ACAD_REACTORS
330
12
102
}
330
12
100
AcDbXrecord
280
     1
102
MATERIAL
148
0.0
149
0.0
149
0.0
 93
        0
 94
      127
282
     0
 72
     0
 77
     0
171
     0
175
     0
179
     0
273
     0
  0
XRECORD
  5
14
102
{ACAD_REACTORS
330
12
102
}
330
12
100
AcDbXrecord
280
     1
270
     1
271
     1
  0
XRECORD
  5
13
102
{ACAD_REACTORS
330
12
102
}
330
12
100
AcDbXrecord
280
     1
270
     1
271
     1
  0
XRECORD
  5
17
102
{ACAD_REACTORS
330
12
102
}
330
12
100
AcDbXrecord
280
     1
270
     1
271
     1
  0
XRECORD
  5
16
102
{ACAD_REACTORS
330
12
102
}
330
12
100
AcDbXrecord
280
     1
270
     1
271
     1
  0
XRECORD
  5
18
102
{ACAD_REACTORS
330
12
102
}
330
12
100
AcDbXrecord
280
     1
270
     1
271
     1
  0
XRECORD
  5
15
102
{ACAD_REACTORS
330
12
102
}
330
12
100
AcDbXrecord
280
     1
270
     1
271
     1
  0
XRECORD
  5
3DF
102
{ACAD_REACTORS
330
22
102
}
330
22
100
AcDbXrecord
280
     1
102
MATERIAL
148
0.0
149
0.0
149
0.0
 93
        0
 94
      127
282
     0
 72
     0
 77
     0
171
     0
175
     0
179
     0
273
     0
  0
XRECORD
  5
24
102
{ACAD_REACTORS
330
22
102
}
330
22
100
AcDbXrecord
280
     1
270
     1
271
     1
  0
XRECORD
  5
23
102
{ACAD_REACTORS
330
22
102
}
330
22
100
AcDbXrecord
280
     1
270
     1
271
     1
  0
XRECORD
  5
27
102
{ACAD_REACTORS
330
22
102
}
330
22
100
AcDbXrecord
280
     1
270
     1
271
     1
  0
XRECORD
  5
26
102
{ACAD_REACTORS
330
22
102
}
330
22
100
AcDbXrecord
280
     1
270
     1
271
     1
  0
XRECORD
  5
28
102
{ACAD_REACTORS
330
22
102
}
330
22
100
AcDbXrecord
280
     1
270
     1
271
     1
  0
XRECORD
  5
25
102
{ACAD_REACTORS
330
22
102
}
330
22
100
AcDbXrecord
280
     1
270
     1
271
     1
  0
CELLSTYLEMAP
  5
3DA
102
{ACAD_REACTORS
330
3D9
102
}
330
3D9
100
AcDbCellStyleMap
 90
        3
300
CELLSTYLE
  1
TABLEFORMAT_BEGIN
 90
        5
170
     1
 91
        0
 92
    32768
 62
   257
 93
        1
300
CONTENTFORMAT
  1
CONTENTFORMAT_BEGIN
 90
        0
 91
        0
 92
      512
 93
        0
300

 40
0.0
140
1.0
 94
        5
 62
     0
340
55
144
0.25
309
CONTENTFORMAT_END
171
     0
 94
        0
309
TABLEFORMAT_END
  1
CELLSTYLE_BEGIN
 90
        1
 91
        1
300
_TITLE
309
CELLSTYLE_END
300
CELLSTYLE
  1
TABLEFORMAT_BEGIN
 90
        5
170
     1
 91
        0
 92
        0
 62
   257
 93
        1
300
CONTENTFORMAT
  1
CONTENTFORMAT_BEGIN
 90
        0
 91
        0
 92
      512
 93
        0
300

 40
0.0
140
1.0
 94
        5
 62
     0
340
55
144
0.18
309
CONTENTFORMAT_END
171
     0
 94
        0
309
TABLEFORMAT_END
  1
CELLSTYLE_BEGIN
 90
        2
 91
        1
300
_HEADER
309
CELLSTYLE_END
300
CELLSTYLE
  1
TABLEFORMAT_BEGIN
 90
        5
170
     1
 91
        0
 92
        0
 62
   257
 93
        1
300
CONTENTFORMAT
  1
CONTENTFORMAT_BEGIN
 90
        0
 91
        0
 92
      512
 93
        0
300

 40
0.0
140
1.0
 94
        2
 62
     0
340
55
144
0.18
309
CONTENTFORMAT_END
171
     0
 94
        0
309
TABLEFORMAT_END
  1
CELLSTYLE_BEGIN
 90
        3
 91
        2
300
_DATA
309
CELLSTYLE_END
  0
XRECORD
  5
410
102
{ACAD_REACTORS
330
3D9
102
}
330
3D9
100
AcDbXrecord
280
     1
102
ACAD_ROUNDTRIP_PRE2007_TABLESTYLE
 90
      512
 91
        0
  1

 92
      512
 93
        0
  2

 94
      512
 95
        0
  3

  0
XRECORD
  5
3EB
102
{ACAD_REACTORS
330
3EA
102
}
330
3EA
100
AcDbXrecord
280
     1
102
RTVSPropertyOp0
 70
     1
102
RTVSPropertyOp1
 70
     1
102
RTVSPropertyOp2
 70
     1
102
RTVSPropertyOp3
 70
     1
102
RTVSPropertyOp4
 70
     1
102
RTVSPropertyOp5
 70
     1
102
RTVSPropertyOp6
 70
     1
102
RTVSPropertyOp7
 70
     1
102
RTVSPropertyOp8
 70
     1
102
RTVSPropertyOp9
 70
     1
102
RTVSPropertyOp10
 70
     1
102
RTVSPropertyOp11
 70
     1
102
RTVSPropertyOp12
 70
     1
102
RTVSPropertyOp13
 70
     1
102
RTVSPropertyOp14
 70
     1
102
RTVSPropertyOp15
 70
     1
102
RTVSPropertyOp16
 70
     1
102
RTVSPropertyOp17
 70
     1
102
RTVSPropertyOp18
 70
     1
102
RTVSPropertyOp19
 70
     1
102
RTVSPropertyOp20
 70
     1
102
RTVSPropertyOp21
 70
     1
102
RTVSPropertyOp22
 70
     1
102
RTVSPropertyOp23
 70
     1
102
RTVSPropertyOp24
 70
     1
102
RTVSPropertyOp25
 70
     1
102
RTVSPropertyOp26
 70
     1
102
RTVSPropertyOp27
 70
     1
102
RTVSPropertyOp28
 70
     1
102
RTVSPropertyOp29
 70
     1
102
RTVSPropertyOp30
 70
     1
102
RTVSPropertyOp31
 70
     1
102
RTVSPropertyOp32
 70
     1
  0
XRECORD
  5
3E9
102
{ACAD_REACTORS
330
3E8
102
}
330
3E8
100
AcDbXrecord
280
     1
102
RTVSPropertyOp0
 70
     1
102
RTVSPropertyOp1
 70
     1
102
RTVSPropertyOp2
 70
     1
102
RTVSPropertyOp3
 70
     1
102
RTVSPropertyOp4
 70
     1
102
RTVSPropertyOp5
 70
     1
102
RTVSPropertyOp6
 70
     1
102
RTVSPropertyOp7
 70
     1
102
RTVSPropertyOp8
 70
     1
102
RTVSPropertyOp9
 70
     1
102
RTVSPropertyOp10
 70
     1
102
RTVSPropertyOp11
 70
     1
102
RTVSPropertyOp12
 70
     1
102
RTVSPropertyOp13
 70
     1
102
RTVSPropertyOp14
 70
     1
102
RTVSPropertyOp15
 70
     1
102
RTVSPropertyOp16
 70
     1
102
RTVSPropertyOp17
 70
     1
102
RTVSPropertyOp18
 70
     1
102
RTVSPropertyOp19
 70
     1
102
RTVSPropertyOp20
 70
     1
102
RTVSPropertyOp21
 70
     1
102
RTVSPropertyOp22
 70
     1
102
RTVSPropertyOp23
 70
     1
102
RTVSPropertyOp24
 70
     1
102
RTVSPropertyOp25
 70
     1
102
RTVSPropertyOp26
 70
     1
102
RTVSPropertyOp27
 70
     1
102
RTVSPropertyOp28
 70
     1
102
RTVSPropertyOp29
 70
     1
102
RTVSPropertyOp30
 70
     1
102
RTVSPropertyOp31
 70
     1
102
RTVSPropertyOp32
 70
     1
  0
XRECORD
  5
3F7
102
{ACAD_REACTORS
330
3F6
102
}
330
3F6
100
AcDbXrecord
280
     1
102
RTVSPropertyOp0
 70
     1
102
RTVSPropertyOp1
 70
     1
102
RTVSPropertyOp2
 70
     1
102
RTVSPropertyOp3
 70
     1
102
RTVSPropertyOp4
 70
     1
102
RTVSPropertyOp5
 70
     1
102
RTVSPropertyOp6
 70
     1
102
RTVSPropertyOp7
 70
     1
102
RTVSPropertyOp8
 70
     1
102
RTVSPropertyOp9
 70
     1
102
RTVSPropertyOp10
 70
     1
102
RTVSPropertyOp11
 70
     1
102
RTVSPropertyOp12
 70
     1
102
RTVSPropertyOp13
 70
     1
102
RTVSPropertyOp14
 70
     1
102
RTVSPropertyOp15
 70
     1
102
RTVSPropertyOp16
 70
     1
102
RTVSPropertyOp17
 70
     1
102
RTVSPropertyOp18
 70
     1
102
RTVSPropertyOp19
 70
     1
102
RTVSPropertyOp20
 70
     1
102
RTVSPropertyOp21
 70
     1
102
RTVSPropertyOp22
 70
     1
102
RTVSPropertyOp23
 70
     1
102
RTVSPropertyOp24
 70
     1
102
RTVSPropertyOp25
 70
     1
102
RTVSPropertyOp26
 70
     1
102
RTVSPropertyOp27
 70
     1
102
RTVSPropertyOp28
 70
     1
102
RTVSPropertyOp29
 70
     1
102
RTVSPropertyOp30
 70
     1
102
RTVSPropertyOp31
 70
     1
102
RTVSPropertyOp32
 70
     1
  0
XRECORD
  5
3FF
102
{ACAD_REACTORS
330
3FE
102
}
330
3FE
100
AcDbXrecord
280
     1
102
RTVSPropertyOp0
 70
     1
102
RTVSPropertyOp1
 70
     1
102
RTVSPropertyOp2
 70
     1
102
RTVSPropertyOp3
 70
     1
102
RTVSPropertyOp4
 70
     1
102
RTVSPropertyOp5
 70
     1
102
RTVSPropertyOp6
 70
     1
102
RTVSPropertyOp7
 70
     1
102
RTVSPropertyOp8
 70
     1
102
RTVSPropertyOp9
 70
     1
102
RTVSPropertyOp10
 70
     1
102
RTVSPropertyOp11
 70
     1
102
RTVSPropertyOp12
 70
     1
102
RTVSPropertyOp13
 70
     1
102
RTVSPropertyOp14
 70
     1
102
RTVSPropertyOp15
 70
     1
102
RTVSPropertyOp16
 70
     1
102
RTVSPropertyOp17
 70
     1
102
RTVSPropertyOp18
 70
     1
102
RTVSPropertyOp19
 70
     1
102
RTVSPropertyOp20
 70
     1
102
RTVSPropertyOp21
 70
     1
102
RTVSPropertyOp22
 70
     1
102
RTVSPropertyOp23
 70
     1
102
RTVSPropertyOp24
 70
     1
102
RTVSPropertyOp25
 70
     1
102
RTVSPropertyOp26
 70
     1
102
RTVSPropertyOp27
 70
     1
102
RTVSPropertyOp28
 70
     1
102
RTVSPropertyOp29
 70
     1
102
RTVSPropertyOp30
 70
     1
102
RTVSPropertyOp31
 70
     1
102
RTVSPropertyOp32
 70
     1
  0
XRECORD
  5
3F1
102
{ACAD_REACTORS
330
3F0
102
}
330
3F0
100
AcDbXrecord
280
     1
102
RTVSPropertyOp0
 70
     1
102
RTVSPropertyOp1
 70
     1
102
RTVSPropertyOp2
 70
     1
102
RTVSPropertyOp3
 70
     1
102
RTVSPropertyOp4
 70
     1
102
RTVSPropertyOp5
 70
     1
102
RTVSPropertyOp6
 70
     1
102
RTVSPropertyOp7
 70
     1
102
RTVSPropertyOp8
 70
     1
102
RTVSPropertyOp9
 70
     1
102
RTVSPropertyOp10
 70
     1
102
RTVSPropertyOp11
 70
     1
102
RTVSPropertyOp12
 70
     1
102
RTVSPropertyOp13
 70
     1
102
RTVSPropertyOp14
 70
     1
102
RTVSPropertyOp15
 70
     1
102
RTVSPropertyOp16
 70
     1
102
RTVSPropertyOp17
 70
     1
102
RTVSPropertyOp18
 70
     1
102
RTVSPropertyOp19
 70
     1
102
RTVSPropertyOp20
 70
     1
102
RTVSPropertyOp21
 70
     1
102
RTVSPropertyOp22
 70
     1
102
RTVSPropertyOp23
 70
     1
102
RTVSPropertyOp24
 70
     1
102
RTVSPropertyOp25
 70
     1
102
RTVSPropertyOp26
 70
     1
102
RTVSPropertyOp27
 70
     1
102
RTVSPropertyOp28
 70
     1
102
RTVSPropertyOp29
 70
     1
102
RTVSPropertyOp30
 70
     1
102
RTVSPropertyOp31
 70
     1
102
RTVSPropertyOp32
 70
     1
  0
XRECORD
  5
3F5
102
{ACAD_REACTORS
330
3F4
102
}
330
3F4
100
AcDbXrecord
280
     1
102
RTVSPropertyOp0
 70
     1
102
RTVSPropertyOp1
 70
     1
102
RTVSPropertyOp2
 70
     1
102
RTVSPropertyOp3
 70
     1
102
RTVSPropertyOp4
 70
     1
102
RTVSPropertyOp5
 70
     1
102
RTVSPropertyOp6
 70
     1
102
RTVSPropertyOp7
 70
     1
102
RTVSPropertyOp8
 70
     1
102
RTVSPropertyOp9
 70
     1
102
RTVSPropertyOp10
 70
     1
102
RTVSPropertyOp11
 70
     1
102
RTVSPropertyOp12
 70
     1
102
RTVSPropertyOp13
 70
     1
102
RTVSPropertyOp14
 70
     1
102
RTVSPropertyOp15
 70
     1
102
RTVSPropertyOp16
 70
     1
102
RTVSPropertyOp17
 70
     1
102
RTVSPropertyOp18
 70
     1
102
RTVSPropertyOp19
 70
     1
102
RTVSPropertyOp20
 70
     1
102
RTVSPropertyOp21
 70
     1
102
RTVSPropertyOp22
 70
     1
102
RTVSPropertyOp23
 70
     1
102
RTVSPropertyOp24
 70
     1
102
RTVSPropertyOp25
 70
     1
102
RTVSPropertyOp26
 70
     1
102
RTVSPropertyOp27
 70
     1
102
RTVSPropertyOp28
 70
     1
102
RTVSPropertyOp29
 70
     1
102
RTVSPropertyOp30
 70
     1
102
RTVSPropertyOp31
 70
     1
102
RTVSPropertyOp32
 70
     1
  0
XRECORD
  5
40F
102
{ACAD_REACTORS
330
40E
102
}
330
40E
100
AcDbXrecord
280
     1
102
RTVSPropertyOp0
 70
     0
102
RTVSPropertyOp1
 70
     0
102
RTVSPropertyOp2
 70
     0
102
RTVSPropertyOp3
 70
     0
102
RTVSPropertyOp4
 70
     0
102
RTVSPropertyOp5
 70
     0
102
RTVSPropertyOp6
 70
     0
102
RTVSPropertyOp7
 70
     0
102
RTVSPropertyOp8
 70
     0
102
RTVSPropertyOp9
 70
     0
102
RTVSPropertyOp10
 70
     0
102
RTVSPropertyOp11
 70
     0
102
RTVSPropertyOp12
 70
     0
102
RTVSPropertyOp13
 70
     0
102
RTVSPropertyOp14
 70
     2
102
RTVSPropertyOp15
 70
     0
102
RTVSPropertyOp16
 70
     0
102
RTVSPropertyOp17
 70
     0
102
RTVSPropertyOp18
 70
     0
102
RTVSPropertyOp19
 70
     0
102
RTVSPropertyOp20
 70
     0
102
RTVSPropertyOp21
 70
     0
102
RTVSPropertyOp22
 70
     0
102
RTVSPropertyOp23
 70
     0
102
RTVSPropertyOp24
 70
     0
102
RTVSPropertyOp25
 70
     0
102
RTVSPropertyOp26
 70
     0
102
RTVSPropertyOp27
 70
     0
102
RTVSPropertyOp28
 70
     0
102
RTVSPropertyOp29
 70
     0
102
RTVSPropertyOp30
 70
     0
102
RTVSPropertyOp31
 70
     0
102
RTVSPropertyOp32
 70
     0
  0
XRECORD
  5
3FD
102
{ACAD_REACTORS
330
3FC
102
}
330
3FC
100
AcDbXrecord
280
     1
102
RTVSPropertyOp0
 70
     1
102
RTVSPropertyOp1
 70
     1
102
RTVSPropertyOp2
 70
     1
102
RTVSPropertyOp3
 70
     1
102
RTVSPropertyOp4
 70
     1
102
RTVSPropertyOp5
 70
     1
102
RTVSPropertyOp6
 70
     1
102
RTVSPropertyOp7
 70
     1
102
RTVSPropertyOp8
 70
     1
102
RTVSPropertyOp9
 70
     1
102
RTVSPropertyOp10
 70
     1
102
RTVSPropertyOp11
 70
     1
102
RTVSPropertyOp12
 70
     1
102
RTVSPropertyOp13
 70
     1
102
RTVSPropertyOp14
 70
     1
102
RTVSPropertyOp15
 70
     1
102
RTVSPropertyOp16
 70
     1
102
RTVSPropertyOp17
 70
     1
102
RTVSPropertyOp18
 70
     1
102
RTVSPropertyOp19
 70
     1
102
RTVSPropertyOp20
 70
     1
102
RTVSPropertyOp21
 70
     1
102
RTVSPropertyOp22
 70
     1
102
RTVSPropertyOp23
 70
     1
102
RTVSPropertyOp24
 70
     1
102
RTVSPropertyOp25
 70
     1
102
RTVSPropertyOp26
 70
     1
102
RTVSPropertyOp27
 70
     1
102
RTVSPropertyOp28
 70
     1
102
RTVSPropertyOp29
 70
     1
102
RTVSPropertyOp30
 70
     1
102
RTVSPropertyOp31
 70
     1
102
RTVSPropertyOp32
 70
     1
  0
XRECORD
  5
3E1
102
{ACAD_REACTORS
330
3E0
102
}
330
3E0
100
AcDbXrecord
280
     1
102
RTVSPropertyOp0
 70
     1
102
RTVSPropertyOp1
 70
     1
102
RTVSPropertyOp2
 70
     1
102
RTVSPropertyOp3
 70
     1
102
RTVSPropertyOp4
 70
     1
102
RTVSPropertyOp5
 70
     1
102
RTVSPropertyOp6
 70
     1
102
RTVSPropertyOp7
 70
     1
102
RTVSPropertyOp8
 70
     1
102
RTVSPropertyOp9
 70
     1
102
RTVSPropertyOp10
 70
     1
102
RTVSPropertyOp11
 70
     1
102
RTVSPropertyOp12
 70
     1
102
RTVSPropertyOp13
 70
     1
102
RTVSPropertyOp14
 70
     1
102
RTVSPropertyOp15
 70
     1
102
RTVSPropertyOp16
 70
     1
102
RTVSPropertyOp17
 70
     1
102
RTVSPropertyOp18
 70
     1
102
RTVSPropertyOp19
 70
     1
102
RTVSPropertyOp20
 70
     1
102
RTVSPropertyOp21
 70
     1
102
RTVSPropertyOp22
 70
     1
102
RTVSPropertyOp23
 70
     1
102
RTVSPropertyOp24
 70
     1
102
RTVSPropertyOp25
 70
     1
102
RTVSPropertyOp26
 70
     1
102
RTVSPropertyOp27
 70
     1
102
RTVSPropertyOp28
 70
     1
102
RTVSPropertyOp29
 70
     1
102
RTVSPropertyOp30
 70
     1
102
RTVSPropertyOp31
 70
     1
102
RTVSPropertyOp32
 70
     1
  0
XRECORD
  5
3E3
102
{ACAD_REACTORS
330
3E2
102
}
330
3E2
100
AcDbXrecord
280
     1
102
RTVSPropertyOp0
 70
     1
102
RTVSPropertyOp1
 70
     1
102
RTVSPropertyOp2
 70
     1
102
RTVSPropertyOp3
 70
     1
102
RTVSPropertyOp4
 70
     1
102
RTVSPropertyOp5
 70
     1
102
RTVSPropertyOp6
 70
     1
102
RTVSPropertyOp7
 70
     1
102
RTVSPropertyOp8
 70
     1
102
RTVSPropertyOp9
 70
     1
102
RTVSPropertyOp10
 70
     1
102
RTVSPropertyOp11
 70
     1
102
RTVSPropertyOp12
 70
     1
102
RTVSPropertyOp13
 70
     1
102
RTVSPropertyOp14
 70
     1
102
RTVSPropertyOp15
 70
     1
102
RTVSPropertyOp16
 70
     1
102
RTVSPropertyOp17
 70
     1
102
RTVSPropertyOp18
 70
     1
102
RTVSPropertyOp19
 70
     1
102
RTVSPropertyOp20
 70
     1
102
RTVSPropertyOp21
 70
     1
102
RTVSPropertyOp22
 70
     1
102
RTVSPropertyOp23
 70
     1
102
RTVSPropertyOp24
 70
     1
102
RTVSPropertyOp25
 70
     1
102
RTVSPropertyOp26
 70
     1
102
RTVSPropertyOp27
 70
     1
102
RTVSPropertyOp28
 70
     1
102
RTVSPropertyOp29
 70
     1
102
RTVSPropertyOp30
 70
     1
102
RTVSPropertyOp31
 70
     1
102
RTVSPropertyOp32
 70
     1
  0
XRECORD
  5
3E5
102
{ACAD_REACTORS
330
3E4
102
}
330
3E4
100
AcDbXrecord
280
     1
102
RTVSPropertyOp0
 70
     1
102
RTVSPropertyOp1
 70
     1
102
RTVSPropertyOp2
 70
     1
102
RTVSPropertyOp3
 70
     1
102
RTVSPropertyOp4
 70
     1
102
RTVSPropertyOp5
 70
     1
102
RTVSPropertyOp6
 70
     1
102
RTVSPropertyOp7
 70
     1
102
RTVSPropertyOp8
 70
     1
102
RTVSPropertyOp9
 70
     1
102
RTVSPropertyOp10
 70
     1
102
RTVSPropertyOp11
 70
     1
102
RTVSPropertyOp12
 70
     1
102
RTVSPropertyOp13
 70
     1
102
RTVSPropertyOp14
 70
     1
102
RTVSPropertyOp15
 70
     1
102
RTVSPropertyOp16
 70
     1
102
RTVSPropertyOp17
 70
     1
102
RTVSPropertyOp18
 70
     1
102
RTVSPropertyOp19
 70
     1
102
RTVSPropertyOp20
 70
     1
102
RTVSPropertyOp21
 70
     1
102
RTVSPropertyOp22
 70
     1
102
RTVSPropertyOp23
 70
     1
102
RTVSPropertyOp24
 70
     1
102
RTVSPropertyOp25
 70
     1
102
RTVSPropertyOp26
 70
     1
102
RTVSPropertyOp27
 70
     1
102
RTVSPropertyOp28
 70
     1
102
RTVSPropertyOp29
 70
     1
102
RTVSPropertyOp30
 70
     1
102
RTVSPropertyOp31
 70
     1
102
RTVSPropertyOp32
 70
     1
  0
XRECORD
  5
3E7
102
{ACAD_REACTORS
330
3E6
102
}
330
3E6
100
AcDbXrecord
280
     1
102
RTVSPropertyOp0
 70
     1
102
RTVSPropertyOp1
 70
     1
102
RTVSPropertyOp2
 70
     1
102
RTVSPropertyOp3
 70
     1
102
RTVSPropertyOp4
 70
     1
102
RTVSPropertyOp5
 70
     1
102
RTVSPropertyOp6
 70
     1
102
RTVSPropertyOp7
 70
     1
102
RTVSPropertyOp8
 70
     1
102
RTVSPropertyOp9
 70
     1
102
RTVSPropertyOp10
 70
     1
102
RTVSPropertyOp11
 70
     1
102
RTVSPropertyOp12
 70
     1
102
RTVSPropertyOp13
 70
     1
102
RTVSPropertyOp14
 70
     1
102
RTVSPropertyOp15
 70
     1
102
RTVSPropertyOp16
 70
     1
102
RTVSPropertyOp17
 70
     1
102
RTVSPropertyOp18
 70
     1
102
RTVSPropertyOp19
 70
     1
102
RTVSPropertyOp20
 70
     1
102
RTVSPropertyOp21
 70
     1
102
RTVSPropertyOp22
 70
     1
102
RTVSPropertyOp23
 70
     1
102
RTVSPropertyOp24
 70
     1
102
RTVSPropertyOp25
 70
     1
102
RTVSPropertyOp26
 70
     1
102
RTVSPropertyOp27
 70
     1
102
RTVSPropertyOp28
 70
     1
102
RTVSPropertyOp29
 70
     1
102
RTVSPropertyOp30
 70
     1
102
RTVSPropertyOp31
 70
     1
102
RTVSPropertyOp32
 70
     1
  0
XRECORD
  5
3EF
102
{ACAD_REACTORS
330
3EE
102
}
330
3EE
100
AcDbXrecord
280
     1
102
RTVSPropertyOp0
 70
     1
102
RTVSPropertyOp1
 70
     1
102
RTVSPropertyOp2
 70
     1
102
RTVSPropertyOp3
 70
     1
102
RTVSPropertyOp4
 70
     1
102
RTVSPropertyOp5
 70
     1
102
RTVSPropertyOp6
 70
     1
102
RTVSPropertyOp7
 70
     1
102
RTVSPropertyOp8
 70
     1
102
RTVSPropertyOp9
 70
     1
102
RTVSPropertyOp10
 70
     1
102
RTVSPropertyOp11
 70
     1
102
RTVSPropertyOp12
 70
     1
102
RTVSPropertyOp13
 70
     1
102
RTVSPropertyOp14
 70
     1
102
RTVSPropertyOp15
 70
     1
102
RTVSPropertyOp16
 70
     1
102
RTVSPropertyOp17
 70
     1
102
RTVSPropertyOp18
 70
     1
102
RTVSPropertyOp19
 70
     1
102
RTVSPropertyOp20
 70
     1
102
RTVSPropertyOp21
 70
     1
102
RTVSPropertyOp22
 70
     1
102
RTVSPropertyOp23
 70
     1
102
RTVSPropertyOp24
 70
     1
102
RTVSPropertyOp25
 70
     1
102
RTVSPropertyOp26
 70
     1
102
RTVSPropertyOp27
 70
     1
102
RTVSPropertyOp28
 70
     1
102
RTVSPropertyOp29
 70
     1
102
RTVSPropertyOp30
 70
     1
102
RTVSPropertyOp31
 70
     1
102
RTVSPropertyOp32
 70
     1
  0
XRECORD
  5
40B
102
{ACAD_REACTORS
330
40A
102
}
330
40A
100
AcDbXrecord
280
     1
102
RTVSPropertyOp0
 70
     0
102
RTVSPropertyOp1
 70
     0
102
RTVSPropertyOp2
 70
     0
102
RTVSPropertyOp3
 70
     0
102
RTVSPropertyOp4
 70
     0
102
RTVSPropertyOp5
 70
     0
102
RTVSPropertyOp6
 70
     0
102
RTVSPropertyOp7
 70
     0
102
RTVSPropertyOp8
 70
     0
102
RTVSPropertyOp9
 70
     0
102
RTVSPropertyOp10
 70
     0
102
RTVSPropertyOp11
 70
     0
102
RTVSPropertyOp12
 70
     0
102
RTVSPropertyOp13
 70
     0
102
RTVSPropertyOp14
 70
     2
102
RTVSPropertyOp15
 70
     0
102
RTVSPropertyOp16
 70
     0
102
RTVSPropertyOp17
 70
     0
102
RTVSPropertyOp18
 70
     0
102
RTVSPropertyOp19
 70
     0
102
RTVSPropertyOp20
 70
     0
102
RTVSPropertyOp21
 70
     0
102
RTVSPropertyOp22
 70
     0
102
RTVSPropertyOp23
 70
     0
102
RTVSPropertyOp24
 70
     0
102
RTVSPropertyOp25
 70
     0
102
RTVSPropertyOp26
 70
     0
102
RTVSPropertyOp27
 70
     0
102
RTVSPropertyOp28
 70
     0
102
RTVSPropertyOp29
 70
     0
102
RTVSPropertyOp30
 70
     0
102
RTVSPropertyOp31
 70
     0
102
RTVSPropertyOp32
 70
     0
  0
XRECORD
  5
3FB
102
{ACAD_REACTORS
330
3FA
102
}
330
3FA
100
AcDbXrecord
280
     1
102
RTVSPropertyOp0
 70
     1
102
RTVSPropertyOp1
 70
     1
102
RTVSPropertyOp2
 70
     1
102
RTVSPropertyOp3
 70
     1
102
RTVSPropertyOp4
 70
     1
102
RTVSPropertyOp5
 70
     1
102
RTVSPropertyOp6
 70
     1
102
RTVSPropertyOp7
 70
     1
102
RTVSPropertyOp8
 70
     1
102
RTVSPropertyOp9
 70
     1
102
RTVSPropertyOp10
 70
     1
102
RTVSPropertyOp11
 70
     1
102
RTVSPropertyOp12
 70
     1
102
RTVSPropertyOp13
 70
     1
102
RTVSPropertyOp14
 70
     1
102
RTVSPropertyOp15
 70
     1
102
RTVSPropertyOp16
 70
     1
102
RTVSPropertyOp17
 70
     1
102
RTVSPropertyOp18
 70
     1
102
RTVSPropertyOp19
 70
     1
102
RTVSPropertyOp20
 70
     1
102
RTVSPropertyOp21
 70
     1
102
RTVSPropertyOp22
 70
     1
102
RTVSPropertyOp23
 70
     1
102
RTVSPropertyOp24
 70
     1
102
RTVSPropertyOp25
 70
     1
102
RTVSPropertyOp26
 70
     1
102
RTVSPropertyOp27
 70
     1
102
RTVSPropertyOp28
 70
     1
102
RTVSPropertyOp29
 70
     1
102
RTVSPropertyOp30
 70
     1
102
RTVSPropertyOp31
 70
     1
102
RTVSPropertyOp32
 70
     1
  0
XRECORD
  5
40D
102
{ACAD_REACTORS
330
40C
102
}
330
40C
100
AcDbXrecord
280
     1
102
RTVSPropertyOp0
 70
     0
102
RTVSPropertyOp1
 70
     0
102
RTVSPropertyOp2
 70
     0
102
RTVSPropertyOp3
 70
     0
102
RTVSPropertyOp4
 70
     0
102
RTVSPropertyOp5
 70
     0
102
RTVSPropertyOp6
 70
     0
102
RTVSPropertyOp7
 70
     0
102
RTVSPropertyOp8
 70
     0
102
RTVSPropertyOp9
 70
     0
102
RTVSPropertyOp10
 70
     0
102
RTVSPropertyOp11
 70
     0
102
RTVSPropertyOp12
 70
     0
102
RTVSPropertyOp13
 70
     0
102
RTVSPropertyOp14
 70
     2
102
RTVSPropertyOp15
 70
     0
102
RTVSPropertyOp16
 70
     0
102
RTVSPropertyOp17
 70
     0
102
RTVSPropertyOp18
 70
     0
102
RTVSPropertyOp19
 70
     0
102
RTVSPropertyOp20
 70
     0
102
RTVSPropertyOp21
 70
     0
102
RTVSPropertyOp22
 70
     0
102
RTVSPropertyOp23
 70
     0
102
RTVSPropertyOp24
 70
     0
102
RTVSPropertyOp25
 70
     0
102
RTVSPropertyOp26
 70
     0
102
RTVSPropertyOp27
 70
     0
102
RTVSPropertyOp28
 70
     0
102
RTVSPropertyOp29
 70
     0
102
RTVSPropertyOp30
 70
     0
102
RTVSPropertyOp31
 70
     0
102
RTVSPropertyOp32
 70
     0
  0
XRECORD
  5
3F3
102
{ACAD_REACTORS
330
3F2
102
}
330
3F2
100
AcDbXrecord
280
     1
102
RTVSPropertyOp0
 70
     1
102
RTVSPropertyOp1
 70
     1
102
RTVSPropertyOp2
 70
     1
102
RTVSPropertyOp3
 70
     1
102
RTVSPropertyOp4
 70
     1
102
RTVSPropertyOp5
 70
     1
102
RTVSPropertyOp6
 70
     1
102
RTVSPropertyOp7
 70
     1
102
RTVSPropertyOp8
 70
     1
102
RTVSPropertyOp9
 70
     1
102
RTVSPropertyOp10
 70
     1
102
RTVSPropertyOp11
 70
     1
102
RTVSPropertyOp12
 70
     1
102
RTVSPropertyOp13
 70
     1
102
RTVSPropertyOp14
 70
     1
102
RTVSPropertyOp15
 70
     1
102
RTVSPropertyOp16
 70
     1
102
RTVSPropertyOp17
 70
     1
102
RTVSPropertyOp18
 70
     1
102
RTVSPropertyOp19
 70
     1
102
RTVSPropertyOp20
 70
     1
102
RTVSPropertyOp21
 70
     1
102
RTVSPropertyOp22
 70
     1
102
RTVSPropertyOp23
 70
     1
102
RTVSPropertyOp24
 70
     1
102
RTVSPropertyOp25
 70
     1
102
RTVSPropertyOp26
 70
     1
102
RTVSPropertyOp27
 70
     1
102
RTVSPropertyOp28
 70
     1
102
RTVSPropertyOp29
 70
     1
102
RTVSPropertyOp30
 70
     1
102
RTVSPropertyOp31
 70
     1
102
RTVSPropertyOp32
 70
     1
  0
XRECORD
  5
409
102
{ACAD_REACTORS
330
408
102
}
330
408
100
AcDbXrecord
280
     1
102
RTVSPropertyOp0
 70
     1
102
RTVSPropertyOp1
 70
     1
102
RTVSPropertyOp2
 70
     1
102
RTVSPropertyOp3
 70
     1
102
RTVSPropertyOp4
 70
     1
102
RTVSPropertyOp5
 70
     1
102
RTVSPropertyOp6
 70
     1
102
RTVSPropertyOp7
 70
     1
102
RTVSPropertyOp8
 70
     1
102
RTVSPropertyOp9
 70
     1
102
RTVSPropertyOp10
 70
     1
102
RTVSPropertyOp11
 70
     1
102
RTVSPropertyOp12
 70
     1
102
RTVSPropertyOp13
 70
     1
102
RTVSPropertyOp14
 70
     1
102
RTVSPropertyOp15
 70
     1
102
RTVSPropertyOp16
 70
     1
102
RTVSPropertyOp17
 70
     1
102
RTVSPropertyOp18
 70
     1
102
RTVSPropertyOp19
 70
     1
102
RTVSPropertyOp20
 70
     1
102
RTVSPropertyOp21
 70
     1
102
RTVSPropertyOp22
 70
     1
102
RTVSPropertyOp23
 70
     1
102
RTVSPropertyOp24
 70
     1
102
RTVSPropertyOp25
 70
     1
102
RTVSPropertyOp26
 70
     1
102
RTVSPropertyOp27
 70
     1
102
RTVSPropertyOp28
 70
     1
102
RTVSPropertyOp29
 70
     1
102
RTVSPropertyOp30
 70
     1
102
RTVSPropertyOp31
 70
     1
102
RTVSPropertyOp32
 70
     1
  0
XRECORD
  5
407
102
{ACAD_REACTORS
330
406
102
}
330
406
100
AcDbXrecord
280
     1
102
RTVSPropertyOp0
 70
     1
102
RTVSPropertyOp1
 70
     1
102
RTVSPropertyOp2
 70
     1
102
RTVSPropertyOp3
 70
     1
102
RTVSPropertyOp4
 70
     1
102
RTVSPropertyOp5
 70
     1
102
RTVSPropertyOp6
 70
     1
102
RTVSPropertyOp7
 70
     1
102
RTVSPropertyOp8
 70
     1
102
RTVSPropertyOp9
 70
     1
102
RTVSPropertyOp10
 70
     1
102
RTVSPropertyOp11
 70
     1
102
RTVSPropertyOp12
 70
     1
102
RTVSPropertyOp13
 70
     1
102
RTVSPropertyOp14
 70
     1
102
RTVSPropertyOp15
 70
     1
102
RTVSPropertyOp16
 70
     1
102
RTVSPropertyOp17
 70
     1
102
RTVSPropertyOp18
 70
     1
102
RTVSPropertyOp19
 70
     1
102
RTVSPropertyOp20
 70
     1
102
RTVSPropertyOp21
 70
     1
102
RTVSPropertyOp22
 70
     1
102
RTVSPropertyOp23
 70
     1
102
RTVSPropertyOp24
 70
     1
102
RTVSPropertyOp25
 70
     1
102
RTVSPropertyOp26
 70
     1
102
RTVSPropertyOp27
 70
     1
102
RTVSPropertyOp28
 70
     1
102
RTVSPropertyOp29
 70
     1
102
RTVSPropertyOp30
 70
     1
102
RTVSPropertyOp31
 70
     1
102
RTVSPropertyOp32
 70
     1
  0
XRECORD
  5
401
102
{ACAD_REACTORS
330
400
102
}
330
400
100
AcDbXrecord
280
     1
102
RTVSPropertyOp0
 70
     1
102
RTVSPropertyOp1
 70
     1
102
RTVSPropertyOp2
 70
     1
102
RTVSPropertyOp3
 70
     1
102
RTVSPropertyOp4
 70
     1
102
RTVSPropertyOp5
 70
     1
102
RTVSPropertyOp6
 70
     1
102
RTVSPropertyOp7
 70
     1
102
RTVSPropertyOp8
 70
     1
102
RTVSPropertyOp9
 70
     1
102
RTVSPropertyOp10
 70
     1
102
RTVSPropertyOp11
 70
     1
102
RTVSPropertyOp12
 70
     1
102
RTVSPropertyOp13
 70
     1
102
RTVSPropertyOp14
 70
     1
102
RTVSPropertyOp15
 70
     1
102
RTVSPropertyOp16
 70
     1
102
RTVSPropertyOp17
 70
     1
102
RTVSPropertyOp18
 70
     1
102
RTVSPropertyOp19
 70
     1
102
RTVSPropertyOp20
 70
     1
102
RTVSPropertyOp21
 70
     1
102
RTVSPropertyOp22
 70
     1
102
RTVSPropertyOp23
 70
     1
102
RTVSPropertyOp24
 70
     1
102
RTVSPropertyOp25
 70
     1
102
RTVSPropertyOp26
 70
     1
102
RTVSPropertyOp27
 70
     1
102
RTVSPropertyOp28
 70
     1
102
RTVSPropertyOp29
 70
     1
102
RTVSPropertyOp30
 70
     1
102
RTVSPropertyOp31
 70
     1
102
RTVSPropertyOp32
 70
     1
  0
XRECORD
  5
403
102
{ACAD_REACTORS
330
402
102
}
330
402
100
AcDbXrecord
280
     1
102
RTVSPropertyOp0
 70
     1
102
RTVSPropertyOp1
 70
     1
102
RTVSPropertyOp2
 70
     1
102
RTVSPropertyOp3
 70
     1
102
RTVSPropertyOp4
 70
     1
102
RTVSPropertyOp5
 70
     1
102
RTVSPropertyOp6
 70
     1
102
RTVSPropertyOp7
 70
     1
102
RTVSPropertyOp8
 70
     1
102
RTVSPropertyOp9
 70
     1
102
RTVSPropertyOp10
 70
     1
102
RTVSPropertyOp11
 70
     1
102
RTVSPropertyOp12
 70
     1
102
RTVSPropertyOp13
 70
     1
102
RTVSPropertyOp14
 70
     1
102
RTVSPropertyOp15
 70
     1
102
RTVSPropertyOp16
 70
     1
102
RTVSPropertyOp17
 70
     1
102
RTVSPropertyOp18
 70
     1
102
RTVSPropertyOp19
 70
     1
102
RTVSPropertyOp20
 70
     1
102
RTVSPropertyOp21
 70
     1
102
RTVSPropertyOp22
 70
     1
102
RTVSPropertyOp23
 70
     1
102
RTVSPropertyOp24
 70
     1
102
RTVSPropertyOp25
 70
     1
102
RTVSPropertyOp26
 70
     1
102
RTVSPropertyOp27
 70
     1
102
RTVSPropertyOp28
 70
     1
102
RTVSPropertyOp29
 70
     1
102
RTVSPropertyOp30
 70
     1
102
RTVSPropertyOp31
 70
     1
102
RTVSPropertyOp32
 70
     1
  0
XRECORD
  5
3F9
102
{ACAD_REACTORS
330
3F8
102
}
330
3F8
100
AcDbXrecord
280
     1
102
RTVSPropertyOp0
 70
     1
102
RTVSPropertyOp1
 70
     1
102
RTVSPropertyOp2
 70
     1
102
RTVSPropertyOp3
 70
     1
102
RTVSPropertyOp4
 70
     1
102
RTVSPropertyOp5
 70
     1
102
RTVSPropertyOp6
 70
     1
102
RTVSPropertyOp7
 70
     1
102
RTVSPropertyOp8
 70
     1
102
RTVSPropertyOp9
 70
     1
102
RTVSPropertyOp10
 70
     1
102
RTVSPropertyOp11
 70
     1
102
RTVSPropertyOp12
 70
     1
102
RTVSPropertyOp13
 70
     1
102
RTVSPropertyOp14
 70
     1
102
RTVSPropertyOp15
 70
     1
102
RTVSPropertyOp16
 70
     1
102
RTVSPropertyOp17
 70
     1
102
RTVSPropertyOp18
 70
     1
102
RTVSPropertyOp19
 70
     1
102
RTVSPropertyOp20
 70
     1
102
RTVSPropertyOp21
 70
     1
102
RTVSPropertyOp22
 70
     1
102
RTVSPropertyOp23
 70
     1
102
RTVSPropertyOp24
 70
     1
102
RTVSPropertyOp25
 70
     1
102
RTVSPropertyOp26
 70
     1
102
RTVSPropertyOp27
 70
     1
102
RTVSPropertyOp28
 70
     1
102
RTVSPropertyOp29
 70
     1
102
RTVSPropertyOp30
 70
     1
102
RTVSPropertyOp31
 70
     1
102
RTVSPropertyOp32
 70
     1
  0
XRECORD
  5
3ED
102
{ACAD_REACTORS
330
3EC
102
}
330
3EC
100
AcDbXrecord
280
     1
102
RTVSPropertyOp0
 70
     1
102
RTVSPropertyOp1
 70
     1
102
RTVSPropertyOp2
 70
     1
102
RTVSPropertyOp3
 70
     1
102
RTVSPropertyOp4
 70
     1
102
RTVSPropertyOp5
 70
     1
102
RTVSPropertyOp6
 70
     1
102
RTVSPropertyOp7
 70
     1
102
RTVSPropertyOp8
 70
     1
102
RTVSPropertyOp9
 70
     1
102
RTVSPropertyOp10
 70
     1
102
RTVSPropertyOp11
 70
     1
102
RTVSPropertyOp12
 70
     1
102
RTVSPropertyOp13
 70
     1
102
RTVSPropertyOp14
 70
     1
102
RTVSPropertyOp15
 70
     1
102
RTVSPropertyOp16
 70
     1
102
RTVSPropertyOp17
 70
     1
102
RTVSPropertyOp18
 70
     1
102
RTVSPropertyOp19
 70
     1
102
RTVSPropertyOp20
 70
     1
102
RTVSPropertyOp21
 70
     1
102
RTVSPropertyOp22
 70
     1
102
RTVSPropertyOp23
 70
     1
102
RTVSPropertyOp24
 70
     1
102
RTVSPropertyOp25
 70
     1
102
RTVSPropertyOp26
 70
     1
102
RTVSPropertyOp27
 70
     1
102
RTVSPropertyOp28
 70
     1
102
RTVSPropertyOp29
 70
     1
102
RTVSPropertyOp30
 70
     1
102
RTVSPropertyOp31
 70
     1
102
RTVSPropertyOp32
 70
     1
  0
XRECORD
  5
405
102
{ACAD_REACTORS
330
404
102
}
330
404
100
AcDbXrecord
280
     1
102
RTVSPropertyOp0
 70
     1
102
RTVSPropertyOp1
 70
     1
102
RTVSPropertyOp2
 70
     1
102
RTVSPropertyOp3
 70
     1
102
RTVSPropertyOp4
 70
     1
102
RTVSPropertyOp5
 70
     1
102
RTVSPropertyOp6
 70
     1
102
RTVSPropertyOp7
 70
     1
102
RTVSPropertyOp8
 70
     1
102
RTVSPropertyOp9
 70
     1
102
RTVSPropertyOp10
 70
     1
102
RTVSPropertyOp11
 70
     1
102
RTVSPropertyOp12
 70
     1
102
RTVSPropertyOp13
 70
     1
102
RTVSPropertyOp14
 70
     1
102
RTVSPropertyOp15
 70
     1
102
RTVSPropertyOp16
 70
     1
102
RTVSPropertyOp17
 70
     1
102
RTVSPropertyOp18
 70
     1
102
RTVSPropertyOp19
 70
     1
102
RTVSPropertyOp20
 70
     1
102
RTVSPropertyOp21
 70
     1
102
RTVSPropertyOp22
 70
     1
102
RTVSPropertyOp23
 70
     1
102
RTVSPropertyOp24
 70
     1
102
RTVSPropertyOp25
 70
     1
102
RTVSPropertyOp26
 70
     1
102
RTVSPropertyOp27
 70
     1
102
RTVSPropertyOp28
 70
     1
102
RTVSPropertyOp29
 70
     1
102
RTVSPropertyOp30
 70
     1
102
RTVSPropertyOp31
 70
     1
102
RTVSPropertyOp32
 70
     1
  0
ENDSEC
  0
EOF
